999
DXF file: Y:\001_SCHNEIDER_PARIS\78_2020_429_Grey Project M580\TRAVAIL LUCAS SANTANA G2P1\CAD3D\2D views\BMXDDI3202K_2D-Views\BMXDDI3202K_2D-REAR.dxf
999
Pro/ENGINEER 2018260 by Parametric Technology Corporation
  0
SECTION
  2
HEADER
  9
$ACADVER
  1
AC1027
  9
$DWGCODEPAGE
  3
ANSI_1252
  9
$EXTMAX
 10
558.8
 20
431.8
 30
0.0
  9
$EXTMIN
 10
0.0
 20
0.0
 30
0.0
  9
$LIMMIN
 10
0.0
 20
0.0
  9
$LIMMAX
 10
558.8
 20
431.8
  9
$VIEWCTR
 10
279.4
 20
215.9
  9
$VIEWSIZE
 40
431.8
  9
$CLAYER
  8
0
  9
$LTSCALE
 40
30.734
  9
$CELTYPE
  6
BYLAYER
  9
$DIMSCALE
 40
1.0
  9
$DIMASZ
 40
3.5
  9
$DIMEXO
 40
1.0
  9
$DIMDLI
 40
21.2344
  9
$DIMEXE
 40
3.0
  9
$DIMCEN
 40
5.0292
  9
$DIMLFAC
 40
1.0
  9
$DIMBLK
  1
_FILLED
  9
$DIMALT
 70
0
  9
$DIMALTF
 40
0.0393700787
  9
$DIMTXT
 40
4.0
  9
$DIMTOL
 70
1
  9
$DIMLIM
 70
0
  9
$DIMTFAC
 40
1.0
  9
$DIMTP
 40
0.0001
  9
$DIMTM
 40
0.0001
  9
$DIMGAP
 40
0.625
  9
$DIMDSEP
 70
46
  9
$AUNITS
 70
0
  9
$PDMODE
 70
0
  9
$PDSIZE
 40
0.01
  9
$HANDSEED
  5
411
  9
$TILEMODE
 70
1
  9
$MEASUREMENT
 70
1
  9
$INSUNITS
 70
4
  0
ENDSEC
  0
SECTION
  2
CLASSES
  0
CLASS
  1
ACDBDICTIONARYWDFLT
  2
AcDbDictionaryWithDefault
  3
AutoCAD 2000
 90
0
 91
1
280
0
281
0
  0
CLASS
  1
ACDBPLACEHOLDER
  2
AcDbPlaceHolder
  3
AutoCAD 2000
 90
0
 91
1
280
0
281
0
  0
CLASS
  1
LAYOUT
  2
AcDbLayout
  3
AutoCAD 2000
 90
0
 91
0
280
0
281
0
  0
ENDSEC
  0
SECTION
  2
TABLES
  0
TABLE
  2
VPORT
  5
8
100
AcDbSymbolTable
 70
2
  0
VPORT
  5
1F4
100
AcDbSymbolTableRecord
100
AcDbViewportTableRecord
  2
*ACTIVE
 70
0
 10
0.0
 20
0.0
 11
1.0
 21
1.0
 12
279.4
 22
215.9
 13
0.0
 23
0.0
 14
1.0
 24
1.0
 15
0.0
 25
0.0
 16
0.0
 26
0.0
 36
1.0
 17
0.0
 27
0.0
 37
0.0
 40
431.8
 41
1.2941176471
 42
50.0
 43
0.0
 44
0.0
 50
0.0
 51
0.0
 71
0
 72
100
 73
1
 74
1
 75
0
 76
0
 77
0
 78
0
  0
ENDTAB
  0
TABLE
  2
LTYPE
  5
5
100
AcDbSymbolTable
 70
6
  0
LTYPE
  5
14
100
AcDbSymbolTableRecord
100
AcDbLinetypeTableRecord
  2
BYBLOCK
 70
0
  3

 72
65
 73
0
 40
0.0
  0
LTYPE
  5
15
100
AcDbSymbolTableRecord
100
AcDbLinetypeTableRecord
  2
BYLAYER
 70
0
  3

 72
65
 73
0
 40
0.0
  0
LTYPE
  5
16
100
AcDbSymbolTableRecord
100
AcDbLinetypeTableRecord
  2
CONTINUOUS
 70
64
  3
Solid line
 72
65
 73
0
 40
0.0
  0
LTYPE
  5
1F5
100
AcDbSymbolTableRecord
100
AcDbLinetypeTableRecord
  2
CENTER
 70
64
  3
____ _ ____ _ ____ _ ____ _ ____ _ ____ _ ____
 72
65
 73
4
 40
0.6
 49
0.375
 74
0
 49
-0.075
 74
0
 49
0.075
 74
0
 49
-0.075
 74
0
  0
LTYPE
  5
1F6
100
AcDbSymbolTableRecord
100
AcDbLinetypeTableRecord
  2
HIDDEN
 70
64
  3
- - - - - - - - - - - - - - - - - - - -
 72
65
 73
2
 40
0.2
 49
0.1
 74
0
 49
-0.1
 74
0
  0
LTYPE
  5
1F7
100
AcDbSymbolTableRecord
100
AcDbLinetypeTableRecord
  2
PHANTOM
 70
64
  3
_____ _ _ _____ _ _ _____ _ _ _____
 72
65
 73
6
 40
0.8
 49
0.45
 74
0
 49
-0.05
 74
0
 49
0.1
 74
0
 49
-0.05
 74
0
 49
0.1
 74
0
 49
-0.05
 74
0
  0
LTYPE
  5
1F8
100
AcDbSymbolTableRecord
100
AcDbLinetypeTableRecord
  2
DOT
 70
64
  3
. . . . . . . . . . . . . . . . . . . .
 72
65
 73
2
 40
0.2
 49
0.1
 74
0
 49
-0.1
 74
0
  0
LTYPE
  5
1F9
100
AcDbSymbolTableRecord
100
AcDbLinetypeTableRecord
  2
DASHED
 70
64
  3
- - - - - - - - - - - - - - - - - - - -
 72
65
 73
2
 40
0.2
 49
0.1
 74
0
 49
-0.1
 74
0
  0
ENDTAB
  0
TABLE
  2
LAYER
  5
2
100
AcDbSymbolTable
 70
36
  0
LAYER
  5
10
100
AcDbSymbolTableRecord
100
AcDbLayerTableRecord
  2
0
 70
0
 62
7
  6
CONTINUOUS
370
-3
390
F
  0
LAYER
  5
1FA
100
AcDbSymbolTableRecord
100
AcDbLayerTableRecord
  2
DEFAULT_1
 70
0
 62
7
  6
CENTER
370
-3
390
F
  0
LAYER
  5
1FB
100
AcDbSymbolTableRecord
100
AcDbLayerTableRecord
  2
DEFAULT_2
 70
0
 62
8
  6
HIDDEN
370
-3
390
F
  0
LAYER
  5
1FC
100
AcDbSymbolTableRecord
100
AcDbLayerTableRecord
  2
DEFAULT_3
 70
0
 62
7
  6
PHANTOM
370
-3
390
F
  0
LAYER
  5
1FD
100
AcDbSymbolTableRecord
100
AcDbLayerTableRecord
  2
01_ALL_DTM_PLN
 70
0
 62
7
  6
CONTINUOUS
370
-3
390
F
  0
LAYER
  5
1FE
100
AcDbSymbolTableRecord
100
AcDbLayerTableRecord
  2
01__ASM_ALL_DTM_PLN
 70
0
 62
7
  6
CONTINUOUS
370
-3
390
F
  0
LAYER
  5
1FF
100
AcDbSymbolTableRecord
100
AcDbLayerTableRecord
  2
01__ASM_DEF_DTM_PLN
 70
0
 62
7
  6
CONTINUOUS
370
-3
390
F
  0
LAYER
  5
200
100
AcDbSymbolTableRecord
100
AcDbLayerTableRecord
  2
01___PRT_ALL_DTM_PLN
 70
0
 62
7
  6
CONTINUOUS
370
-3
390
F
  0
LAYER
  5
201
100
AcDbSymbolTableRecord
100
AcDbLayerTableRecord
  2
01___PRT_DEF_DTM_PLN
 70
0
 62
7
  6
CONTINUOUS
370
-3
390
F
  0
LAYER
  5
202
100
AcDbSymbolTableRecord
100
AcDbLayerTableRecord
  2
02_ALL_AXES
 70
0
 62
7
  6
CONTINUOUS
370
-3
390
F
  0
LAYER
  5
203
100
AcDbSymbolTableRecord
100
AcDbLayerTableRecord
  2
02__ASM_ALL_AXES
 70
0
 62
7
  6
CONTINUOUS
370
-3
390
F
  0
LAYER
  5
204
100
AcDbSymbolTableRecord
100
AcDbLayerTableRecord
  2
02___PRT_ALL_AXES
 70
0
 62
7
  6
CONTINUOUS
370
-3
390
F
  0
LAYER
  5
205
100
AcDbSymbolTableRecord
100
AcDbLayerTableRecord
  2
03_ALL_CURVES
 70
0
 62
7
  6
CONTINUOUS
370
-3
390
F
  0
LAYER
  5
206
100
AcDbSymbolTableRecord
100
AcDbLayerTableRecord
  2
03__ASM_ALL_CURVES
 70
0
 62
7
  6
CONTINUOUS
370
-3
390
F
  0
LAYER
  5
207
100
AcDbSymbolTableRecord
100
AcDbLayerTableRecord
  2
03___PRT_ALL_CURVES
 70
0
 62
7
  6
CONTINUOUS
370
-3
390
F
  0
LAYER
  5
208
100
AcDbSymbolTableRecord
100
AcDbLayerTableRecord
  2
04_ALL_DTM_PNT
 70
0
 62
7
  6
CONTINUOUS
370
-3
390
F
  0
LAYER
  5
209
100
AcDbSymbolTableRecord
100
AcDbLayerTableRecord
  2
04__ASM_ALL_DTM_PNT
 70
0
 62
7
  6
CONTINUOUS
370
-3
390
F
  0
LAYER
  5
20A
100
AcDbSymbolTableRecord
100
AcDbLayerTableRecord
  2
04___PRT_ALL_DTM_PNT
 70
0
 62
7
  6
CONTINUOUS
370
-3
390
F
  0
LAYER
  5
20B
100
AcDbSymbolTableRecord
100
AcDbLayerTableRecord
  2
05_ALL_DTM_CSYS
 70
0
 62
7
  6
CONTINUOUS
370
-3
390
F
  0
LAYER
  5
20C
100
AcDbSymbolTableRecord
100
AcDbLayerTableRecord
  2
05__ASM_ALL_DTM_CSYS
 70
0
 62
7
  6
CONTINUOUS
370
-3
390
F
  0
LAYER
  5
20D
100
AcDbSymbolTableRecord
100
AcDbLayerTableRecord
  2
05__ASM_DEF_DTM_CSYS
 70
0
 62
7
  6
CONTINUOUS
370
-3
390
F
  0
LAYER
  5
20E
100
AcDbSymbolTableRecord
100
AcDbLayerTableRecord
  2
05___PRT_ALL_DTM_CSYS
 70
0
 62
7
  6
CONTINUOUS
370
-3
390
F
  0
LAYER
  5
20F
100
AcDbSymbolTableRecord
100
AcDbLayerTableRecord
  2
05___PRT_DEF_DTM_CSYS
 70
0
 62
7
  6
CONTINUOUS
370
-3
390
F
  0
LAYER
  5
210
100
AcDbSymbolTableRecord
100
AcDbLayerTableRecord
  2
06_ALL_SURFS
 70
0
 62
7
  6
CONTINUOUS
370
-3
390
F
  0
LAYER
  5
211
100
AcDbSymbolTableRecord
100
AcDbLayerTableRecord
  2
06__ASM_ALL_SURFS
 70
0
 62
7
  6
CONTINUOUS
370
-3
390
F
  0
LAYER
  5
212
100
AcDbSymbolTableRecord
100
AcDbLayerTableRecord
  2
06___PRT_ALL_SURFS
 70
0
 62
7
  6
CONTINUOUS
370
-3
390
F
  0
LAYER
  5
213
100
AcDbSymbolTableRecord
100
AcDbLayerTableRecord
  2
07__ASM_ALL_SKELETONS
 70
0
 62
7
  6
CONTINUOUS
370
-3
390
F
  0
ENDTAB
  0
TABLE
  2
STYLE
  5
3
100
AcDbSymbolTable
 70
1
  0
STYLE
  5
11
100
AcDbSymbolTableRecord
100
AcDbTextStyleTableRecord
  2
STANDARD
 70
0
 40
0.0
 41
0.6
 50
0.0
 71
0
 42
0.2
  3
txt
  4

  0
STYLE
  5
214
100
AcDbSymbolTableRecord
100
AcDbTextStyleTableRecord
  2
TEXTSTYLE_1
 70
0
 40
0.0
 41
0.8
 50
0.0
 71
0
 42
0.2
  3
gdt
  4

  0
ENDTAB
  0
TABLE
  2
VIEW
  5
6
100
AcDbSymbolTable
 70
0
  0
ENDTAB
  0
TABLE
  2
UCS
  5
7
100
AcDbSymbolTable
 70
0
  0
ENDTAB
  0
TABLE
  2
APPID
  5
9
100
AcDbSymbolTable
 70
1
  0
APPID
  5
215
100
AcDbSymbolTableRecord
100
AcDbRegAppTableRecord
  2
ACAD
 70
0
  0
ENDTAB
  0
TABLE
  2
BLOCK_RECORD
  5
1
100
AcDbSymbolTable
 70
0
  0
BLOCK_RECORD
  5
216
100
AcDbSymbolTableRecord
100
AcDbBlockTableRecord
  2
*Model_Space
  0
BLOCK_RECORD
  5
217
100
AcDbSymbolTableRecord
100
AcDbBlockTableRecord
  2
*Paper_Space
  0
BLOCK_RECORD
  5
218
100
AcDbSymbolTableRecord
100
AcDbBlockTableRecord
  2
_FILLED
  0
ENDTAB
  0
TABLE
  2
DIMSTYLE
  5
A
100
AcDbSymbolTable
 70
1
100
AcDbDimStyleTable
 71
0
  0
DIMSTYLE
105
219
100
AcDbSymbolTableRecord
100
AcDbDimStyleTableRecord
  2
STANDARD
 70
0
  3

  4

 40
1.0
 41
3.5
 42
1.0
 43
0.38
 44
3.0
 45
0.0
 46
0.0
 47
0.0001
 48
0.0001
140
4.0
141
0.09
142
0.0
143
25.4
144
1.0
145
0.0
146
1.0
147
0.625
 71
1.0
 72
0.0
 73
0
 74
0
 75
0
 76
0
 77
1
 78
8
 79
2
170
0
171
3
172
0
173
0
174
0
175
0
176
0
177
0
178
0
270
2
179
4
271
4
272
4
273
2
274
2
275
0
280
0
281
0
282
0
283
1
284
8
285
0
286
0
287
3
288
0
340
11
278
46
341
218
342
218
343
218
344
218
  0
ENDTAB
  0
ENDSEC
  0
SECTION
  2
BLOCKS
  0
BLOCK
  5
20
100
AcDbEntity
  8
0
100
AcDbBlockBegin
  2
*Model_Space
 70
0
 10
0.0
 20
0.0
 30
0.0
  3
*Model_Space
  1

  0
ENDBLK
  5
21
100
AcDbEntity
  8
0
100
AcDbBlockEnd
  0
BLOCK
  5
1C
100
AcDbEntity
  8
0
100
AcDbBlockBegin
  2
*Paper_Space
 70
0
 10
0.0
 20
0.0
 30
0.0
  3
*Paper_Space
  1

  0
ENDBLK
  5
1D
100
AcDbEntity
  8
0
100
AcDbBlockEnd
  0
BLOCK
  5
21A
100
AcDbEntity
  8
0
100
AcDbBlockBegin
  2
_FILLED
 70
64
 10
0.0
 20
0.0
  3
_FILLED
  1

  0
SOLID
  5
21B
100
AcDbEntity
  8
0
  6
BYBLOCK
 62
0
100
AcDbTrace
 10
0.0
 20
0.0
 11
-1.0
 21
0.2857142857
 12
-1.0
 22
-0.2857142857
 13
-1.0
 23
-0.2857142857
  0
ENDBLK
  5
21C
100
AcDbEntity
  8
0
  6
BYBLOCK
 62
0
100
AcDbBlockEnd
  0
ENDSEC
  0
SECTION
  2
ENTITIES
  0
LINE
  5
21D
100
AcDbEntity
  8
0
100
AcDbLine
 62
7
  6
CONTINUOUS
 10
306.0759333147
 20
187.9071979926
 11
338.0759333147
 21
187.9071979926
  0
LINE
  5
21E
100
AcDbEntity
  8
0
100
AcDbLine
 62
7
  6
CONTINUOUS
 10
338.0759333147
 20
188.0730084806
 11
306.0759333147
 21
188.0730084806
  0
LINE
  5
21F
100
AcDbEntity
  8
0
100
AcDbLine
 62
7
  6
CONTINUOUS
 10
311.8405504075
 20
288.0730084806
 11
318.0759333147
 21
291.6730084806
  0
LINE
  5
220
100
AcDbEntity
  8
0
100
AcDbLine
 62
7
  6
CONTINUOUS
 10
332.7189995323
 20
189.929942263
 11
329.6328670971
 21
189.929942263
  0
LINE
  5
221
100
AcDbEntity
  8
0
100
AcDbLine
 62
7
  6
CONTINUOUS
 10
314.1689995323
 20
189.929942263
 11
311.4828670971
 21
189.929942263
  0
LINE
  5
222
100
AcDbEntity
  8
0
100
AcDbLine
 62
7
  6
CONTINUOUS
 10
332.6259333147
 20
190.0230084806
 11
329.7259333147
 21
190.0230084806
  0
LINE
  5
223
100
AcDbEntity
  8
0
100
AcDbLine
 62
7
  6
CONTINUOUS
 10
314.0759333147
 20
190.0230084806
 11
311.5759333147
 21
190.0230084806
  0
LINE
  5
224
100
AcDbEntity
  8
0
100
AcDbLine
 62
7
  6
CONTINUOUS
 10
306.0759333147
 20
190.4730084806
 11
310.8197717163
 21
190.4730084806
  0
LINE
  5
225
100
AcDbEntity
  8
0
100
AcDbLine
 62
7
  6
CONTINUOUS
 10
333.3320949132
 20
190.4730084806
 11
338.0759333147
 21
190.4730084806
  0
LINE
  5
226
100
AcDbEntity
  8
0
100
AcDbLine
 62
7
  6
CONTINUOUS
 10
310.5510013336
 20
192.4730084806
 11
311.4572388732
 21
192.4730084806
  0
LINE
  5
227
100
AcDbEntity
  8
0
100
AcDbLine
 62
7
  6
CONTINUOUS
 10
314.1946277562
 20
192.4730084806
 11
329.6072388732
 21
192.4730084806
  0
LINE
  5
228
100
AcDbEntity
  8
0
100
AcDbLine
 62
7
  6
CONTINUOUS
 10
332.7446277562
 20
192.4730084806
 11
333.6008652959
 21
192.4730084806
  0
LINE
  5
229
100
AcDbEntity
  8
0
100
AcDbLine
 62
7
  6
CONTINUOUS
 10
307.9351368771
 20
288.0730006392
 11
307.4275765623
 21
287.5730084806
  0
LINE
  5
22A
100
AcDbEntity
  8
0
100
AcDbLine
 62
7
  6
CONTINUOUS
 10
310.5535927205
 20
193.81156306
 11
311.0759333147
 21
193.8636657796
  0
LINE
  5
22B
100
AcDbEntity
  8
0
100
AcDbLine
 62
7
  6
CONTINUOUS
 10
311.3259333147
 20
193.4730084806
 11
306.0759333147
 21
193.4730084806
  0
LINE
  5
22C
100
AcDbEntity
  8
0
100
AcDbLine
 62
7
  6
CONTINUOUS
 10
332.8259333147
 20
193.4730084806
 11
338.0759333147
 21
193.4730084806
  0
LINE
  5
22D
100
AcDbEntity
  8
0
100
AcDbLine
 62
7
  6
CONTINUOUS
 10
336.0873787354
 20
193.81156306
 11
333.598273909
 21
193.81156306
  0
LINE
  5
22E
100
AcDbEntity
  8
0
100
AcDbLine
 62
7
  6
CONTINUOUS
 10
310.5535927205
 20
193.81156306
 11
308.0644878941
 21
193.81156306
  0
LINE
  5
22F
100
AcDbEntity
  8
0
100
AcDbLine
 62
7
  6
CONTINUOUS
 10
311.0759333147
 20
193.8636657796
 11
311.4572388732
 21
193.8636657796
  0
LINE
  5
230
100
AcDbEntity
  8
0
100
AcDbLine
 62
7
  6
CONTINUOUS
 10
314.1946277562
 20
193.8636657796
 11
329.6072388732
 21
193.8636657796
  0
LINE
  5
231
100
AcDbEntity
  8
0
100
AcDbLine
 62
7
  6
CONTINUOUS
 10
332.7446277562
 20
193.8636657796
 11
333.0759333147
 21
193.8636657796
  0
LINE
  5
232
100
AcDbEntity
  8
0
100
AcDbLine
 62
7
  6
CONTINUOUS
 10
315.1759333147
 20
193.9013108102
 11
317.0759333147
 21
193.9013108102
  0
LINE
  5
233
100
AcDbEntity
  8
0
100
AcDbLine
 62
7
  6
CONTINUOUS
 10
327.0759333147
 20
193.9013108102
 11
328.6259333147
 21
193.9013108102
  0
LINE
  5
234
100
AcDbEntity
  8
0
100
AcDbLine
 62
7
  6
CONTINUOUS
 10
308.1759333147
 20
193.9230084806
 11
315.1759333147
 21
193.9230084806
  0
LINE
  5
235
100
AcDbEntity
  8
0
100
AcDbLine
 62
7
  6
CONTINUOUS
 10
328.6259333147
 20
193.9230084806
 11
335.9759333147
 21
193.9230084806
  0
LINE
  5
236
100
AcDbEntity
  8
0
100
AcDbLine
 62
7
  6
CONTINUOUS
 10
311.1759333147
 20
194.1730084806
 11
317.0759333147
 21
194.1730084806
  0
LINE
  5
237
100
AcDbEntity
  8
0
100
AcDbLine
 62
7
  6
CONTINUOUS
 10
313.5759333147
 20
194.1830084806
 11
317.0759333147
 21
194.1830084806
  0
LINE
  5
238
100
AcDbEntity
  8
0
100
AcDbLine
 62
7
  6
CONTINUOUS
 10
307.7232605156
 20
194.6730084806
 11
336.4286061139
 21
194.6730084806
  0
LINE
  5
239
100
AcDbEntity
  8
0
100
AcDbLine
 62
7
  6
CONTINUOUS
 10
333.0759333147
 20
193.8636657796
 11
333.598273909
 21
193.81156306
  0
LINE
  5
23A
100
AcDbEntity
  8
0
100
AcDbLine
 62
7
  6
CONTINUOUS
 10
314.1946277562
 20
193.8636657796
 11
314.0759333147
 21
193.9230084806
  0
LINE
  5
23B
100
AcDbEntity
  8
0
100
AcDbLine
 62
7
  6
CONTINUOUS
 10
314.0759333147
 20
283.7989322304
 11
314.1946277562
 21
283.8582749314
  0
LINE
  5
23C
100
AcDbEntity
  8
0
100
AcDbLine
 62
7
  6
CONTINUOUS
 10
334.4690731092
 20
197.9911482751
 11
335.8196277562
 21
198.0417029221
  0
LINE
  5
23D
100
AcDbEntity
  8
0
100
AcDbLine
 62
7
  6
CONTINUOUS
 10
309.6827935202
 20
199.1548686861
 11
308.3322388732
 21
199.1043140391
  0
LINE
  5
23E
100
AcDbEntity
  8
0
100
AcDbLine
 62
7
  6
CONTINUOUS
 10
307.8324334513
 20
197.7230084806
 11
311.2759333147
 21
197.7230084806
  0
LINE
  5
23F
100
AcDbEntity
  8
0
100
AcDbLine
 62
7
  6
CONTINUOUS
 10
332.8759333147
 20
197.7230084806
 11
336.3194328132
 21
197.7230084806
  0
LINE
  5
240
100
AcDbEntity
  8
0
100
AcDbLine
 62
7
  6
CONTINUOUS
 10
310.7759333147
 20
197.8230084806
 11
320.5759333147
 21
197.8230084806
  0
LINE
  5
241
100
AcDbEntity
  8
0
100
AcDbLine
 62
7
  6
CONTINUOUS
 10
323.5759333147
 20
197.8230084806
 11
333.3759333147
 21
197.8230084806
  0
LINE
  5
242
100
AcDbEntity
  8
0
100
AcDbLine
 62
7
  6
CONTINUOUS
 10
308.1759333147
 20
197.9230084806
 11
309.7509333147
 21
197.9230084806
  0
LINE
  5
243
100
AcDbEntity
  8
0
100
AcDbLine
 62
7
  6
CONTINUOUS
 10
334.4009333147
 20
197.9230084806
 11
335.9759333147
 21
197.9230084806
  0
LINE
  5
244
100
AcDbEntity
  8
0
100
AcDbLine
 62
7
  6
CONTINUOUS
 10
308.1165906138
 20
198.0417029221
 11
308.3322388732
 21
198.0417029221
  0
LINE
  5
245
100
AcDbEntity
  8
0
100
AcDbLine
 62
7
  6
CONTINUOUS
 10
335.8196277562
 20
198.0417029221
 11
336.0352760157
 21
198.0417029221
  0
LINE
  5
246
100
AcDbEntity
  8
0
100
AcDbLine
 62
7
  6
CONTINUOUS
 10
336.0352760157
 20
199.1043140391
 11
335.8196277562
 21
199.1043140391
  0
LINE
  5
247
100
AcDbEntity
  8
0
100
AcDbLine
 62
7
  6
CONTINUOUS
 10
308.3322388732
 20
199.1043140391
 11
308.1165906138
 21
199.1043140391
  0
LINE
  5
248
100
AcDbEntity
  8
0
100
AcDbLine
 62
7
  6
CONTINUOUS
 10
335.9759333147
 20
199.2230084806
 11
334.4009333147
 21
199.2230084806
  0
LINE
  5
249
100
AcDbEntity
  8
0
100
AcDbLine
 62
7
  6
CONTINUOUS
 10
308.1759333147
 20
199.2230084806
 11
309.7509333147
 21
199.2230084806
  0
LINE
  5
24A
100
AcDbEntity
  8
0
100
AcDbLine
 62
7
  6
CONTINUOUS
 10
310.7759333147
 20
199.3230084806
 11
320.5759333147
 21
199.3230084806
  0
LINE
  5
24B
100
AcDbEntity
  8
0
100
AcDbLine
 62
7
  6
CONTINUOUS
 10
323.5759333147
 20
199.3230084806
 11
333.3759333147
 21
199.3230084806
  0
LINE
  5
24C
100
AcDbEntity
  8
0
100
AcDbLine
 62
7
  6
CONTINUOUS
 10
307.7784212831
 20
199.4230084806
 11
311.2759333147
 21
199.4230084806
  0
LINE
  5
24D
100
AcDbEntity
  8
0
100
AcDbLine
 62
7
  6
CONTINUOUS
 10
332.8759333147
 20
199.4230084806
 11
336.3734463444
 21
199.4230084806
  0
LINE
  5
24E
100
AcDbEntity
  8
0
100
AcDbLine
 62
7
  6
CONTINUOUS
 10
309.6827935202
 20
197.9911482751
 11
308.3322388732
 21
198.0417029221
  0
LINE
  5
24F
100
AcDbEntity
  8
0
100
AcDbLine
 62
7
  6
CONTINUOUS
 10
334.4690731092
 20
199.1548686861
 11
335.8196277562
 21
199.1043140391
  0
LINE
  5
250
100
AcDbEntity
  8
0
100
AcDbLine
 62
7
  6
CONTINUOUS
 10
314.0759333147
 20
190.0230084806
 11
314.1689995323
 21
189.929942263
  0
LINE
  5
251
100
AcDbEntity
  8
0
100
AcDbLine
 62
7
  6
CONTINUOUS
 10
314.0759333147
 20
286.1230084806
 11
314.1946277562
 21
286.2417029221
  0
LINE
  5
252
100
AcDbEntity
  8
0
100
AcDbLine
 62
7
  6
CONTINUOUS
 10
309.6827935202
 20
279.6548686861
 11
309.7509333147
 21
279.7230084806
  0
LINE
  5
253
100
AcDbEntity
  8
0
100
AcDbLine
 62
7
  6
CONTINUOUS
 10
338.0759333147
 20
201.6869353377
 11
336.0813658729
 21
201.6869353377
  0
LINE
  5
254
100
AcDbEntity
  8
0
100
AcDbLine
 62
7
  6
CONTINUOUS
 10
308.0705007566
 20
201.6869353377
 11
306.0759333147
 21
201.6869353377
  0
LINE
  5
255
100
AcDbEntity
  8
0
100
AcDbLine
 62
7
  6
CONTINUOUS
 10
307.7889660898
 20
202.4730084806
 11
336.3629005396
 21
202.4730084806
  0
LINE
  5
256
100
AcDbEntity
  8
0
100
AcDbLine
 62
7
  6
CONTINUOUS
 10
308.1122271817
 20
203.2730084806
 11
306.0759333147
 21
203.2730084806
  0
LINE
  5
257
100
AcDbEntity
  8
0
100
AcDbLine
 62
7
  6
CONTINUOUS
 10
336.0396394496
 20
203.2730084806
 11
338.0759333147
 21
203.2730084806
  0
LINE
  5
258
100
AcDbEntity
  8
0
100
AcDbLine
 62
7
  6
CONTINUOUS
 10
335.9759333147
 20
203.439224169
 11
335.9136332018
 21
203.439224169
  0
LINE
  5
259
100
AcDbEntity
  8
0
100
AcDbLine
 62
7
  6
CONTINUOUS
 10
308.1759333147
 20
203.439224169
 11
308.2382334277
 21
203.439224169
  0
LINE
  5
25A
100
AcDbEntity
  8
0
100
AcDbLine
 62
7
  6
CONTINUOUS
 10
308.2672937573
 20
203.5038079092
 11
317.0759333147
 21
203.5038079092
  0
LINE
  5
25B
100
AcDbEntity
  8
0
100
AcDbLine
 62
7
  6
CONTINUOUS
 10
327.0759333147
 20
203.5038079092
 11
335.8845728722
 21
203.5038079092
  0
LINE
  5
25C
100
AcDbEntity
  8
0
100
AcDbLine
 62
7
  6
CONTINUOUS
 10
317.0759333147
 20
203.5352270261
 11
327.0759333147
 21
203.5352270261
  0
LINE
  5
25D
100
AcDbEntity
  8
0
100
AcDbLine
 62
7
  6
CONTINUOUS
 10
336.0352760157
 20
203.5579186105
 11
308.1165906138
 21
203.5579186105
  0
LINE
  5
25E
100
AcDbEntity
  8
0
100
AcDbLine
 62
7
  6
CONTINUOUS
 10
332.7446277562
 20
193.8636657796
 11
332.6259333147
 21
193.9230084806
  0
LINE
  5
25F
100
AcDbEntity
  8
0
100
AcDbLine
 62
7
  6
CONTINUOUS
 10
309.7509333147
 20
197.9230084806
 11
309.6827935202
 21
197.9911482751
  0
LINE
  5
260
100
AcDbEntity
  8
0
100
AcDbLine
 62
7
  6
CONTINUOUS
 10
332.7259333147
 20
283.7989322304
 11
332.8446277562
 21
283.8582749314
  0
LINE
  5
261
100
AcDbEntity
  8
0
100
AcDbLine
 62
7
  6
CONTINUOUS
 10
308.0759333147
 20
279.8748675455
 11
307.940666864
 21
279.6043140391
  0
LINE
  5
262
100
AcDbEntity
  8
0
100
AcDbLine
 62
7
  6
CONTINUOUS
 10
309.9916556485
 20
272.0387308144
 11
309.9759333147
 21
272.0230084806
  0
LINE
  5
263
100
AcDbEntity
  8
0
100
AcDbLine
 62
7
  6
CONTINUOUS
 10
308.1165906138
 20
198.0417029221
 11
308.1759333147
 21
197.9230084806
  0
LINE
  5
264
100
AcDbEntity
  8
0
100
AcDbLine
 62
7
  6
CONTINUOUS
 10
308.1165906138
 20
203.5579186105
 11
308.1759333147
 21
203.439224169
  0
LINE
  5
265
100
AcDbEntity
  8
0
100
AcDbLine
 62
7
  6
CONTINUOUS
 10
308.000009565
 20
274.8067927923
 11
307.940666864
 21
274.6880983508
  0
LINE
  5
266
100
AcDbEntity
  8
0
100
AcDbLine
 62
7
  6
CONTINUOUS
 10
332.7259333147
 20
286.1230084806
 11
332.8446277562
 21
286.2417029221
  0
LINE
  5
267
100
AcDbEntity
  8
0
100
AcDbLine
 62
7
  6
CONTINUOUS
 10
332.6259333147
 20
190.0230084806
 11
332.7189995323
 21
189.929942263
  0
LINE
  5
268
100
AcDbEntity
  8
0
100
AcDbLine
 62
7
  6
CONTINUOUS
 10
320.6051277499
 20
285.8896918132
 11
320.5506358617
 21
285.7831422959
  0
LINE
  5
269
100
AcDbEntity
  8
0
100
AcDbLine
 62
7
  6
CONTINUOUS
 10
336.0873787354
 20
193.81156306
 11
335.9759333147
 21
193.9230084806
  0
LINE
  5
26A
100
AcDbEntity
  8
0
100
AcDbLine
 62
7
  6
CONTINUOUS
 10
323.5941361854
 20
287.6742306062
 11
323.6059333147
 21
287.6980084806
  0
LINE
  5
26B
100
AcDbEntity
  8
0
100
AcDbLine
 62
7
  6
CONTINUOUS
 10
336.0759333147
 20
283.7230084806
 11
336.2111997655
 21
283.8582749314
  0
LINE
  5
26C
100
AcDbEntity
  8
0
100
AcDbLine
 62
7
  6
CONTINUOUS
 10
334.4690731092
 20
278.4911482751
 11
334.4009333147
 21
278.4230084806
  0
LINE
  5
26D
100
AcDbEntity
  8
0
100
AcDbLine
 62
7
  6
CONTINUOUS
 10
334.4009333147
 20
199.2230084806
 11
334.4690731092
 21
199.1548686861
  0
LINE
  5
26E
100
AcDbEntity
  8
0
100
AcDbLine
 62
7
  6
CONTINUOUS
 10
306.0759333147
 20
187.9071979926
 11
306.0759333147
 21
288.0730084806
  0
LINE
  5
26F
100
AcDbEntity
  8
0
100
AcDbLine
 62
7
  6
CONTINUOUS
 10
307.4275765623
 20
287.5730084806
 11
307.4275765623
 21
275.7230084806
  0
LINE
  5
270
100
AcDbEntity
  8
0
100
AcDbLine
 62
7
  6
CONTINUOUS
 10
307.9340070913
 20
236.255554745
 11
307.9340070913
 21
272.064934704
  0
LINE
  5
271
100
AcDbEntity
  8
0
100
AcDbLine
 62
7
  6
CONTINUOUS
 10
307.9351418967
 20
288.0730056909
 11
307.9351339637
 21
275.7230084806
  0
LINE
  5
272
100
AcDbEntity
  8
0
100
AcDbLine
 62
7
  6
CONTINUOUS
 10
307.940666864
 20
288.0730084806
 11
307.940666864
 21
283.8582749314
  0
LINE
  5
273
100
AcDbEntity
  8
0
100
AcDbLine
 62
7
  6
CONTINUOUS
 10
307.940666864
 20
275.7230084806
 11
307.940666864
 21
274.6880983508
  0
LINE
  5
274
100
AcDbEntity
  8
0
100
AcDbLine
 62
7
  6
CONTINUOUS
 10
307.9759333147
 20
236.2625362393
 11
307.9759333147
 21
272.0230084806
  0
LINE
  5
275
100
AcDbEntity
  8
0
100
AcDbLine
 62
7
  6
CONTINUOUS
 10
308.000009565
 20
278.4230084806
 11
308.000009565
 21
278.2230084806
  0
LINE
  5
276
100
AcDbEntity
  8
0
100
AcDbLine
 62
7
  6
CONTINUOUS
 10
308.000009565
 20
275.1730084806
 11
308.000009565
 21
274.8067927923
  0
LINE
  5
277
100
AcDbEntity
  8
0
100
AcDbLine
 62
7
  6
CONTINUOUS
 10
308.0759333147
 20
283.7230084806
 11
308.0759333147
 21
282.9730084806
  0
LINE
  5
278
100
AcDbEntity
  8
0
100
AcDbLine
 62
7
  6
CONTINUOUS
 10
311.4828670971
 20
189.929942263
 11
311.4572388732
 21
192.4730084806
  0
LINE
  5
279
100
AcDbEntity
  8
0
100
AcDbLine
 62
7
  6
CONTINUOUS
 10
308.1165906138
 20
203.5579186105
 11
308.1165906138
 21
203.2730084806
  0
LINE
  5
27A
100
AcDbEntity
  8
0
100
AcDbLine
 62
7
  6
CONTINUOUS
 10
308.1165906138
 20
199.1043140391
 11
308.1165906138
 21
198.0417029221
  0
LINE
  5
27B
100
AcDbEntity
  8
0
100
AcDbLine
 62
7
  6
CONTINUOUS
 10
308.1377367136
 20
279.8748675455
 11
308.1377367136
 21
279.9230084806
  0
LINE
  5
27C
100
AcDbEntity
  8
0
100
AcDbLine
 62
7
  6
CONTINUOUS
 10
308.1699023825
 20
283.7230084806
 11
308.1699023825
 21
282.9730084806
  0
LINE
  5
27D
100
AcDbEntity
  8
0
100
AcDbLine
 62
7
  6
CONTINUOUS
 10
308.1699023825
 20
279.9230084806
 11
308.1699023825
 21
279.8748675455
  0
LINE
  5
27E
100
AcDbEntity
  8
0
100
AcDbLine
 62
7
  6
CONTINUOUS
 10
308.1759333147
 20
203.439224169
 11
308.1759333147
 21
202.4730084806
  0
LINE
  5
27F
100
AcDbEntity
  8
0
100
AcDbLine
 62
7
  6
CONTINUOUS
 10
308.1759333147
 20
199.4230084806
 11
308.1759333147
 21
199.2230084806
  0
LINE
  5
280
100
AcDbEntity
  8
0
100
AcDbLine
 62
7
  6
CONTINUOUS
 10
308.1759333147
 20
193.9230084806
 11
308.1759333147
 21
194.6730084806
  0
LINE
  5
281
100
AcDbEntity
  8
0
100
AcDbLine
 62
7
  6
CONTINUOUS
 10
308.1759333147
 20
197.7230084806
 11
308.1759333147
 21
197.9230084806
  0
LINE
  5
282
100
AcDbEntity
  8
0
100
AcDbLine
 62
7
  6
CONTINUOUS
 10
308.2382334277
 20
278.4230084806
 11
308.2382334277
 21
278.2230084806
  0
LINE
  5
283
100
AcDbEntity
  8
0
100
AcDbLine
 62
7
  6
CONTINUOUS
 10
308.2382334277
 20
275.1730084806
 11
308.2382334277
 21
274.8067927923
  0
LINE
  5
284
100
AcDbEntity
  8
0
100
AcDbLine
 62
7
  6
CONTINUOUS
 10
308.2382334277
 20
203.439224169
 11
308.2382334277
 21
202.4730084806
  0
LINE
  5
285
100
AcDbEntity
  8
0
100
AcDbLine
 62
7
  6
CONTINUOUS
 10
308.2382334277
 20
199.4230084806
 11
308.2382334277
 21
199.2230084806
  0
LINE
  5
286
100
AcDbEntity
  8
0
100
AcDbLine
 62
7
  6
CONTINUOUS
 10
308.2382334277
 20
197.9230084806
 11
308.2382334277
 21
197.7230084806
  0
LINE
  5
287
100
AcDbEntity
  8
0
100
AcDbLine
 62
7
  6
CONTINUOUS
 10
308.2382334277
 20
194.6730084806
 11
308.2382334277
 21
193.9230084806
  0
LINE
  5
288
100
AcDbEntity
  8
0
100
AcDbLine
 62
7
  6
CONTINUOUS
 10
308.3322388732
 20
279.6043140391
 11
308.3322388732
 21
278.5417029221
  0
LINE
  5
289
100
AcDbEntity
  8
0
100
AcDbLine
 62
7
  6
CONTINUOUS
 10
308.3322388732
 20
198.0417029221
 11
308.3322388732
 21
199.1043140391
  0
LINE
  5
28A
100
AcDbEntity
  8
0
100
AcDbLine
 62
7
  6
CONTINUOUS
 10
308.4259333147
 20
278.2230084806
 11
308.4259333147
 21
278.4230084806
  0
LINE
  5
28B
100
AcDbEntity
  8
0
100
AcDbLine
 62
7
  6
CONTINUOUS
 10
308.4259333147
 20
279.7230084806
 11
308.4259333147
 21
279.9230084806
  0
LINE
  5
28C
100
AcDbEntity
  8
0
100
AcDbLine
 62
7
  6
CONTINUOUS
 10
309.2709333147
 20
274.7369725326
 11
309.2709333147
 21
275.1730084806
  0
LINE
  5
28D
100
AcDbEntity
  8
0
100
AcDbLine
 62
7
  6
CONTINUOUS
 10
309.2709333147
 20
278.2230084806
 11
309.2709333147
 21
278.4230084806
  0
LINE
  5
28E
100
AcDbEntity
  8
0
100
AcDbLine
 62
7
  6
CONTINUOUS
 10
309.2709333147
 20
279.7230084806
 11
309.2709333147
 21
279.9230084806
  0
LINE
  5
28F
100
AcDbEntity
  8
0
100
AcDbLine
 62
7
  6
CONTINUOUS
 10
309.2709333147
 20
282.9730084806
 11
309.2709333147
 21
283.7230084806
  0
LINE
  5
290
100
AcDbEntity
  8
0
100
AcDbLine
 62
7
  6
CONTINUOUS
 10
309.6827935202
 20
279.6548686861
 11
309.6827935202
 21
278.4911482751
  0
LINE
  5
291
100
AcDbEntity
  8
0
100
AcDbLine
 62
7
  6
CONTINUOUS
 10
309.6827935202
 20
197.9911482751
 11
309.6827935202
 21
199.1548686861
  0
LINE
  5
292
100
AcDbEntity
  8
0
100
AcDbLine
 62
7
  6
CONTINUOUS
 10
309.7509333147
 20
279.7230084806
 11
309.7509333147
 21
278.4230084806
  0
LINE
  5
293
100
AcDbEntity
  8
0
100
AcDbLine
 62
7
  6
CONTINUOUS
 10
309.7509333147
 20
197.9230084806
 11
309.7509333147
 21
199.2230084806
  0
LINE
  5
294
100
AcDbEntity
  8
0
100
AcDbLine
 62
7
  6
CONTINUOUS
 10
309.9759333147
 20
236.2625362393
 11
309.9759333147
 21
272.0230084806
  0
LINE
  5
295
100
AcDbEntity
  8
0
100
AcDbLine
 62
7
  6
CONTINUOUS
 10
309.9916556485
 20
236.2599181789
 11
309.9916556485
 21
272.0387308144
  0
LINE
  5
296
100
AcDbEntity
  8
0
100
AcDbLine
 62
7
  6
CONTINUOUS
 10
310.1115388998
 20
278.2230084806
 11
310.1115388998
 21
275.1730084806
  0
LINE
  5
297
100
AcDbEntity
  8
0
100
AcDbLine
 62
7
  6
CONTINUOUS
 10
310.1115388998
 20
197.7230084806
 11
310.1115388998
 21
194.6730084806
  0
LINE
  5
298
100
AcDbEntity
  8
0
100
AcDbLine
 62
7
  6
CONTINUOUS
 10
310.1115388998
 20
199.4230084806
 11
310.1115388998
 21
202.4730084806
  0
LINE
  5
299
100
AcDbEntity
  8
0
100
AcDbLine
 62
7
  6
CONTINUOUS
 10
310.1115388998
 20
279.9230084806
 11
310.1115388998
 21
282.9730084806
  0
LINE
  5
29A
100
AcDbEntity
  8
0
100
AcDbLine
 62
7
  6
CONTINUOUS
 10
310.5510013336
 20
192.4730084806
 11
310.5510013336
 21
190.4730084806
  0
LINE
  5
29B
100
AcDbEntity
  8
0
100
AcDbLine
 62
7
  6
CONTINUOUS
 10
310.7759333147
 20
197.7230084806
 11
310.7759333147
 21
197.8230084806
  0
LINE
  5
29C
100
AcDbEntity
  8
0
100
AcDbLine
 62
7
  6
CONTINUOUS
 10
310.7759333147
 20
199.3230084806
 11
310.7759333147
 21
199.4230084806
  0
LINE
  5
29D
100
AcDbEntity
  8
0
100
AcDbLine
 62
7
  6
CONTINUOUS
 10
310.7759333147
 20
278.2230084806
 11
310.7759333147
 21
278.3230084806
  0
LINE
  5
29E
100
AcDbEntity
  8
0
100
AcDbLine
 62
7
  6
CONTINUOUS
 10
310.7759333147
 20
279.8230084806
 11
310.7759333147
 21
279.9230084806
  0
LINE
  5
29F
100
AcDbEntity
  8
0
100
AcDbLine
 62
7
  6
CONTINUOUS
 10
310.8010013336
 20
192.4730084806
 11
310.8010013336
 21
193.4730084806
  0
LINE
  5
2A0
100
AcDbEntity
  8
0
100
AcDbLine
 62
7
  6
CONTINUOUS
 10
311.0259885182
 20
278.3230084806
 11
311.0259885182
 21
278.2230084806
  0
LINE
  5
2A1
100
AcDbEntity
  8
0
100
AcDbLine
 62
7
  6
CONTINUOUS
 10
311.0259885182
 20
197.8230084806
 11
311.0259885182
 21
197.7230084806
  0
LINE
  5
2A2
100
AcDbEntity
  8
0
100
AcDbLine
 62
7
  6
CONTINUOUS
 10
311.0259885182
 20
199.3230084806
 11
311.0259885182
 21
199.4230084806
  0
LINE
  5
2A3
100
AcDbEntity
  8
0
100
AcDbLine
 62
7
  6
CONTINUOUS
 10
311.0259885182
 20
279.8230084806
 11
311.0259885182
 21
279.9230084806
  0
LINE
  5
2A4
100
AcDbEntity
  8
0
100
AcDbLine
 62
7
  6
CONTINUOUS
 10
311.0759333147
 20
193.8636657796
 11
311.0759333147
 21
193.4730084806
  0
LINE
  5
2A5
100
AcDbEntity
  8
0
100
AcDbLine
 62
7
  6
CONTINUOUS
 10
311.1759333147
 20
203.5038079092
 11
311.1759333147
 21
202.4730084806
  0
LINE
  5
2A6
100
AcDbEntity
  8
0
100
AcDbLine
 62
7
  6
CONTINUOUS
 10
311.1759333147
 20
199.3230084806
 11
311.1759333147
 21
197.8230084806
  0
LINE
  5
2A7
100
AcDbEntity
  8
0
100
AcDbLine
 62
7
  6
CONTINUOUS
 10
311.1759333147
 20
194.6730084806
 11
311.1759333147
 21
194.1730084806
  0
LINE
  5
2A8
100
AcDbEntity
  8
0
100
AcDbLine
 62
7
  6
CONTINUOUS
 10
311.2759333147
 20
197.7230084806
 11
311.2759333147
 21
197.8230084806
  0
LINE
  5
2A9
100
AcDbEntity
  8
0
100
AcDbLine
 62
7
  6
CONTINUOUS
 10
311.2759333147
 20
199.3230084806
 11
311.2759333147
 21
199.4230084806
  0
LINE
  5
2AA
100
AcDbEntity
  8
0
100
AcDbLine
 62
7
  6
CONTINUOUS
 10
311.2759333147
 20
278.2230084806
 11
311.2759333147
 21
278.3230084806
  0
LINE
  5
2AB
100
AcDbEntity
  8
0
100
AcDbLine
 62
7
  6
CONTINUOUS
 10
311.2759333147
 20
279.8230084806
 11
311.2759333147
 21
279.9230084806
  0
LINE
  5
2AC
100
AcDbEntity
  8
0
100
AcDbLine
 62
7
  6
CONTINUOUS
 10
311.3259333147
 20
192.4730084806
 11
311.3259333147
 21
193.4730084806
  0
LINE
  5
2AD
100
AcDbEntity
  8
0
100
AcDbLine
 62
7
  6
CONTINUOUS
 10
311.4572388732
 20
193.8636657796
 11
311.4572388732
 21
192.4730084806
  0
LINE
  5
2AE
100
AcDbEntity
  8
0
100
AcDbLine
 62
7
  6
CONTINUOUS
 10
311.4572388732
 20
283.8582749314
 11
311.4572388732
 21
286.2417029221
  0
LINE
  5
2AF
100
AcDbEntity
  8
0
100
AcDbLine
 62
7
  6
CONTINUOUS
 10
311.5602109809
 20
236.2599181789
 11
311.5602109809
 21
272.0387308144
  0
LINE
  5
2B0
100
AcDbEntity
  8
0
100
AcDbLine
 62
7
  6
CONTINUOUS
 10
311.5759333147
 20
282.9730084806
 11
311.5759333147
 21
279.8230084806
  0
LINE
  5
2B1
100
AcDbEntity
  8
0
100
AcDbLine
 62
7
  6
CONTINUOUS
 10
311.5759333147
 20
202.4730084806
 11
311.5759333147
 21
199.3230084806
  0
LINE
  5
2B2
100
AcDbEntity
  8
0
100
AcDbLine
 62
7
  6
CONTINUOUS
 10
311.5759333147
 20
193.9230084806
 11
311.5759333147
 21
190.0230084806
  0
LINE
  5
2B3
100
AcDbEntity
  8
0
100
AcDbLine
 62
7
  6
CONTINUOUS
 10
311.5759333147
 20
194.6730084806
 11
311.5759333147
 21
197.8230084806
  0
LINE
  5
2B4
100
AcDbEntity
  8
0
100
AcDbLine
 62
7
  6
CONTINUOUS
 10
311.5759333147
 20
236.2625362393
 11
311.5759333147
 21
272.0230084806
  0
LINE
  5
2B5
100
AcDbEntity
  8
0
100
AcDbLine
 62
7
  6
CONTINUOUS
 10
311.5759333147
 20
275.1730084806
 11
311.5759333147
 21
278.3230084806
  0
LINE
  5
2B6
100
AcDbEntity
  8
0
100
AcDbLine
 62
7
  6
CONTINUOUS
 10
311.5759333147
 20
283.7989322304
 11
311.5759333147
 21
286.1230084806
  0
LINE
  5
2B7
100
AcDbEntity
  8
0
100
AcDbLine
 62
7
  6
CONTINUOUS
 10
311.5809333147
 20
203.5038079092
 11
311.5809333147
 21
202.4730084806
  0
LINE
  5
2B8
100
AcDbEntity
  8
0
100
AcDbLine
 62
7
  6
CONTINUOUS
 10
311.5809333147
 20
199.3230084806
 11
311.5809333147
 21
197.8230084806
  0
LINE
  5
2B9
100
AcDbEntity
  8
0
100
AcDbLine
 62
7
  6
CONTINUOUS
 10
308.0644878941
 20
193.81156306
 11
308.0705007566
 21
201.6869353377
  0
LINE
  5
2BA
100
AcDbEntity
  8
0
100
AcDbLine
 62
7
  6
CONTINUOUS
 10
310.5510013336
 20
193.4730084806
 11
310.5535927205
 21
193.81156306
  0
LINE
  5
2BB
100
AcDbEntity
  8
0
100
AcDbLine
 62
7
  6
CONTINUOUS
 10
323.3009333147
 20
288.7596736321
 11
324.0759333147
 21
291.2945844114
  0
LINE
  5
2BC
100
AcDbEntity
  8
0
100
AcDbLine
 62
7
  6
CONTINUOUS
 10
336.0678595382
 20
272.064934704
 11
336.0259333147
 21
272.0230084806
  0
LINE
  5
2BD
100
AcDbEntity
  8
0
100
AcDbLine
 62
7
  6
CONTINUOUS
 10
312.9627404237
 20
282.9730084806
 11
312.9627404237
 21
279.8230084806
  0
LINE
  5
2BE
100
AcDbEntity
  8
0
100
AcDbLine
 62
7
  6
CONTINUOUS
 10
312.9627404237
 20
278.3230084806
 11
312.9627404237
 21
275.1730084806
  0
LINE
  5
2BF
100
AcDbEntity
  8
0
100
AcDbLine
 62
7
  6
CONTINUOUS
 10
312.9627404237
 20
202.4730084806
 11
312.9627404237
 21
199.3230084806
  0
LINE
  5
2C0
100
AcDbEntity
  8
0
100
AcDbLine
 62
7
  6
CONTINUOUS
 10
312.9627404237
 20
197.8230084806
 11
312.9627404237
 21
194.6730084806
  0
LINE
  5
2C1
100
AcDbEntity
  8
0
100
AcDbLine
 62
7
  6
CONTINUOUS
 10
313.4584795792
 20
272.064934704
 11
313.4584795792
 21
273.9730084806
  0
LINE
  5
2C2
100
AcDbEntity
  8
0
100
AcDbLine
 62
7
  6
CONTINUOUS
 10
313.4654610734
 20
272.0230084806
 11
313.4654610734
 21
236.2625362393
  0
LINE
  5
2C3
100
AcDbEntity
  8
0
100
AcDbLine
 62
7
  6
CONTINUOUS
 10
313.4759333147
 20
273.9730084806
 11
313.4759333147
 21
272.0230084806
  0
LINE
  5
2C4
100
AcDbEntity
  8
0
100
AcDbLine
 62
7
  6
CONTINUOUS
 10
313.5759333147
 20
194.1830084806
 11
313.5759333147
 21
194.6730084806
  0
LINE
  5
2C5
100
AcDbEntity
  8
0
100
AcDbLine
 62
7
  6
CONTINUOUS
 10
313.5759333147
 20
197.8230084806
 11
313.5759333147
 21
199.3230084806
  0
LINE
  5
2C6
100
AcDbEntity
  8
0
100
AcDbLine
 62
7
  6
CONTINUOUS
 10
313.5759333147
 20
237.3530084806
 11
313.5759333147
 21
272.0230084806
  0
LINE
  5
2C7
100
AcDbEntity
  8
0
100
AcDbLine
 62
7
  6
CONTINUOUS
 10
313.7809333147
 20
236.9730084806
 11
313.7809333147
 21
236.6230084806
  0
LINE
  5
2C8
100
AcDbEntity
  8
0
100
AcDbLine
 62
7
  6
CONTINUOUS
 10
314.0759333147
 20
286.1230084806
 11
314.0759333147
 21
283.7989322304
  0
LINE
  5
2C9
100
AcDbEntity
  8
0
100
AcDbLine
 62
7
  6
CONTINUOUS
 10
314.0759333147
 20
193.9230084806
 11
314.0759333147
 21
190.0230084806
  0
LINE
  5
2CA
100
AcDbEntity
  8
0
100
AcDbLine
 62
7
  6
CONTINUOUS
 10
314.0759333147
 20
241.494841406
 11
314.0759333147
 21
268.5411755552
  0
LINE
  5
2CB
100
AcDbEntity
  8
0
100
AcDbLine
 62
7
  6
CONTINUOUS
 10
314.1946277562
 20
286.2417029221
 11
314.1946277562
 21
283.8582749314
  0
LINE
  5
2CC
100
AcDbEntity
  8
0
100
AcDbLine
 62
7
  6
CONTINUOUS
 10
314.1946277562
 20
193.8636657796
 11
314.1946277562
 21
192.4730084806
  0
LINE
  5
2CD
100
AcDbEntity
  8
0
100
AcDbLine
 62
7
  6
CONTINUOUS
 10
314.4559333147
 20
236.9730084806
 11
314.4559333147
 21
236.6230084806
  0
LINE
  5
2CE
100
AcDbEntity
  8
0
100
AcDbLine
 62
7
  6
CONTINUOUS
 10
314.9059333147
 20
241.9557219092
 11
314.9059333147
 21
268.080295052
  0
LINE
  5
2CF
100
AcDbEntity
  8
0
100
AcDbLine
 62
7
  6
CONTINUOUS
 10
315.1759333147
 20
193.9230084806
 11
315.1759333147
 21
193.9013108102
  0
LINE
  5
2D0
100
AcDbEntity
  8
0
100
AcDbLine
 62
7
  6
CONTINUOUS
 10
314.1946277562
 20
192.4730084806
 11
314.1689995323
 21
189.929942263
  0
LINE
  5
2D1
100
AcDbEntity
  8
0
100
AcDbLine
 62
7
  6
CONTINUOUS
 10
310.8197717163
 20
190.4730084806
 11
310.883458255
 21
192.4730084806
  0
LINE
  5
2D2
100
AcDbEntity
  8
0
100
AcDbLine
 62
7
  6
CONTINUOUS
 10
316.7559333147
 20
267.8930084806
 11
316.7559333147
 21
242.1430084806
  0
LINE
  5
2D3
100
AcDbEntity
  8
0
100
AcDbLine
 62
7
  6
CONTINUOUS
 10
317.0759333147
 20
283.8469300032
 11
317.0759333147
 21
282.9730084806
  0
LINE
  5
2D4
100
AcDbEntity
  8
0
100
AcDbLine
 62
7
  6
CONTINUOUS
 10
317.0759333147
 20
279.8230084806
 11
317.0759333147
 21
278.3230084806
  0
LINE
  5
2D5
100
AcDbEntity
  8
0
100
AcDbLine
 62
7
  6
CONTINUOUS
 10
317.0759333147
 20
275.1730084806
 11
317.0759333147
 21
274.7107899352
  0
LINE
  5
2D6
100
AcDbEntity
  8
0
100
AcDbLine
 62
7
  6
CONTINUOUS
 10
317.0759333147
 20
193.8750107078
 11
317.0759333147
 21
194.6730084806
  0
LINE
  5
2D7
100
AcDbEntity
  8
0
100
AcDbLine
 62
7
  6
CONTINUOUS
 10
317.0759333147
 20
197.8230084806
 11
317.0759333147
 21
199.3230084806
  0
LINE
  5
2D8
100
AcDbEntity
  8
0
100
AcDbLine
 62
7
  6
CONTINUOUS
 10
317.0759333147
 20
202.4730084806
 11
317.0759333147
 21
203.5352270261
  0
LINE
  5
2D9
100
AcDbEntity
  8
0
100
AcDbLine
 62
7
  6
CONTINUOUS
 10
317.1259333147
 20
237.3530084806
 11
317.1259333147
 21
236.6230084806
  0
LINE
  5
2DA
100
AcDbEntity
  8
0
100
AcDbLine
 62
7
  6
CONTINUOUS
 10
317.9240162436
 20
194.6730084806
 11
317.9240162436
 21
197.8230084806
  0
LINE
  5
2DB
100
AcDbEntity
  8
0
100
AcDbLine
 62
7
  6
CONTINUOUS
 10
317.9240162436
 20
199.3230084806
 11
317.9240162436
 21
202.4730084806
  0
LINE
  5
2DC
100
AcDbEntity
  8
0
100
AcDbLine
 62
7
  6
CONTINUOUS
 10
317.9240162436
 20
275.1730084806
 11
317.9240162436
 21
278.3230084806
  0
LINE
  5
2DD
100
AcDbEntity
  8
0
100
AcDbLine
 62
7
  6
CONTINUOUS
 10
317.9240162436
 20
279.8230084806
 11
317.9240162436
 21
282.9730084806
  0
LINE
  5
2DE
100
AcDbEntity
  8
0
100
AcDbLine
 62
7
  6
CONTINUOUS
 10
318.3559333147
 20
242.1430084806
 11
318.3559333147
 21
267.8930084806
  0
LINE
  5
2DF
100
AcDbEntity
  8
0
100
AcDbLine
 62
7
  6
CONTINUOUS
 10
335.981964247
 20
279.8748675455
 11
335.9136332018
 21
279.7230084806
  0
LINE
  5
2E0
100
AcDbEntity
  8
0
100
AcDbLine
 62
7
  6
CONTINUOUS
 10
336.1518570645
 20
278.4230084806
 11
336.2111997655
 21
278.5417029221
  0
LINE
  5
2E1
100
AcDbEntity
  8
0
100
AcDbLine
 62
7
  6
CONTINUOUS
 10
336.0678595382
 20
236.255554745
 11
307.9340070913
 21
236.255554745
  0
LINE
  5
2E2
100
AcDbEntity
  8
0
100
AcDbLine
 62
7
  6
CONTINUOUS
 10
311.560210981
 20
236.2599181789
 11
309.9916556485
 21
236.2599181789
  0
LINE
  5
2E3
100
AcDbEntity
  8
0
100
AcDbLine
 62
7
  6
CONTINUOUS
 10
313.4654610734
 20
236.2625362393
 11
311.5759333147
 21
236.2625362393
  0
LINE
  5
2E4
100
AcDbEntity
  8
0
100
AcDbLine
 62
7
  6
CONTINUOUS
 10
309.9759333147
 20
236.2625362393
 11
307.9759333147
 21
236.2625362393
  0
LINE
  5
2E5
100
AcDbEntity
  8
0
100
AcDbLine
 62
7
  6
CONTINUOUS
 10
313.4759333147
 20
236.2730084806
 11
330.5259333147
 21
236.2730084806
  0
LINE
  5
2E6
100
AcDbEntity
  8
0
100
AcDbLine
 62
7
  6
CONTINUOUS
 10
317.1259333147
 20
236.6230084806
 11
313.7809333147
 21
236.6230084806
  0
LINE
  5
2E7
100
AcDbEntity
  8
0
100
AcDbLine
 62
7
  6
CONTINUOUS
 10
309.9916556485
 20
236.2599181789
 11
309.9759333147
 21
236.2625362393
  0
LINE
  5
2E8
100
AcDbEntity
  8
0
100
AcDbLine
 62
7
  6
CONTINUOUS
 10
336.0352760157
 20
199.1043140391
 11
335.9759333147
 21
199.2230084806
  0
LINE
  5
2E9
100
AcDbEntity
  8
0
100
AcDbLine
 62
7
  6
CONTINUOUS
 10
313.4654610734
 20
272.0230084806
 11
313.4584795792
 21
272.064934704
  0
LINE
  5
2EA
100
AcDbEntity
  8
0
100
AcDbLine
 62
7
  6
CONTINUOUS
 10
319.8309333147
 20
237.3530084806
 11
319.8309333147
 21
236.2730084806
  0
LINE
  5
2EB
100
AcDbEntity
  8
0
100
AcDbLine
 62
7
  6
CONTINUOUS
 10
319.9759333147
 20
236.2730084806
 11
319.9759333147
 21
237.3530084806
  0
LINE
  5
2EC
100
AcDbEntity
  8
0
100
AcDbLine
 62
7
  6
CONTINUOUS
 10
320.0759333147
 20
291.2945844114
 11
320.0759333147
 21
291.6730084806
  0
LINE
  5
2ED
100
AcDbEntity
  8
0
100
AcDbLine
 62
7
  6
CONTINUOUS
 10
320.2059333147
 20
268.9913223063
 11
320.2059333147
 21
241.044694655
  0
LINE
  5
2EE
100
AcDbEntity
  8
0
100
AcDbLine
 62
7
  6
CONTINUOUS
 10
320.5459333147
 20
287.8430084806
 11
320.5459333147
 21
287.6980084806
  0
LINE
  5
2EF
100
AcDbEntity
  8
0
100
AcDbLine
 62
7
  6
CONTINUOUS
 10
320.5759333147
 20
197.8230084806
 11
320.5759333147
 21
199.3230084806
  0
LINE
  5
2F0
100
AcDbEntity
  8
0
100
AcDbLine
 62
7
  6
CONTINUOUS
 10
320.5759333147
 20
278.3230084806
 11
320.5759333147
 21
279.8230084806
  0
LINE
  5
2F1
100
AcDbEntity
  8
0
100
AcDbLine
 62
7
  6
CONTINUOUS
 10
321.0759333147
 20
236.2730084806
 11
321.0759333147
 21
272.0230084806
  0
LINE
  5
2F2
100
AcDbEntity
  8
0
100
AcDbLine
 62
7
  6
CONTINUOUS
 10
321.0759333147
 20
283.8582749314
 11
321.0759333147
 21
284.7450361148
  0
LINE
  5
2F3
100
AcDbEntity
  8
0
100
AcDbLine
 62
7
  6
CONTINUOUS
 10
321.9309333147
 20
260.1630084806
 11
321.9309333147
 21
265.6630084806
  0
LINE
  5
2F4
100
AcDbEntity
  8
0
100
AcDbLine
 62
7
  6
CONTINUOUS
 10
322.0759333147
 20
253.8730084806
 11
322.0759333147
 21
252.2730084806
  0
LINE
  5
2F5
100
AcDbEntity
  8
0
100
AcDbLine
 62
7
  6
CONTINUOUS
 10
335.9136332018
 20
274.8067927923
 11
335.8822166292
 21
274.7369725326
  0
LINE
  5
2F6
100
AcDbEntity
  8
0
100
AcDbLine
 62
7
  6
CONTINUOUS
 10
311.5759333147
 20
236.2625362393
 11
311.5602109809
 21
236.2599181789
  0
LINE
  5
2F7
100
AcDbEntity
  8
0
100
AcDbLine
 62
7
  6
CONTINUOUS
 10
313.4759333147
 20
236.9730084806
 11
314.4559333147
 21
236.9730084806
  0
LINE
  5
2F8
100
AcDbEntity
  8
0
100
AcDbLine
 62
7
  6
CONTINUOUS
 10
313.5759333147
 20
237.3530084806
 11
321.0759333147
 21
237.3530084806
  0
LINE
  5
2F9
100
AcDbEntity
  8
0
100
AcDbLine
 62
7
  6
CONTINUOUS
 10
313.5759333147
 20
237.5730084806
 11
313.4759333147
 21
237.5730084806
  0
LINE
  5
2FA
100
AcDbEntity
  8
0
100
AcDbLine
 62
7
  6
CONTINUOUS
 10
313.4759333147
 20
239.5130084806
 11
313.5759333147
 21
239.5130084806
  0
LINE
  5
2FB
100
AcDbEntity
  8
0
100
AcDbLine
 62
7
  6
CONTINUOUS
 10
313.5759333147
 20
240.1130084806
 11
313.4759333147
 21
240.1130084806
  0
LINE
  5
2FC
100
AcDbEntity
  8
0
100
AcDbLine
 62
7
  6
CONTINUOUS
 10
318.8100590336
 20
238.8451476644
 11
315.4100590336
 21
239.7561749187
  0
LINE
  5
2FD
100
AcDbEntity
  8
0
100
AcDbLine
 62
7
  6
CONTINUOUS
 10
315.6100552219
 20
241.0380923743
 11
319.0100552219
 21
240.12706512
  0
LINE
  5
2FE
100
AcDbEntity
  8
0
100
AcDbLine
 62
7
  6
CONTINUOUS
 10
335.9136332018
 20
203.439224169
 11
335.8845728722
 21
203.5038079092
  0
LINE
  5
2FF
100
AcDbEntity
  8
0
100
AcDbLine
 62
7
  6
CONTINUOUS
 10
323.0759333147
 20
284.7450361148
 11
323.0759333147
 21
283.8582749314
  0
LINE
  5
300
100
AcDbEntity
  8
0
100
AcDbLine
 62
7
  6
CONTINUOUS
 10
323.0759333147
 20
252.2730084806
 11
323.0759333147
 21
236.2730084806
  0
LINE
  5
301
100
AcDbEntity
  8
0
100
AcDbLine
 62
7
  6
CONTINUOUS
 10
323.0759310174
 20
270.6730084806
 11
323.0759333147
 21
253.8730084806
  0
LINE
  5
302
100
AcDbEntity
  8
0
100
AcDbLine
 62
7
  6
CONTINUOUS
 10
323.5759333147
 20
279.8230084806
 11
323.5759333147
 21
278.3230084806
  0
LINE
  5
303
100
AcDbEntity
  8
0
100
AcDbLine
 62
7
  6
CONTINUOUS
 10
323.5759333147
 20
199.3230084806
 11
323.5759333147
 21
197.8230084806
  0
LINE
  5
304
100
AcDbEntity
  8
0
100
AcDbLine
 62
7
  6
CONTINUOUS
 10
323.6059333147
 20
287.6980084806
 11
323.6059333147
 21
287.8430084806
  0
LINE
  5
305
100
AcDbEntity
  8
0
100
AcDbLine
 62
7
  6
CONTINUOUS
 10
324.0759333147
 20
291.2945844114
 11
324.0759333147
 21
291.6730084806
  0
LINE
  5
306
100
AcDbEntity
  8
0
100
AcDbLine
 62
7
  6
CONTINUOUS
 10
324.1759333147
 20
253.8730084806
 11
324.1759333147
 21
252.2730084806
  0
LINE
  5
307
100
AcDbEntity
  8
0
100
AcDbLine
 62
7
  6
CONTINUOUS
 10
330.5433870503
 20
272.064934704
 11
330.5364055561
 21
272.0230084806
  0
LINE
  5
308
100
AcDbEntity
  8
0
100
AcDbLine
 62
7
  6
CONTINUOUS
 10
308.2382334277
 20
203.439224169
 11
308.2672937573
 21
203.5038079092
  0
LINE
  5
309
100
AcDbEntity
  8
0
100
AcDbLine
 62
7
  6
CONTINUOUS
 10
313.4759333147
 20
242.0530084806
 11
313.5759333147
 21
242.0530084806
  0
LINE
  5
30A
100
AcDbEntity
  8
0
100
AcDbLine
 62
7
  6
CONTINUOUS
 10
316.7559333147
 20
242.1430084806
 11
318.3559333147
 21
242.1430084806
  0
LINE
  5
30B
100
AcDbEntity
  8
0
100
AcDbLine
 62
7
  6
CONTINUOUS
 10
313.5759333147
 20
242.6530084806
 11
313.4759333147
 21
242.6530084806
  0
LINE
  5
30C
100
AcDbEntity
  8
0
100
AcDbLine
 62
7
  6
CONTINUOUS
 10
313.4759333147
 20
242.7030084806
 11
313.5759333147
 21
242.7030084806
  0
LINE
  5
30D
100
AcDbEntity
  8
0
100
AcDbLine
 62
7
  6
CONTINUOUS
 10
313.4759333147
 20
243.2030084806
 11
313.5759333147
 21
243.2030084806
  0
LINE
  5
30E
100
AcDbEntity
  8
0
100
AcDbLine
 62
7
  6
CONTINUOUS
 10
308.2382334277
 20
274.8067927923
 11
308.2696500002
 21
274.7369725326
  0
LINE
  5
30F
100
AcDbEntity
  8
0
100
AcDbLine
 62
7
  6
CONTINUOUS
 10
308.1699023825
 20
279.8748675455
 11
308.2382334277
 21
279.7230084806
  0
LINE
  5
310
100
AcDbEntity
  8
0
100
AcDbLine
 62
7
  6
CONTINUOUS
 10
329.6328670971
 20
189.929942263
 11
329.6072388732
 21
192.4730084806
  0
LINE
  5
311
100
AcDbEntity
  8
0
100
AcDbLine
 62
7
  6
CONTINUOUS
 10
326.2278503858
 20
282.9730084806
 11
326.2278503858
 21
279.8230084806
  0
LINE
  5
312
100
AcDbEntity
  8
0
100
AcDbLine
 62
7
  6
CONTINUOUS
 10
326.2278503858
 20
278.3230084806
 11
326.2278503858
 21
275.1730084806
  0
LINE
  5
313
100
AcDbEntity
  8
0
100
AcDbLine
 62
7
  6
CONTINUOUS
 10
326.2278503858
 20
202.4730084806
 11
326.2278503858
 21
199.3230084806
  0
LINE
  5
314
100
AcDbEntity
  8
0
100
AcDbLine
 62
7
  6
CONTINUOUS
 10
326.2278503858
 20
197.8230084806
 11
326.2278503858
 21
194.6730084806
  0
LINE
  5
315
100
AcDbEntity
  8
0
100
AcDbLine
 62
7
  6
CONTINUOUS
 10
327.0759333147
 20
283.8469300032
 11
327.0759333147
 21
282.9730084806
  0
LINE
  5
316
100
AcDbEntity
  8
0
100
AcDbLine
 62
7
  6
CONTINUOUS
 10
327.0759333147
 20
279.8230084806
 11
327.0759333147
 21
278.3230084806
  0
LINE
  5
317
100
AcDbEntity
  8
0
100
AcDbLine
 62
7
  6
CONTINUOUS
 10
327.0759333147
 20
275.1730084806
 11
327.0759333147
 21
274.7107899352
  0
LINE
  5
318
100
AcDbEntity
  8
0
100
AcDbLine
 62
7
  6
CONTINUOUS
 10
327.0759333147
 20
193.8750107078
 11
327.0759333147
 21
194.6730084806
  0
LINE
  5
319
100
AcDbEntity
  8
0
100
AcDbLine
 62
7
  6
CONTINUOUS
 10
327.0759333147
 20
197.8230084806
 11
327.0759333147
 21
199.3230084806
  0
LINE
  5
31A
100
AcDbEntity
  8
0
100
AcDbLine
 62
7
  6
CONTINUOUS
 10
327.0759333147
 20
202.4730084806
 11
327.0759333147
 21
203.5352270261
  0
LINE
  5
31B
100
AcDbEntity
  8
0
100
AcDbLine
 62
7
  6
CONTINUOUS
 10
327.7759333147
 20
272.0230084806
 11
327.7759333147
 21
271.8554876756
  0
LINE
  5
31C
100
AcDbEntity
  8
0
100
AcDbLine
 62
7
  6
CONTINUOUS
 10
328.6259333147
 20
193.9013108102
 11
328.6259333147
 21
193.9230084806
  0
LINE
  5
31D
100
AcDbEntity
  8
0
100
AcDbLine
 62
7
  6
CONTINUOUS
 10
328.7759333147
 20
271.8869754564
 11
328.7759333147
 21
272.0230084806
  0
LINE
  5
31E
100
AcDbEntity
  8
0
100
AcDbLine
 62
7
  6
CONTINUOUS
 10
329.0259333147
 20
269.6730084806
 11
329.0259333147
 21
270.699189084
  0
LINE
  5
31F
100
AcDbEntity
  8
0
100
AcDbLine
 62
7
  6
CONTINUOUS
 10
329.6072388732
 20
193.8636657796
 11
329.6072388732
 21
192.4730084806
  0
LINE
  5
320
100
AcDbEntity
  8
0
100
AcDbLine
 62
7
  6
CONTINUOUS
 10
329.6072388732
 20
283.8582749314
 11
329.6072388732
 21
286.2417029221
  0
LINE
  5
321
100
AcDbEntity
  8
0
100
AcDbLine
 62
7
  6
CONTINUOUS
 10
329.7259333147
 20
190.0230084806
 11
329.7259333147
 21
193.9230084806
  0
LINE
  5
322
100
AcDbEntity
  8
0
100
AcDbLine
 62
7
  6
CONTINUOUS
 10
329.7259333147
 20
283.7989322304
 11
329.7259333147
 21
286.1230084806
  0
LINE
  5
323
100
AcDbEntity
  8
0
100
AcDbLine
 62
7
  6
CONTINUOUS
 10
308.1759333147
 20
199.2230084806
 11
308.1165906138
 21
199.1043140391
  0
LINE
  5
324
100
AcDbEntity
  8
0
100
AcDbLine
 62
7
  6
CONTINUOUS
 10
313.4759333147
 20
243.9730084806
 11
313.5759333147
 21
243.9730084806
  0
LINE
  5
325
100
AcDbEntity
  8
0
100
AcDbLine
 62
7
  6
CONTINUOUS
 10
313.4759333147
 20
244.4730084806
 11
313.5759333147
 21
244.4730084806
  0
LINE
  5
326
100
AcDbEntity
  8
0
100
AcDbLine
 62
7
  6
CONTINUOUS
 10
313.4759333147
 20
244.5930084806
 11
313.5759333147
 21
244.5930084806
  0
LINE
  5
327
100
AcDbEntity
  8
0
100
AcDbLine
 62
7
  6
CONTINUOUS
 10
313.5759333147
 20
245.1930084806
 11
313.4759333147
 21
245.1930084806
  0
LINE
  5
328
100
AcDbEntity
  8
0
100
AcDbLine
 62
7
  6
CONTINUOUS
 10
313.4759333147
 20
247.1330084806
 11
313.5759333147
 21
247.1330084806
  0
LINE
  5
329
100
AcDbEntity
  8
0
100
AcDbLine
 62
7
  6
CONTINUOUS
 10
307.940666864
 20
278.5417029221
 11
308.000009565
 21
278.4230084806
  0
LINE
  5
32A
100
AcDbEntity
  8
0
100
AcDbLine
 62
7
  6
CONTINUOUS
 10
333.2684083745
 20
192.4730084806
 11
333.3320949132
 21
190.4730084806
  0
LINE
  5
32B
100
AcDbEntity
  8
0
100
AcDbLine
 62
7
  6
CONTINUOUS
 10
333.598273909
 20
193.81156306
 11
333.6008652959
 21
193.4730084806
  0
LINE
  5
32C
100
AcDbEntity
  8
0
100
AcDbLine
 62
7
  6
CONTINUOUS
 10
330.2997527114
 20
271.3230084806
 11
330.2997527114
 21
269.6730084806
  0
LINE
  5
32D
100
AcDbEntity
  8
0
100
AcDbLine
 62
7
  6
CONTINUOUS
 10
330.3259333147
 20
269.6730084806
 11
330.3259333147
 21
271.9458317494
  0
LINE
  5
32E
100
AcDbEntity
  8
0
100
AcDbLine
 62
7
  6
CONTINUOUS
 10
330.5259333147
 20
273.9730084806
 11
330.5259333147
 21
272.0230084806
  0
LINE
  5
32F
100
AcDbEntity
  8
0
100
AcDbLine
 62
7
  6
CONTINUOUS
 10
330.5364055561
 20
236.2625362393
 11
330.5364055561
 21
272.0230084806
  0
LINE
  5
330
100
AcDbEntity
  8
0
100
AcDbLine
 62
7
  6
CONTINUOUS
 10
330.5433870503
 20
273.9730084806
 11
330.5433870503
 21
272.064934704
  0
LINE
  5
331
100
AcDbEntity
  8
0
100
AcDbLine
 62
7
  6
CONTINUOUS
 10
331.1891262058
 20
282.9730084806
 11
331.1891262058
 21
279.8230084806
  0
LINE
  5
332
100
AcDbEntity
  8
0
100
AcDbLine
 62
7
  6
CONTINUOUS
 10
331.1891262058
 20
278.3230084806
 11
331.1891262058
 21
275.1730084806
  0
LINE
  5
333
100
AcDbEntity
  8
0
100
AcDbLine
 62
7
  6
CONTINUOUS
 10
331.1891262058
 20
202.4730084806
 11
331.1891262058
 21
199.3230084806
  0
LINE
  5
334
100
AcDbEntity
  8
0
100
AcDbLine
 62
7
  6
CONTINUOUS
 10
331.1891262058
 20
197.8230084806
 11
331.1891262058
 21
194.6730084806
  0
LINE
  5
335
100
AcDbEntity
  8
0
100
AcDbLine
 62
7
  6
CONTINUOUS
 10
332.4259333147
 20
236.2625362393
 11
332.4259333147
 21
272.0230084806
  0
LINE
  5
336
100
AcDbEntity
  8
0
100
AcDbLine
 62
7
  6
CONTINUOUS
 10
332.4416556485
 20
236.2599181789
 11
332.4416556485
 21
272.0387308144
  0
LINE
  5
337
100
AcDbEntity
  8
0
100
AcDbLine
 62
7
  6
CONTINUOUS
 10
332.5759333147
 20
282.9730084806
 11
332.5759333147
 21
279.8230084806
  0
LINE
  5
338
100
AcDbEntity
  8
0
100
AcDbLine
 62
7
  6
CONTINUOUS
 10
332.5759333147
 20
278.3230084806
 11
332.5759333147
 21
275.1730084806
  0
LINE
  5
339
100
AcDbEntity
  8
0
100
AcDbLine
 62
7
  6
CONTINUOUS
 10
332.5759333147
 20
202.4730084806
 11
332.5759333147
 21
199.3230084806
  0
LINE
  5
33A
100
AcDbEntity
  8
0
100
AcDbLine
 62
7
  6
CONTINUOUS
 10
332.5759333147
 20
197.8230084806
 11
332.5759333147
 21
194.6730084806
  0
LINE
  5
33B
100
AcDbEntity
  8
0
100
AcDbLine
 62
7
  6
CONTINUOUS
 10
332.6259333147
 20
193.9230084806
 11
332.6259333147
 21
190.0230084806
  0
LINE
  5
33C
100
AcDbEntity
  8
0
100
AcDbLine
 62
7
  6
CONTINUOUS
 10
332.7259333147
 20
286.1230084806
 11
332.7259333147
 21
283.7989322304
  0
LINE
  5
33D
100
AcDbEntity
  8
0
100
AcDbLine
 62
7
  6
CONTINUOUS
 10
332.7446277562
 20
192.4730084806
 11
332.7446277562
 21
193.8636657796
  0
LINE
  5
33E
100
AcDbEntity
  8
0
100
AcDbLine
 62
7
  6
CONTINUOUS
 10
332.8259333147
 20
193.4730084806
 11
332.8259333147
 21
192.4730084806
  0
LINE
  5
33F
100
AcDbEntity
  8
0
100
AcDbLine
 62
7
  6
CONTINUOUS
 10
332.8446277562
 20
286.2417029221
 11
332.8446277562
 21
283.8582749314
  0
LINE
  5
340
100
AcDbEntity
  8
0
100
AcDbLine
 62
7
  6
CONTINUOUS
 10
332.8759333147
 20
279.9230084806
 11
332.8759333147
 21
279.8230084806
  0
LINE
  5
341
100
AcDbEntity
  8
0
100
AcDbLine
 62
7
  6
CONTINUOUS
 10
332.8759333147
 20
278.3230084806
 11
332.8759333147
 21
278.2230084806
  0
LINE
  5
342
100
AcDbEntity
  8
0
100
AcDbLine
 62
7
  6
CONTINUOUS
 10
332.8759333147
 20
199.4230084806
 11
332.8759333147
 21
199.3230084806
  0
LINE
  5
343
100
AcDbEntity
  8
0
100
AcDbLine
 62
7
  6
CONTINUOUS
 10
332.8759333147
 20
197.8230084806
 11
332.8759333147
 21
197.7230084806
  0
LINE
  5
344
100
AcDbEntity
  8
0
100
AcDbLine
 62
7
  6
CONTINUOUS
 10
333.0759333147
 20
193.8636657796
 11
333.0759333147
 21
193.4730084806
  0
LINE
  5
345
100
AcDbEntity
  8
0
100
AcDbLine
 62
7
  6
CONTINUOUS
 10
333.1258781113
 20
279.9230084806
 11
333.1258781113
 21
279.8230084806
  0
LINE
  5
346
100
AcDbEntity
  8
0
100
AcDbLine
 62
7
  6
CONTINUOUS
 10
333.1258781113
 20
199.4230084806
 11
333.1258781113
 21
199.3230084806
  0
LINE
  5
347
100
AcDbEntity
  8
0
100
AcDbLine
 62
7
  6
CONTINUOUS
 10
333.1258781113
 20
197.7230084806
 11
333.1258781113
 21
197.8230084806
  0
LINE
  5
348
100
AcDbEntity
  8
0
100
AcDbLine
 62
7
  6
CONTINUOUS
 10
333.1258781113
 20
278.2230084806
 11
333.1258781113
 21
278.3230084806
  0
LINE
  5
349
100
AcDbEntity
  8
0
100
AcDbLine
 62
7
  6
CONTINUOUS
 10
333.3508652959
 20
193.4730084806
 11
333.3508652959
 21
192.4730084806
  0
LINE
  5
34A
100
AcDbEntity
  8
0
100
AcDbLine
 62
7
  6
CONTINUOUS
 10
333.3759333147
 20
279.9230084806
 11
333.3759333147
 21
279.8230084806
  0
LINE
  5
34B
100
AcDbEntity
  8
0
100
AcDbLine
 62
7
  6
CONTINUOUS
 10
333.3759333147
 20
278.3230084806
 11
333.3759333147
 21
278.2230084806
  0
LINE
  5
34C
100
AcDbEntity
  8
0
100
AcDbLine
 62
7
  6
CONTINUOUS
 10
333.3759333147
 20
199.4230084806
 11
333.3759333147
 21
199.3230084806
  0
LINE
  5
34D
100
AcDbEntity
  8
0
100
AcDbLine
 62
7
  6
CONTINUOUS
 10
333.3759333147
 20
197.8230084806
 11
333.3759333147
 21
197.7230084806
  0
LINE
  5
34E
100
AcDbEntity
  8
0
100
AcDbLine
 62
7
  6
CONTINUOUS
 10
330.2997527114
 20
271.3230084806
 11
330.3051804261
 21
271.9449629892
  0
LINE
  5
34F
100
AcDbEntity
  8
0
100
AcDbLine
 62
7
  6
CONTINUOUS
 10
332.7446277562
 20
192.4730084806
 11
332.7189995323
 21
189.929942263
  0
LINE
  5
350
100
AcDbEntity
  8
0
100
AcDbLine
 62
7
  6
CONTINUOUS
 10
313.5759333147
 20
247.7330084806
 11
313.4759333147
 21
247.7330084806
  0
LINE
  5
351
100
AcDbEntity
  8
0
100
AcDbLine
 62
7
  6
CONTINUOUS
 10
313.4759333147
 20
249.6730084806
 11
313.5759333147
 21
249.6730084806
  0
LINE
  5
352
100
AcDbEntity
  8
0
100
AcDbLine
 62
7
  6
CONTINUOUS
 10
313.5759333147
 20
250.2730084806
 11
313.4759333147
 21
250.2730084806
  0
LINE
  5
353
100
AcDbEntity
  8
0
100
AcDbLine
 62
7
  6
CONTINUOUS
 10
336.0813658729
 20
201.6869353377
 11
336.0873787354
 21
193.81156306
  0
LINE
  5
354
100
AcDbEntity
  8
0
100
AcDbLine
 62
7
  6
CONTINUOUS
 10
333.6008652959
 20
190.4730084806
 11
333.6008652959
 21
192.4730084806
  0
LINE
  5
355
100
AcDbEntity
  8
0
100
AcDbLine
 62
7
  6
CONTINUOUS
 10
334.0102109809
 20
236.2599181789
 11
334.0102109809
 21
272.0387308144
  0
LINE
  5
356
100
AcDbEntity
  8
0
100
AcDbLine
 62
7
  6
CONTINUOUS
 10
334.0259333147
 20
236.2625362393
 11
334.0259333147
 21
272.0230084806
  0
LINE
  5
357
100
AcDbEntity
  8
0
100
AcDbLine
 62
7
  6
CONTINUOUS
 10
334.0403277296
 20
282.9730084806
 11
334.0403277296
 21
279.9230084806
  0
LINE
  5
358
100
AcDbEntity
  8
0
100
AcDbLine
 62
7
  6
CONTINUOUS
 10
334.0403277296
 20
278.2230084806
 11
334.0403277296
 21
275.1730084806
  0
LINE
  5
359
100
AcDbEntity
  8
0
100
AcDbLine
 62
7
  6
CONTINUOUS
 10
334.0403277296
 20
202.4730084806
 11
334.0403277296
 21
199.4230084806
  0
LINE
  5
35A
100
AcDbEntity
  8
0
100
AcDbLine
 62
7
  6
CONTINUOUS
 10
334.0403277296
 20
197.7230084806
 11
334.0403277296
 21
194.6730084806
  0
LINE
  5
35B
100
AcDbEntity
  8
0
100
AcDbLine
 62
7
  6
CONTINUOUS
 10
334.4009333147
 20
279.7230084806
 11
334.4009333147
 21
278.4230084806
  0
LINE
  5
35C
100
AcDbEntity
  8
0
100
AcDbLine
 62
7
  6
CONTINUOUS
 10
334.4009333147
 20
197.9230084806
 11
334.4009333147
 21
199.2230084806
  0
LINE
  5
35D
100
AcDbEntity
  8
0
100
AcDbLine
 62
7
  6
CONTINUOUS
 10
334.4690731092
 20
279.6548686861
 11
334.4690731092
 21
278.4911482751
  0
LINE
  5
35E
100
AcDbEntity
  8
0
100
AcDbLine
 62
7
  6
CONTINUOUS
 10
334.4690731092
 20
199.1548686861
 11
334.4690731092
 21
197.9911482751
  0
LINE
  5
35F
100
AcDbEntity
  8
0
100
AcDbLine
 62
7
  6
CONTINUOUS
 10
334.7709333147
 20
283.7230084806
 11
334.7709333147
 21
282.9730084806
  0
LINE
  5
360
100
AcDbEntity
  8
0
100
AcDbLine
 62
7
  6
CONTINUOUS
 10
334.7709333147
 20
279.9230084806
 11
334.7709333147
 21
279.7230084806
  0
LINE
  5
361
100
AcDbEntity
  8
0
100
AcDbLine
 62
7
  6
CONTINUOUS
 10
334.7709333147
 20
278.4230084806
 11
334.7709333147
 21
278.2230084806
  0
LINE
  5
362
100
AcDbEntity
  8
0
100
AcDbLine
 62
7
  6
CONTINUOUS
 10
334.7709333147
 20
275.1730084806
 11
334.7709333147
 21
274.7369725326
  0
LINE
  5
363
100
AcDbEntity
  8
0
100
AcDbLine
 62
7
  6
CONTINUOUS
 10
335.7259333147
 20
278.2230084806
 11
335.7259333147
 21
278.4230084806
  0
LINE
  5
364
100
AcDbEntity
  8
0
100
AcDbLine
 62
7
  6
CONTINUOUS
 10
335.7259333147
 20
279.7230084806
 11
335.7259333147
 21
279.9230084806
  0
LINE
  5
365
100
AcDbEntity
  8
0
100
AcDbLine
 62
7
  6
CONTINUOUS
 10
335.8196277562
 20
279.6043140391
 11
335.8196277562
 21
278.5417029221
  0
LINE
  5
366
100
AcDbEntity
  8
0
100
AcDbLine
 62
7
  6
CONTINUOUS
 10
335.8196277562
 20
199.1043140391
 11
335.8196277562
 21
198.0417029221
  0
LINE
  5
367
100
AcDbEntity
  8
0
100
AcDbLine
 62
7
  6
CONTINUOUS
 10
335.9136332018
 20
193.9230084806
 11
335.9136332018
 21
194.6730084806
  0
LINE
  5
368
100
AcDbEntity
  8
0
100
AcDbLine
 62
7
  6
CONTINUOUS
 10
335.9136332018
 20
197.7230084806
 11
335.9136332018
 21
197.9230084806
  0
LINE
  5
369
100
AcDbEntity
  8
0
100
AcDbLine
 62
7
  6
CONTINUOUS
 10
335.9136332018
 20
199.2230084806
 11
335.9136332018
 21
199.4230084806
  0
LINE
  5
36A
100
AcDbEntity
  8
0
100
AcDbLine
 62
7
  6
CONTINUOUS
 10
335.9136332018
 20
202.4730084806
 11
335.9136332018
 21
203.439224169
  0
LINE
  5
36B
100
AcDbEntity
  8
0
100
AcDbLine
 62
7
  6
CONTINUOUS
 10
335.9136332018
 20
274.8067927923
 11
335.9136332018
 21
275.1730084806
  0
LINE
  5
36C
100
AcDbEntity
  8
0
100
AcDbLine
 62
7
  6
CONTINUOUS
 10
335.9136332018
 20
278.2230084806
 11
335.9136332018
 21
278.4230084806
  0
LINE
  5
36D
100
AcDbEntity
  8
0
100
AcDbLine
 62
7
  6
CONTINUOUS
 10
335.9759333147
 20
193.9230084806
 11
335.9759333147
 21
194.6730084806
  0
LINE
  5
36E
100
AcDbEntity
  8
0
100
AcDbLine
 62
7
  6
CONTINUOUS
 10
335.9759333147
 20
197.7230084806
 11
335.9759333147
 21
197.9230084806
  0
LINE
  5
36F
100
AcDbEntity
  8
0
100
AcDbLine
 62
7
  6
CONTINUOUS
 10
335.9759333147
 20
199.2230084806
 11
335.9759333147
 21
199.4230084806
  0
LINE
  5
370
100
AcDbEntity
  8
0
100
AcDbLine
 62
7
  6
CONTINUOUS
 10
335.9759333147
 20
202.4730084806
 11
335.9759333147
 21
203.439224169
  0
LINE
  5
371
100
AcDbEntity
  8
0
100
AcDbLine
 62
7
  6
CONTINUOUS
 10
335.981964247
 20
279.8748675455
 11
335.981964247
 21
279.9230084806
  0
LINE
  5
372
100
AcDbEntity
  8
0
100
AcDbLine
 62
7
  6
CONTINUOUS
 10
335.981964247
 20
282.966144889
 11
335.981964247
 21
283.7230084806
  0
LINE
  5
373
100
AcDbEntity
  8
0
100
AcDbLine
 62
7
  6
CONTINUOUS
 10
336.0141299159
 20
279.9230084806
 11
336.0141299159
 21
279.8748675455
  0
LINE
  5
374
100
AcDbEntity
  8
0
100
AcDbLine
 62
7
  6
CONTINUOUS
 10
336.0259333147
 20
236.2625362393
 11
336.0259333147
 21
272.0230084806
  0
LINE
  5
375
100
AcDbEntity
  8
0
100
AcDbLine
 62
7
  6
CONTINUOUS
 10
336.0352760157
 20
203.5579186105
 11
336.0352760157
 21
203.2730084806
  0
LINE
  5
376
100
AcDbEntity
  8
0
100
AcDbLine
 62
7
  6
CONTINUOUS
 10
336.0352760157
 20
198.0417029221
 11
336.0352760157
 21
199.1043140391
  0
LINE
  5
377
100
AcDbEntity
  8
0
100
AcDbLine
 62
7
  6
CONTINUOUS
 10
336.0678595382
 20
272.064934704
 11
336.0678595382
 21
236.255554745
  0
LINE
  5
378
100
AcDbEntity
  8
0
100
AcDbLine
 62
7
  6
CONTINUOUS
 10
336.0759333147
 20
282.9730110757
 11
336.0759333147
 21
283.7230084806
  0
LINE
  5
379
100
AcDbEntity
  8
0
100
AcDbLine
 62
7
  6
CONTINUOUS
 10
336.1518570645
 20
274.8067927923
 11
336.1518570645
 21
275.1730084806
  0
LINE
  5
37A
100
AcDbEntity
  8
0
100
AcDbLine
 62
7
  6
CONTINUOUS
 10
336.1518570645
 20
278.2230084806
 11
336.1518570645
 21
278.4230084806
  0
LINE
  5
37B
100
AcDbEntity
  8
0
100
AcDbLine
 62
7
  6
CONTINUOUS
 10
336.2111997655
 20
275.7230084806
 11
336.2111997655
 21
274.6880983508
  0
LINE
  5
37C
100
AcDbEntity
  8
0
100
AcDbLine
 62
7
  6
CONTINUOUS
 10
336.2167325217
 20
288.0730056909
 11
336.2167326657
 21
275.7230084806
  0
LINE
  5
37D
100
AcDbEntity
  8
0
100
AcDbLine
 62
7
  6
CONTINUOUS
 10
336.7242900672
 20
287.5730084806
 11
336.7242900672
 21
275.7230084806
  0
LINE
  5
37E
100
AcDbEntity
  8
0
100
AcDbLine
 62
7
  6
CONTINUOUS
 10
313.4759333147
 20
252.2130084806
 11
313.5759333147
 21
252.2130084806
  0
LINE
  5
37F
100
AcDbEntity
  8
0
100
AcDbLine
 62
7
  6
CONTINUOUS
 10
321.0759333147
 20
252.2730084806
 11
324.1759333147
 21
252.2730084806
  0
LINE
  5
380
100
AcDbEntity
  8
0
100
AcDbLine
 62
7
  6
CONTINUOUS
 10
313.5759333147
 20
252.8130084806
 11
313.4759333147
 21
252.8130084806
  0
LINE
  5
381
100
AcDbEntity
  8
0
100
AcDbLine
 62
7
  6
CONTINUOUS
 10
324.1759333147
 20
253.8730084806
 11
321.0759333147
 21
253.8730084806
  0
LINE
  5
382
100
AcDbEntity
  8
0
100
AcDbLine
 62
7
  6
CONTINUOUS
 10
313.4759333147
 20
254.7530084806
 11
313.5759333147
 21
254.7530084806
  0
LINE
  5
383
100
AcDbEntity
  8
0
100
AcDbLine
 62
7
  6
CONTINUOUS
 10
307.9340070913
 20
272.064934704
 11
307.9759333147
 21
272.0230084806
  0
LINE
  5
384
100
AcDbEntity
  8
0
100
AcDbLine
 62
7
  6
CONTINUOUS
 10
320.0759333147
 20
291.2945844114
 11
320.8509333147
 21
288.7596736321
  0
LINE
  5
385
100
AcDbEntity
  8
0
100
AcDbLine
 62
7
  6
CONTINUOUS
 10
338.0759333147
 20
187.9071979926
 11
338.0759333147
 21
288.0730084806
  0
LINE
  5
386
100
AcDbEntity
  8
0
100
AcDbLine
 62
7
  6
CONTINUOUS
 10
313.5759333147
 20
255.3530084806
 11
313.4759333147
 21
255.3530084806
  0
LINE
  5
387
100
AcDbEntity
  8
0
100
AcDbLine
 62
7
  6
CONTINUOUS
 10
311.5602109809
 20
272.0387308144
 11
311.5759333147
 21
272.0230084806
  0
LINE
  5
388
100
AcDbEntity
  8
0
100
AcDbLine
 62
7
  6
CONTINUOUS
 10
309.6827935202
 20
199.1548686861
 11
309.7509333147
 21
199.2230084806
  0
LINE
  5
389
100
AcDbEntity
  8
0
100
AcDbLine
 62
7
  6
CONTINUOUS
 10
321.0759333147
 20
260.1630084806
 11
321.9309333147
 21
260.1630084806
  0
LINE
  5
38A
100
AcDbEntity
  8
0
100
AcDbLine
 62
7
  6
CONTINUOUS
 10
313.4759333147
 20
261.9130084806
 11
313.5759333147
 21
261.9130084806
  0
LINE
  5
38B
100
AcDbEntity
  8
0
100
AcDbLine
 62
7
  6
CONTINUOUS
 10
309.7509333147
 20
278.4230084806
 11
309.6827935202
 21
278.4911482751
  0
LINE
  5
38C
100
AcDbEntity
  8
0
100
AcDbLine
 62
7
  6
CONTINUOUS
 10
307.940666864
 20
283.8582749314
 11
308.0759333147
 21
283.7230084806
  0
LINE
  5
38D
100
AcDbEntity
  8
0
100
AcDbLine
 62
7
  6
CONTINUOUS
 10
320.5459333147
 20
287.6980084806
 11
320.5577303819
 21
287.6742304985
  0
LINE
  5
38E
100
AcDbEntity
  8
0
100
AcDbLine
 62
7
  6
CONTINUOUS
 10
308.0644878941
 20
193.81156306
 11
308.1759333147
 21
193.9230084806
  0
LINE
  5
38F
100
AcDbEntity
  8
0
100
AcDbLine
 62
7
  6
CONTINUOUS
 10
313.4759333147
 20
263.9130084806
 11
313.5759333147
 21
263.9130084806
  0
LINE
  5
390
100
AcDbEntity
  8
0
100
AcDbLine
 62
7
  6
CONTINUOUS
 10
313.4759333147
 20
265.5630084806
 11
313.5759333147
 21
265.5630084806
  0
LINE
  5
391
100
AcDbEntity
  8
0
100
AcDbLine
 62
7
  6
CONTINUOUS
 10
311.5759333147
 20
286.1230084806
 11
311.4572388732
 21
286.2417029221
  0
LINE
  5
392
100
AcDbEntity
  8
0
100
AcDbLine
 62
7
  6
CONTINUOUS
 10
323.6012307678
 20
285.7831422959
 11
323.5467388796
 21
285.8896918132
  0
LINE
  5
393
100
AcDbEntity
  8
0
100
AcDbLine
 62
7
  6
CONTINUOUS
 10
335.9759333147
 20
203.439224169
 11
336.0352760157
 21
203.5579186105
  0
LINE
  5
394
100
AcDbEntity
  8
0
100
AcDbLine
 62
7
  6
CONTINUOUS
 10
311.5759333147
 20
190.0230084806
 11
311.4828670971
 21
189.929942263
  0
LINE
  5
395
100
AcDbEntity
  8
0
100
AcDbLine
 62
7
  6
CONTINUOUS
 10
321.9309333147
 20
265.6630084806
 11
321.0759333147
 21
265.6630084806
  0
LINE
  5
396
100
AcDbEntity
  8
0
100
AcDbLine
 62
7
  6
CONTINUOUS
 10
313.4759333147
 20
266.0630084806
 11
313.5759333147
 21
266.0630084806
  0
LINE
  5
397
100
AcDbEntity
  8
0
100
AcDbLine
 62
7
  6
CONTINUOUS
 10
313.4759333147
 20
266.8330084806
 11
313.5759333147
 21
266.8330084806
  0
LINE
  5
398
100
AcDbEntity
  8
0
100
AcDbLine
 62
7
  6
CONTINUOUS
 10
313.4759333147
 20
267.3330084806
 11
313.5759333147
 21
267.3330084806
  0
LINE
  5
399
100
AcDbEntity
  8
0
100
AcDbLine
 62
7
  6
CONTINUOUS
 10
318.3559333147
 20
267.8930084806
 11
316.7559333147
 21
267.8930084806
  0
LINE
  5
39A
100
AcDbEntity
  8
0
100
AcDbLine
 62
7
  6
CONTINUOUS
 10
313.5759333147
 20
268.4730084806
 11
313.4759333147
 21
268.4730084806
  0
LINE
  5
39B
100
AcDbEntity
  8
0
100
AcDbLine
 62
7
  6
CONTINUOUS
 10
336.2111997655
 20
274.6880983508
 11
336.1518570645
 21
274.8067927923
  0
LINE
  5
39C
100
AcDbEntity
  8
0
100
AcDbLine
 62
7
  6
CONTINUOUS
 10
335.9759333147
 20
197.9230084806
 11
336.0352760157
 21
198.0417029221
  0
LINE
  5
39D
100
AcDbEntity
  8
0
100
AcDbLine
 62
7
  6
CONTINUOUS
 10
319.010055222
 20
269.9089518413
 11
315.6100552218
 21
268.997924587
  0
LINE
  5
39E
100
AcDbEntity
  8
0
100
AcDbLine
 62
7
  6
CONTINUOUS
 10
315.4100590336
 20
270.2798420426
 11
318.8100590336
 21
271.1908692968
  0
LINE
  5
39F
100
AcDbEntity
  8
0
100
AcDbLine
 62
7
  6
CONTINUOUS
 10
330.3051804261
 20
271.9449629892
 11
330.3259333147
 21
271.9458317494
  0
LINE
  5
3A0
100
AcDbEntity
  8
0
100
AcDbLine
 62
7
  6
CONTINUOUS
 10
329.0259333147
 20
269.6730084806
 11
330.3259333147
 21
269.6730084806
  0
LINE
  5
3A1
100
AcDbEntity
  8
0
100
AcDbLine
 62
7
  6
CONTINUOUS
 10
323.0759310174
 20
270.6730084806
 11
329.0259333147
 21
270.6730084806
  0
LINE
  5
3A2
100
AcDbEntity
  8
0
100
AcDbLine
 62
7
  6
CONTINUOUS
 10
329.0259333147
 20
270.699189084
 11
321.0759333147
 21
270.699189084
  0
LINE
  5
3A3
100
AcDbEntity
  8
0
100
AcDbLine
 62
7
  6
CONTINUOUS
 10
330.2997527114
 20
271.3230084806
 11
321.0759333147
 21
271.3230084806
  0
LINE
  5
3A4
100
AcDbEntity
  8
0
100
AcDbLine
 62
7
  6
CONTINUOUS
 10
336.0259333147
 20
272.0230084806
 11
334.0259333147
 21
272.0230084806
  0
LINE
  5
3A5
100
AcDbEntity
  8
0
100
AcDbLine
 62
7
  6
CONTINUOUS
 10
332.4259333147
 20
272.0230084806
 11
330.5364055561
 21
272.0230084806
  0
LINE
  5
3A6
100
AcDbEntity
  8
0
100
AcDbLine
 62
7
  6
CONTINUOUS
 10
313.4654610734
 20
272.0230084806
 11
311.5759333147
 21
272.0230084806
  0
LINE
  5
3A7
100
AcDbEntity
  8
0
100
AcDbLine
 62
7
  6
CONTINUOUS
 10
307.9759333147
 20
272.0230084806
 11
309.9759333147
 21
272.0230084806
  0
LINE
  5
3A8
100
AcDbEntity
  8
0
100
AcDbLine
 62
7
  6
CONTINUOUS
 10
313.4759333147
 20
272.0230084806
 11
330.5259333147
 21
272.0230084806
  0
LINE
  5
3A9
100
AcDbEntity
  8
0
100
AcDbLine
 62
7
  6
CONTINUOUS
 10
334.0102109809
 20
272.0387308144
 11
332.4416556485
 21
272.0387308144
  0
LINE
  5
3AA
100
AcDbEntity
  8
0
100
AcDbLine
 62
7
  6
CONTINUOUS
 10
311.5602109809
 20
272.0387308144
 11
309.9916556485
 21
272.0387308144
  0
LINE
  5
3AB
100
AcDbEntity
  8
0
100
AcDbLine
 62
7
  6
CONTINUOUS
 10
307.9340070913
 20
272.064934704
 11
313.4584795792
 21
272.064934704
  0
LINE
  5
3AC
100
AcDbEntity
  8
0
100
AcDbLine
 62
7
  6
CONTINUOUS
 10
330.5433870503
 20
272.064934704
 11
336.0678595382
 21
272.064934704
  0
LINE
  5
3AD
100
AcDbEntity
  8
0
100
AcDbLine
 62
7
  6
CONTINUOUS
 10
311.5759333147
 20
193.9230084806
 11
311.4572388732
 21
193.8636657796
  0
LINE
  5
3AE
100
AcDbEntity
  8
0
100
AcDbLine
 62
7
  6
CONTINUOUS
 10
313.4584795792
 20
273.9730084806
 11
330.5433870503
 21
273.9730084806
  0
LINE
  5
3AF
100
AcDbEntity
  8
0
100
AcDbLine
 62
7
  6
CONTINUOUS
 10
307.940666864
 20
274.6880983508
 11
336.2111997655
 21
274.6880983508
  0
LINE
  5
3B0
100
AcDbEntity
  8
0
100
AcDbLine
 62
7
  6
CONTINUOUS
 10
327.0759333147
 20
274.7107899352
 11
317.0759333147
 21
274.7107899352
  0
LINE
  5
3B1
100
AcDbEntity
  8
0
100
AcDbLine
 62
7
  6
CONTINUOUS
 10
335.8822166292
 20
274.7369725326
 11
327.0759333147
 21
274.7369725326
  0
LINE
  5
3B2
100
AcDbEntity
  8
0
100
AcDbLine
 62
7
  6
CONTINUOUS
 10
317.0759333147
 20
274.7369725326
 11
308.2696500002
 21
274.7369725326
  0
LINE
  5
3B3
100
AcDbEntity
  8
0
100
AcDbLine
 62
7
  6
CONTINUOUS
 10
336.1518570645
 20
274.8067927923
 11
335.9136332018
 21
274.8067927923
  0
LINE
  5
3B4
100
AcDbEntity
  8
0
100
AcDbLine
 62
7
  6
CONTINUOUS
 10
308.000009565
 20
274.8067927923
 11
308.2382334277
 21
274.8067927923
  0
LINE
  5
3B5
100
AcDbEntity
  8
0
100
AcDbLine
 62
7
  6
CONTINUOUS
 10
307.7232605156
 20
275.1730084806
 11
336.4286061139
 21
275.1730084806
  0
LINE
  5
3B6
100
AcDbEntity
  8
0
100
AcDbLine
 62
7
  6
CONTINUOUS
 10
306.0759333147
 20
275.7230084806
 11
307.9351339637
 21
275.7230084806
  0
LINE
  5
3B7
100
AcDbEntity
  8
0
100
AcDbLine
 62
7
  6
CONTINUOUS
 10
336.2167326657
 20
275.7230084806
 11
338.0759333147
 21
275.7230084806
  0
LINE
  5
3B8
100
AcDbEntity
  8
0
100
AcDbLine
 62
7
  6
CONTINUOUS
 10
311.5759333147
 20
283.7989322304
 11
311.4572388732
 21
283.8582749314
  0
LINE
  5
3B9
100
AcDbEntity
  8
0
100
AcDbLine
 62
7
  6
CONTINUOUS
 10
334.4690731092
 20
197.9911482751
 11
334.4009333147
 21
197.9230084806
  0
LINE
  5
3BA
100
AcDbEntity
  8
0
100
AcDbLine
 62
7
  6
CONTINUOUS
 10
334.4690731092
 20
278.4911482751
 11
335.8196277562
 21
278.5417029221
  0
LINE
  5
3BB
100
AcDbEntity
  8
0
100
AcDbLine
 62
7
  6
CONTINUOUS
 10
309.6827935202
 20
279.6548686861
 11
308.3322388732
 21
279.6043140391
  0
LINE
  5
3BC
100
AcDbEntity
  8
0
100
AcDbLine
 62
7
  6
CONTINUOUS
 10
307.8324334513
 20
278.2230084806
 11
311.2759333147
 21
278.2230084806
  0
LINE
  5
3BD
100
AcDbEntity
  8
0
100
AcDbLine
 62
7
  6
CONTINUOUS
 10
332.8759333147
 20
278.2230084806
 11
336.3194328132
 21
278.2230084806
  0
LINE
  5
3BE
100
AcDbEntity
  8
0
100
AcDbLine
 62
7
  6
CONTINUOUS
 10
310.7759333147
 20
278.3230084806
 11
320.5759333147
 21
278.3230084806
  0
LINE
  5
3BF
100
AcDbEntity
  8
0
100
AcDbLine
 62
7
  6
CONTINUOUS
 10
323.5759333147
 20
278.3230084806
 11
333.3759333147
 21
278.3230084806
  0
LINE
  5
3C0
100
AcDbEntity
  8
0
100
AcDbLine
 62
7
  6
CONTINUOUS
 10
308.000009565
 20
278.4230084806
 11
309.7509333147
 21
278.4230084806
  0
LINE
  5
3C1
100
AcDbEntity
  8
0
100
AcDbLine
 62
7
  6
CONTINUOUS
 10
334.4009333147
 20
278.4230084806
 11
336.1518570645
 21
278.4230084806
  0
LINE
  5
3C2
100
AcDbEntity
  8
0
100
AcDbLine
 62
7
  6
CONTINUOUS
 10
336.2111997655
 20
278.5417029221
 11
335.8196277562
 21
278.5417029221
  0
LINE
  5
3C3
100
AcDbEntity
  8
0
100
AcDbLine
 62
7
  6
CONTINUOUS
 10
308.3322388732
 20
278.5417029221
 11
307.940666864
 21
278.5417029221
  0
LINE
  5
3C4
100
AcDbEntity
  8
0
100
AcDbLine
 62
7
  6
CONTINUOUS
 10
307.940666864
 20
279.6043140391
 11
308.3322388732
 21
279.6043140391
  0
LINE
  5
3C5
100
AcDbEntity
  8
0
100
AcDbLine
 62
7
  6
CONTINUOUS
 10
335.8196277562
 20
279.6043140391
 11
336.2111997655
 21
279.6043140391
  0
LINE
  5
3C6
100
AcDbEntity
  8
0
100
AcDbLine
 62
7
  6
CONTINUOUS
 10
335.9136332018
 20
279.7230084806
 11
334.4009333147
 21
279.7230084806
  0
LINE
  5
3C7
100
AcDbEntity
  8
0
100
AcDbLine
 62
7
  6
CONTINUOUS
 10
309.7509333147
 20
279.7230084806
 11
308.2382334277
 21
279.7230084806
  0
LINE
  5
3C8
100
AcDbEntity
  8
0
100
AcDbLine
 62
7
  6
CONTINUOUS
 10
310.7759333147
 20
279.8230084806
 11
320.5759333147
 21
279.8230084806
  0
LINE
  5
3C9
100
AcDbEntity
  8
0
100
AcDbLine
 62
7
  6
CONTINUOUS
 10
323.5759333147
 20
279.8230084806
 11
333.3759333147
 21
279.8230084806
  0
LINE
  5
3CA
100
AcDbEntity
  8
0
100
AcDbLine
 62
7
  6
CONTINUOUS
 10
336.0141299159
 20
279.8748675455
 11
335.981964247
 21
279.8748675455
  0
LINE
  5
3CB
100
AcDbEntity
  8
0
100
AcDbLine
 62
7
  6
CONTINUOUS
 10
308.1377367136
 20
279.8748675455
 11
308.1699023825
 21
279.8748675455
  0
LINE
  5
3CC
100
AcDbEntity
  8
0
100
AcDbLine
 62
7
  6
CONTINUOUS
 10
307.7784212831
 20
279.9230084806
 11
311.2759333147
 21
279.9230084806
  0
LINE
  5
3CD
100
AcDbEntity
  8
0
100
AcDbLine
 62
7
  6
CONTINUOUS
 10
332.8759333147
 20
279.9230084806
 11
336.3734463444
 21
279.9230084806
  0
LINE
  5
3CE
100
AcDbEntity
  8
0
100
AcDbLine
 62
7
  6
CONTINUOUS
 10
309.6827935202
 20
278.4911482751
 11
308.3322388732
 21
278.5417029221
  0
LINE
  5
3CF
100
AcDbEntity
  8
0
100
AcDbLine
 62
7
  6
CONTINUOUS
 10
334.4690731092
 20
279.6548686861
 11
335.8196277562
 21
279.6043140391
  0
LINE
  5
3D0
100
AcDbEntity
  8
0
100
AcDbLine
 62
7
  6
CONTINUOUS
 10
334.4009333147
 20
279.7230084806
 11
334.4690731092
 21
279.6548686861
  0
LINE
  5
3D1
100
AcDbEntity
  8
0
100
AcDbLine
 62
7
  6
CONTINUOUS
 10
329.7259333147
 20
286.1230084806
 11
329.6072388732
 21
286.2417029221
  0
LINE
  5
3D2
100
AcDbEntity
  8
0
100
AcDbLine
 62
7
  6
CONTINUOUS
 10
329.7259333147
 20
190.0230084806
 11
329.6328670971
 21
189.929942263
  0
LINE
  5
3D3
100
AcDbEntity
  8
0
100
AcDbLine
 62
7
  6
CONTINUOUS
 10
307.7889660898
 20
282.9730084806
 11
336.3629005396
 21
282.9730084806
  0
LINE
  5
3D4
100
AcDbEntity
  8
0
100
AcDbLine
 62
7
  6
CONTINUOUS
 10
329.7259333147
 20
283.7989322304
 11
329.6072388732
 21
283.8582749314
  0
LINE
  5
3D5
100
AcDbEntity
  8
0
100
AcDbLine
 62
7
  6
CONTINUOUS
 10
329.7259333147
 20
193.9230084806
 11
329.6072388732
 21
193.8636657796
  0
LINE
  5
3D6
100
AcDbEntity
  8
0
100
AcDbLine
 62
7
  6
CONTINUOUS
 10
308.0759333147
 20
283.7230084806
 11
317.0759333147
 21
283.7230084806
  0
LINE
  5
3D7
100
AcDbEntity
  8
0
100
AcDbLine
 62
7
  6
CONTINUOUS
 10
327.0759333147
 20
283.7230084806
 11
336.0759333147
 21
283.7230084806
  0
LINE
  5
3D8
100
AcDbEntity
  8
0
100
AcDbLine
 62
7
  6
CONTINUOUS
 10
314.0759333147
 20
283.7989322304
 11
311.5759333147
 21
283.7989322304
  0
LINE
  5
3D9
100
AcDbEntity
  8
0
100
AcDbLine
 62
7
  6
CONTINUOUS
 10
329.7259333147
 20
283.7989322304
 11
332.7259333147
 21
283.7989322304
  0
LINE
  5
3DA
100
AcDbEntity
  8
0
100
AcDbLine
 62
7
  6
CONTINUOUS
 10
336.2111997655
 20
283.8582749314
 11
332.8446277562
 21
283.8582749314
  0
LINE
  5
3DB
100
AcDbEntity
  8
0
100
AcDbLine
 62
7
  6
CONTINUOUS
 10
329.6072388732
 20
283.8582749314
 11
323.0759333147
 21
283.8582749314
  0
LINE
  5
3DC
100
AcDbEntity
  8
0
100
AcDbLine
 62
7
  6
CONTINUOUS
 10
321.0759333147
 20
283.8582749314
 11
314.1946277562
 21
283.8582749314
  0
LINE
  5
3DD
100
AcDbEntity
  8
0
100
AcDbLine
 62
7
  6
CONTINUOUS
 10
311.4572388732
 20
283.8582749314
 11
307.940666864
 21
283.8582749314
  0
LINE
  5
3DE
100
AcDbEntity
  8
0
100
AcDbLine
 62
7
  6
CONTINUOUS
 10
311.5759333147
 20
286.1230084806
 11
314.0759333147
 21
286.1230084806
  0
LINE
  5
3DF
100
AcDbEntity
  8
0
100
AcDbLine
 62
7
  6
CONTINUOUS
 10
329.7259333147
 20
286.1230084806
 11
332.7259333147
 21
286.1230084806
  0
LINE
  5
3E0
100
AcDbEntity
  8
0
100
AcDbLine
 62
7
  6
CONTINUOUS
 10
311.4572388732
 20
286.2417029221
 11
314.1946277562
 21
286.2417029221
  0
LINE
  5
3E1
100
AcDbEntity
  8
0
100
AcDbLine
 62
7
  6
CONTINUOUS
 10
329.6072388732
 20
286.2417029221
 11
332.8446277562
 21
286.2417029221
  0
LINE
  5
3E2
100
AcDbEntity
  8
0
100
AcDbLine
 62
7
  6
CONTINUOUS
 10
326.0759333147
 20
291.6730084806
 11
332.311316222
 21
288.0730084806
  0
LINE
  5
3E3
100
AcDbEntity
  8
0
100
AcDbLine
 62
7
  6
CONTINUOUS
 10
336.2167247328
 20
288.0730056909
 11
336.7242900672
 21
287.5730084806
  0
LINE
  5
3E4
100
AcDbEntity
  8
0
100
AcDbLine
 62
7
  6
CONTINUOUS
 10
306.0759333147
 20
287.5730084806
 11
307.4275765623
 21
287.5730084806
  0
LINE
  5
3E5
100
AcDbEntity
  8
0
100
AcDbLine
 62
7
  6
CONTINUOUS
 10
336.7242900672
 20
287.5730084806
 11
338.0759333147
 21
287.5730084806
  0
LINE
  5
3E6
100
AcDbEntity
  8
0
100
AcDbLine
 62
7
  6
CONTINUOUS
 10
338.0759333147
 20
288.0730084806
 11
336.2167297524
 21
288.0730084806
  0
LINE
  5
3E7
100
AcDbEntity
  8
0
100
AcDbLine
 62
7
  6
CONTINUOUS
 10
336.2111997655
 20
288.0730084806
 11
332.311316222
 21
288.0730084806
  0
LINE
  5
3E8
100
AcDbEntity
  8
0
100
AcDbLine
 62
7
  6
CONTINUOUS
 10
311.8405504075
 20
288.0730084806
 11
307.940666864
 21
288.0730084806
  0
LINE
  5
3E9
100
AcDbEntity
  8
0
100
AcDbLine
 62
7
  6
CONTINUOUS
 10
307.9351368771
 20
288.0730084806
 11
306.0759333147
 21
288.0730084806
  0
LINE
  5
3EA
100
AcDbEntity
  8
0
100
AcDbLine
 62
7
  6
CONTINUOUS
 10
318.0759333147
 20
291.6730084806
 11
320.0759333147
 21
291.6730084806
  0
LINE
  5
3EB
100
AcDbEntity
  8
0
100
AcDbLine
 62
7
  6
CONTINUOUS
 10
324.0759333147
 20
291.6730084806
 11
326.0759333147
 21
291.6730084806
  0
ARC
  5
3EC
100
AcDbEntity
  8
0
100
AcDbCircle
 62
7
  6
CONTINUOUS
 10
319.2759333147
 20
269.4522028095
 40
1.8
100
AcDbArc
 50
0.0
 51
104.9999999993
  0
ARC
  5
3ED
100
AcDbEntity
  8
0
100
AcDbCircle
 62
7
  6
CONTINUOUS
 10
315.8759333147
 20
268.5411755552
 40
1.8
100
AcDbArc
 50
104.9999999988
 51
180.0
  0
ARC
  5
3EE
100
AcDbEntity
  8
0
100
AcDbCircle
 62
7
  6
CONTINUOUS
 10
315.8759333147
 20
241.494841406
 40
1.8
100
AcDbArc
 50
180.0
 51
255.0000000029
  0
ARC
  5
3EF
100
AcDbEntity
  8
0
100
AcDbCircle
 62
7
  6
CONTINUOUS
 10
319.2759333147
 20
240.5838141517
 40
1.8
100
AcDbArc
 50
255.0000000009
 51
360.0
  0
ARC
  5
3F0
100
AcDbEntity
  8
0
100
AcDbCircle
 62
7
  6
CONTINUOUS
 10
319.2559333147
 20
241.044694655
 40
0.95
100
AcDbArc
 50
255.0000000029
 51
359.9999999997
  0
ARC
  5
3F1
100
AcDbEntity
  8
0
100
AcDbCircle
 62
7
  6
CONTINUOUS
 10
315.8559333147
 20
241.9557219092
 40
0.95
100
AcDbArc
 50
180.0
 51
255.0000000004
  0
ARC
  5
3F2
100
AcDbEntity
  8
0
100
AcDbCircle
 62
7
  6
CONTINUOUS
 10
315.8559333147
 20
268.080295052
 40
0.95
100
AcDbArc
 50
105.0000000029
 51
180.0000000017
  0
ARC
  5
3F3
100
AcDbEntity
  8
0
100
AcDbCircle
 62
7
  6
CONTINUOUS
 10
319.2559333147
 20
268.9913223063
 40
0.95
100
AcDbArc
 50
0.0
 51
104.9999999932
  0
CIRCLE
  5
3F4
100
AcDbEntity
  8
0
100
AcDbCircle
 62
7
  6
CONTINUOUS
 10
319.0759333147
 20
198.5730084806
 40
0.6
  0
CIRCLE
  5
3F5
100
AcDbEntity
  8
0
100
AcDbCircle
 62
7
  6
CONTINUOUS
 10
319.0759333147
 20
279.0730084806
 40
0.6
  0
CIRCLE
  5
3F6
100
AcDbEntity
  8
0
100
AcDbCircle
 62
7
  6
CONTINUOUS
 10
319.0759333147
 20
198.5730084806
 40
0.5037624701
  0
CIRCLE
  5
3F7
100
AcDbEntity
  8
0
100
AcDbCircle
 62
7
  6
CONTINUOUS
 10
319.0759333147
 20
279.0730084806
 40
0.5037624701
  0
CIRCLE
  5
3F8
100
AcDbEntity
  8
0
100
AcDbCircle
 62
7
  6
CONTINUOUS
 10
322.0759333147
 20
229.0730084806
 40
5.0
  0
ARC
  5
3F9
100
AcDbEntity
  8
0
100
AcDbCircle
 62
7
  6
CONTINUOUS
 10
322.0759333147
 20
286.8230084806
 40
3.75
100
AcDbArc
 50
63.680379925
 51
116.3186009386
  0
CIRCLE
  5
3FA
100
AcDbEntity
  8
0
100
AcDbCircle
 62
7
  6
CONTINUOUS
 10
322.0759333147
 20
210.1230084806
 40
3.0
  0
CIRCLE
  5
3FB
100
AcDbEntity
  8
0
100
AcDbCircle
 62
7
  6
CONTINUOUS
 10
322.0759333147
 20
286.8230084806
 40
1.75
  0
ARC
  5
3FC
100
AcDbEntity
  8
0
100
AcDbCircle
 62
7
  6
CONTINUOUS
 10
322.0759333147
 20
287.8430084806
 40
1.53
100
AcDbArc
 50
0.0
 51
36.8074385379
  0
ARC
  5
3FD
100
AcDbEntity
  8
0
100
AcDbCircle
 62
7
  6
CONTINUOUS
 10
322.0759333147
 20
287.8430084806
 40
1.53
100
AcDbArc
 50
143.1925614619
 51
180.0000000001
  0
ARC
  5
3FE
100
AcDbEntity
  8
0
100
AcDbCircle
 62
7
  6
CONTINUOUS
 10
322.0759333147
 20
285.9030084806
 40
1.53
100
AcDbArc
 50
184.493379843
 51
355.5066201569
  0
CIRCLE
  5
3FF
100
AcDbEntity
  8
0
100
AcDbCircle
 62
7
  6
CONTINUOUS
 10
322.0759333147
 20
286.8230084806
 40
1.45
  0
CIRCLE
  5
400
100
AcDbEntity
  8
0
100
AcDbCircle
 62
7
  6
CONTINUOUS
 10
322.0759333147
 20
286.8230084806
 40
0.6
  0
CIRCLE
  5
401
100
AcDbEntity
  8
0
100
AcDbCircle
 62
7
  6
CONTINUOUS
 10
325.0759333147
 20
198.5730084806
 40
0.6
  0
CIRCLE
  5
402
100
AcDbEntity
  8
0
100
AcDbCircle
 62
7
  6
CONTINUOUS
 10
325.0759333147
 20
279.0730084806
 40
0.6
  0
CIRCLE
  5
403
100
AcDbEntity
  8
0
100
AcDbCircle
 62
7
  6
CONTINUOUS
 10
325.0759333147
 20
198.5730084806
 40
0.5037624701
  0
CIRCLE
  5
404
100
AcDbEntity
  8
0
100
AcDbCircle
 62
7
  6
CONTINUOUS
 10
325.0759333147
 20
279.0730084806
 40
0.5037624701
  0
CIRCLE
  5
405
100
AcDbEntity
  8
0
100
AcDbCircle
 62
7
  6
CONTINUOUS
 10
322.0759333147
 20
286.8230084806
 40
0.4
  0
ARC
  5
406
100
AcDbEntity
  8
0
100
AcDbCircle
 62
7
  6
CONTINUOUS
 10
322.0759333147
 20
468.7730084806
 40
197.0
100
AcDbArc
 50
269.7091082129
 51
272.3941033587
  0
ARC
  5
407
100
AcDbEntity
  8
0
100
AcDbCircle
 62
7
  6
CONTINUOUS
 10
322.0759333147
 20
468.7730084806
 40
197.0
100
AcDbArc
 50
267.4971872563
 51
267.5270773182
  0
ARC
  5
408
100
AcDbEntity
  8
0
100
AcDbCircle
 62
7
  6
CONTINUOUS
 10
322.0759333147
 20
468.7730084806
 40
197.0
100
AcDbArc
 50
272.4001444467
 51
272.4592356655
  0
ARC
  5
409
100
AcDbEntity
  8
0
100
AcDbCircle
 62
7
  6
CONTINUOUS
 10
322.0759333147
 20
466.9230084806
 40
195.0
100
AcDbArc
 50
269.7061094338
 51
271.6751230664
  0
SPLINE
  5
40A
100
AcDbEntity
  8
0
100
AcDbSpline
 62
7
  6
CONTINUOUS
 70
0
 71
3
 72
35
 73
31
 74
0
 42
0.0000001
 43
0.0000001
 44
0.0000000001
 40
0.0
 40
0.0
 40
0.0
 40
0.0
 40
0.0006420611
 40
0.0024651258
 40
0.0054789696
 40
0.0096772242
 40
0.021593381
 40
0.0381308099
 40
0.0591143551
 40
0.0843286328
 40
0.1135534495
 40
0.1465041492
 40
0.2222475113
 40
0.3086770266
 40
0.4024554027
 40
0.4999835753
 40
0.5975121633
 40
0.6912914503
 40
0.7777264979
 40
0.8534772963
 40
0.8864331058
 40
0.9156611679
 40
0.9408789259
 40
0.9618657944
 40
0.9784051345
 40
0.9903221796
 40
0.9945207135
 40
0.9975347422
 40
0.999357909
 40
1.0
 40
1.0
 40
1.0
 40
1.0
 10
321.0759356122
 20
270.6730084806
 30
0.0
 10
321.0759356122
 20
270.6734365949
 30
0.0
 10
321.0784186836
 20
270.6733868077
 30
0.0
 10
321.0812462477
 20
270.67408536
 30
0.0
 10
321.0877097392
 20
270.6742961648
 30
0.0
 10
321.1001773724
 20
270.6750243126
 30
0.0
 10
321.1221396853
 20
270.6756404595
 30
0.0
 10
321.1549984277
 20
270.6764566982
 30
0.0
 10
321.1968593232
 20
270.6771921916
 30
0.0
 10
321.2471316454
 20
270.677917675
 30
0.0
 10
321.3054019741
 20
270.6785919348
 30
0.0
 10
321.3973578076
 20
270.6794679831
 30
0.0
 10
321.527460647
 20
270.6803698075
 30
0.0
 10
321.6981220918
 20
270.6811475082
 30
0.0
 10
321.8833108884
 20
270.6816273436
 30
0.0
 10
322.075900734
 20
270.6817903716
 30
0.0
 10
322.2684911872
 20
270.6816274882
 30
0.0
 10
322.4536845569
 20
270.6811476691
 30
0.0
 10
322.6243552573
 20
270.6803701585
 30
0.0
 10
322.7544701507
 20
270.6794682388
 30
0.0
 10
322.8464365146
 20
270.678592268
 30
0.0
 10
322.9047147355
 20
270.6779179327
 30
0.0
 10
322.9549937554
 20
270.6771923875
 30
0.0
 10
322.9968604695
 20
270.6764568629
 30
0.0
 10
323.029723279
 20
270.6756405446
 30
0.0
 10
323.0516876662
 20
270.6750243535
 30
0.0
 10
323.0641561766
 20
270.6742961687
 30
0.0
 10
323.0706200826
 20
270.6740853836
 30
0.0
 10
323.0734477986
 20
270.6733867826
 30
0.0
 10
323.0759310174
 20
270.6734366149
 30
0.0
 10
323.0759310174
 20
270.6730084806
 30
0.0
  0
ELLIPSE
  5
40B
100
AcDbEntity
  8
0
100
AcDbEllipse
 62
7
  6
CONTINUOUS
 10
337.6372888726
 20
271.9230084806
 30
0.0
 11
-0.0
 21
96.4
 31
0.0
 40
0.0174550649
 41
1.4480779692
 42
1.4559008237
  0
ELLIPSE
  5
40C
100
AcDbEntity
  8
0
100
AcDbEllipse
 62
7
  6
CONTINUOUS
 10
306.5145777569
 20
271.9230084806
 30
0.0
 11
0.0
 21
96.4
 31
0.0
 40
0.0174550649
 41
-1.4559008237
 42
-1.4480779692
  0
ELLIPSE
  5
40D
100
AcDbEntity
  8
0
100
AcDbEllipse
 62
7
  6
CONTINUOUS
 10
308.1122271799
 20
195.2730084806
 30
0.0
 11
0.0
 21
8.0
 31
0.0
 40
0.0087268678
 41
-0.0000000331
 42
0.6405940421
  0
ELLIPSE
  5
40E
100
AcDbEntity
  8
0
100
AcDbEllipse
 62
7
  6
CONTINUOUS
 10
336.0396394496
 20
195.2730084806
 30
0.0
 11
0.0
 21
8.0
 31
0.0
 40
0.0087268678
 41
-0.6405940421
 42
-0.0
  0
ENDSEC
  0
SECTION
  2
OBJECTS
  0
DICTIONARY
  5
C
100
AcDbDictionary
280
0
281
1
  3
ACAD_GROUP
350
D
  3
ACAD_MLINESTYLE
350
17
  3
ACAD_LAYOUT
350
1A
  3
ACAD_PLOTSETTINGS
350
19
  3
ACAD_PLOTSTYLENAME
350
E
  0
DICTIONARY
  5
D
102
{ACAD_REACTORS
330
C
102
}
100
AcDbDictionary
280
0
281
1
  0
ACDBDICTIONARYWDFLT
  5
E
102
{ACAD_REACTORS
330
C
102
}
100
AcDbDictionary
281
1
  3
Normal
350
F
100
AcDbDictionaryWithDefault
340
F
  0
DICTIONARY
  5
17
102
{ACAD_REACTORS
330
C
102
}
100
AcDbDictionary
280
0
281
1
  3
Standard
350
18
  0
DICTIONARY
  5
19
102
{ACAD_REACTORS
330
C
102
}
100
AcDbDictionary
281
1
  0
DICTIONARY
  5
1A
102
{ACAD_REACTORS
330
C
102
}
100
AcDbDictionary
281
1
  3
Model
350
40F
  3
Layout1
350
410
  0
ACDBPLACEHOLDER
  5
F
102
{ACAD_REACTORS
330
E
102
}
  0
MLINESTYLE
  5
18
102
{ACAD_REACTORS
330
17
102
}
100
AcDbMlineStyle
  2
STANDARD
 70
0
  3

 62
256
 51
90.0
 52
90.0
 71
2
 49
0.5
 62
256
  6
BYLAYER
 49
-0.5
 62
256
  6
BYLAYER
  0
LAYOUT
  5
40F
102
{ACAD_REACTORS
330
1A
102
}
100
AcDbPlotSettings
  1

  2
none_device
  4
ANSI_C_(22.00_x_17.00_Inches)
  6

 40
0.0
 41
0.0
 42
0.0
 43
0.0
 44
558.8
 45
431.8
 46
0.0
 47
0.0
 48
0.0
 49
0.0
140
0.0
141
0.0
142
1.0
143
1.0
 70
1024
 72
1
 73
0
 74
0
  7

 75
0
147
1.0
148
0.0
149
0.0
100
AcDbLayout
  1
Model
 70
0
 71
0
 10
0.0
 20
0.0
 11
558.8
 21
431.8
 12
0.0
 22
0.0
 32
0.0
 14
0.0
 24
0.0
 34
0.0
 15
0.0
 25
0.0
 35
0.0
146
0.0
 13
0.0
 23
0.0
 33
0.0
 16
1.0
 26
0.0
 36
0.0
 17
0.0
 27
1.0
 37
0.0
 76
0
330
216
345
0
346
0
  0
LAYOUT
  5
410
102
{ACAD_REACTORS
330
1A
102
}
100
AcDbPlotSettings
  1

  2
none_device
  4
ANSI_C_(22.00_x_17.00_Inches)
  6

 40
0.0
 41
0.0
 42
0.0
 43
0.0
 44
558.8
 45
431.8
 46
0.0
 47
0.0
 48
0.0
 49
0.0
140
0.0
141
0.0
142
1.0
143
1.0
 70
0
 72
1
 73
0
 74
0
  7

 75
0
147
1.0
148
0.0
149
0.0
100
AcDbLayout
  1
Layout1
 70
0
 71
1
 10
0.0
 20
0.0
 11
558.8
 21
431.8
 12
0.0
 22
0.0
 32
0.0
 14
0.0
 24
0.0
 34
0.0
 15
0.0
 25
0.0
 35
0.0
146
0.0
 13
0.0
 23
0.0
 33
0.0
 16
1.0
 26
0.0
 36
0.0
 17
0.0
 27
1.0
 37
0.0
 76
0
330
217
345
0
346
0
  0
ENDSEC
  0
EOF
