999
DXF file: C:\Users\sesa63760\OneDrive - Schneider Electric\Documents\7-Dev\_Creo\CAD\MCADPP0000153_3D-CAD\drw0001_7.dxf
999
Pro/ENGINEER 2019471 by Parametric Technology Corporation
  0
SECTION
  2
HEADER
  9
$ACADVER
  1
AC1024
  9
$DWGCODEPAGE
  3
ANSI_1252
  9
$EXTMAX
 10
91.0125323254
 20
128.7177242888
 30
0.0
  9
$EXTMIN
 10
0.0
 20
0.0
 30
0.0
  9
$LIMMIN
 10
0.0
 20
0.0
  9
$LIMMAX
 10
91.0125323254
 20
128.7177242888
  9
$VIEWCTR
 10
45.5062661627
 20
64.3588621444
  9
$VIEWSIZE
 40
128.7177242888
  9
$CLAYER
  8
0
  9
$LTSCALE
 40
8.3904886944
  9
$CELTYPE
  6
BYLAYER
  9
$DIMSCALE
 40
1.0
  9
$DIMASZ
 40
1.0834825277
  9
$DIMEXO
 40
1.0
  9
$DIMDLI
 40
5.7970649161
  9
$DIMEXE
 40
1.0
  9
$DIMCEN
 40
1.3729890591
  9
$DIMLFAC
 40
1.0
  9
$DIMBLK
  1
_FILLED
  9
$DIMALT
 70
0
  9
$DIMALTF
 40
0.0393700787
  9
$DIMTXT
 40
1.5168755388
  9
$DIMTOL
 70
1
  9
$DIMLIM
 70
0
  9
$DIMTFAC
 40
1.0
  9
$DIMTP
 40
0.01
  9
$DIMTM
 40
0.01
  9
$DIMGAP
 40
0.625
  9
$DIMDSEP
 70
46
  9
$AUNITS
 70
0
  9
$PDMODE
 70
3
  9
$PDSIZE
 40
0.3125
  9
$HANDSEED
  5
253
  9
$TILEMODE
 70
1
  9
$MEASUREMENT
 70
1
  9
$INSUNITS
 70
4
  0
ENDSEC
  0
SECTION
  2
CLASSES
  0
CLASS
  1
ACDBDICTIONARYWDFLT
  2
AcDbDictionaryWithDefault
  3
AutoCAD 2000
 90
0
 91
1
280
0
281
0
  0
CLASS
  1
ACDBPLACEHOLDER
  2
AcDbPlaceHolder
  3
AutoCAD 2000
 90
0
 91
1
280
0
281
0
  0
CLASS
  1
LAYOUT
  2
AcDbLayout
  3
AutoCAD 2000
 90
0
 91
0
280
0
281
0
  0
ENDSEC
  0
SECTION
  2
TABLES
  0
TABLE
  2
VPORT
  5
8
100
AcDbSymbolTable
 70
2
  0
VPORT
  5
1F4
100
AcDbSymbolTableRecord
100
AcDbViewportTableRecord
  2
*ACTIVE
 70
0
 10
0.0
 20
0.0
 11
1.0
 21
1.0
 12
45.5062661627
 22
64.3588621444
 13
0.0
 23
0.0
 14
1.0
 24
1.0
 15
0.0
 25
0.0
 16
0.0
 26
0.0
 36
1.0
 17
0.0
 27
0.0
 37
0.0
 40
128.7177242888
 41
0.7070707071
 42
50.0
 43
0.0
 44
0.0
 50
0.0
 51
0.0
 71
0
 72
100
 73
1
 74
1
 75
0
 76
0
 77
0
 78
0
  0
ENDTAB
  0
TABLE
  2
LTYPE
  5
5
100
AcDbSymbolTable
 70
6
  0
LTYPE
  5
14
100
AcDbSymbolTableRecord
100
AcDbLinetypeTableRecord
  2
BYBLOCK
 70
0
  3

 72
65
 73
0
 40
0.0
  0
LTYPE
  5
15
100
AcDbSymbolTableRecord
100
AcDbLinetypeTableRecord
  2
BYLAYER
 70
0
  3

 72
65
 73
0
 40
0.0
  0
LTYPE
  5
16
100
AcDbSymbolTableRecord
100
AcDbLinetypeTableRecord
  2
CONTINUOUS
 70
64
  3
Solid line
 72
65
 73
0
 40
0.0
  0
LTYPE
  5
1F5
100
AcDbSymbolTableRecord
100
AcDbLinetypeTableRecord
  2
CENTER
 70
64
  3
____ _ ____ _ ____ _ ____ _ ____ _ ____ _ ____
 72
65
 73
4
 40
0.6
 49
0.375
 74
0
 49
-0.075
 74
0
 49
0.075
 74
0
 49
-0.075
 74
0
  0
LTYPE
  5
1F6
100
AcDbSymbolTableRecord
100
AcDbLinetypeTableRecord
  2
HIDDEN
 70
64
  3
- - - - - - - - - - - - - - - - - - - -
 72
65
 73
2
 40
0.2
 49
0.1
 74
0
 49
-0.1
 74
0
  0
LTYPE
  5
1F7
100
AcDbSymbolTableRecord
100
AcDbLinetypeTableRecord
  2
PHANTOM
 70
64
  3
_____ _ _ _____ _ _ _____ _ _ _____
 72
65
 73
6
 40
0.8
 49
0.45
 74
0
 49
-0.05
 74
0
 49
0.1
 74
0
 49
-0.05
 74
0
 49
0.1
 74
0
 49
-0.05
 74
0
  0
LTYPE
  5
1F8
100
AcDbSymbolTableRecord
100
AcDbLinetypeTableRecord
  2
DOT
 70
64
  3
. . . . . . . . . . . . . . . . . . . .
 72
65
 73
2
 40
0.2
 49
0.1
 74
0
 49
-0.1
 74
0
  0
LTYPE
  5
1F9
100
AcDbSymbolTableRecord
100
AcDbLinetypeTableRecord
  2
DASHED
 70
64
  3
- - - - - - - - - - - - - - - - - - - -
 72
65
 73
2
 40
0.2
 49
0.1
 74
0
 49
-0.1
 74
0
  0
ENDTAB
  0
TABLE
  2
LAYER
  5
2
100
AcDbSymbolTable
 70
36
  0
LAYER
  5
10
100
AcDbSymbolTableRecord
100
AcDbLayerTableRecord
  2
0
 70
0
 62
7
  6
CONTINUOUS
370
-3
390
F
  0
LAYER
  5
1FA
100
AcDbSymbolTableRecord
100
AcDbLayerTableRecord
  2
DEFAULT_1
 70
0
 62
7
  6
CENTER
370
-3
390
F
  0
LAYER
  5
1FB
100
AcDbSymbolTableRecord
100
AcDbLayerTableRecord
  2
DEFAULT_2
 70
0
 62
8
  6
HIDDEN
370
-3
390
F
  0
LAYER
  5
1FC
100
AcDbSymbolTableRecord
100
AcDbLayerTableRecord
  2
DEFAULT_3
 70
0
 62
7
  6
PHANTOM
370
-3
390
F
  0
LAYER
  5
1FD
100
AcDbSymbolTableRecord
100
AcDbLayerTableRecord
  2
00_COMPONENTS
 70
0
 62
7
  6
CONTINUOUS
370
-3
390
F
  0
LAYER
  5
1FE
100
AcDbSymbolTableRecord
100
AcDbLayerTableRecord
  2
01_1_DEFAULT_DATUMS
 70
0
 62
7
  6
CONTINUOUS
370
-3
390
F
  0
LAYER
  5
1FF
100
AcDbSymbolTableRecord
100
AcDbLayerTableRecord
  2
01_PLANES
 70
0
 62
7
  6
CONTINUOUS
370
-3
390
F
  0
LAYER
  5
200
100
AcDbSymbolTableRecord
100
AcDbLayerTableRecord
  2
02_COORD_SYS
 70
0
 62
7
  6
CONTINUOUS
370
-3
390
F
  0
LAYER
  5
201
100
AcDbSymbolTableRecord
100
AcDbLayerTableRecord
  2
03_AXES
 70
0
 62
7
  6
CONTINUOUS
370
-3
390
F
  0
LAYER
  5
202
100
AcDbSymbolTableRecord
100
AcDbLayerTableRecord
  2
04_POINTS
 70
0
 62
7
  6
CONTINUOUS
370
-3
390
F
  0
LAYER
  5
203
100
AcDbSymbolTableRecord
100
AcDbLayerTableRecord
  2
05_CURVES
 70
0
 62
7
  6
CONTINUOUS
370
-3
390
F
  0
LAYER
  5
204
100
AcDbSymbolTableRecord
100
AcDbLayerTableRecord
  2
06_SURFS
 70
0
 62
7
  6
CONTINUOUS
370
-3
390
F
  0
LAYER
  5
205
100
AcDbSymbolTableRecord
100
AcDbLayerTableRecord
  2
07_COSMETICS
 70
0
 62
7
  6
CONTINUOUS
370
-3
390
F
  0
LAYER
  5
206
100
AcDbSymbolTableRecord
100
AcDbLayerTableRecord
  2
10_NOTES
 70
0
 62
7
  6
CONTINUOUS
370
-3
390
F
  0
LAYER
  5
207
100
AcDbSymbolTableRecord
100
AcDbLayerTableRecord
  2
11_NOTES_PUB
 70
0
 62
7
  6
CONTINUOUS
370
-3
390
F
  0
LAYER
  5
208
100
AcDbSymbolTableRecord
100
AcDbLayerTableRecord
  2
13_REF_GTOL
 70
0
 62
7
  6
CONTINUOUS
370
-3
390
F
  0
LAYER
  5
209
100
AcDbSymbolTableRecord
100
AcDbLayerTableRecord
  2
16_MISC
 70
0
 62
7
  6
CONTINUOUS
370
-3
390
F
  0
LAYER
  5
20A
100
AcDbSymbolTableRecord
100
AcDbLayerTableRecord
  2
17_NO_PRINT
 70
0
 62
7
  6
CONTINUOUS
370
-3
390
F
  0
LAYER
  5
20B
100
AcDbSymbolTableRecord
100
AcDbLayerTableRecord
  2
18_DATUM_CAMS_JOINTS
 70
0
 62
7
  6
CONTINUOUS
370
-3
390
F
  0
LAYER
  5
20C
100
AcDbSymbolTableRecord
100
AcDbLayerTableRecord
  2
19_DATUM_FUNCTIONAL
 70
0
 62
7
  6
CONTINUOUS
370
-3
390
F
  0
LAYER
  5
20D
100
AcDbSymbolTableRecord
100
AcDbLayerTableRecord
  2
20_DATUM_KINEMATIC_SCHEME
 70
0
 62
7
  6
CONTINUOUS
370
-3
390
F
  0
ENDTAB
  0
TABLE
  2
STYLE
  5
3
100
AcDbSymbolTable
 70
1
  0
STYLE
  5
11
100
AcDbSymbolTableRecord
100
AcDbTextStyleTableRecord
  2
STANDARD
 70
0
 40
0.0
 41
0.8
 50
0.0
 71
0
 42
0.2
  3
txt
  4

  0
STYLE
  5
20E
100
AcDbSymbolTableRecord
100
AcDbTextStyleTableRecord
  2
TEXTSTYLE_1
 70
0
 40
0.0
 41
0.8
 50
0.0
 71
0
 42
0.2
  3
gdt
  4

  0
ENDTAB
  0
TABLE
  2
VIEW
  5
6
100
AcDbSymbolTable
 70
0
  0
ENDTAB
  0
TABLE
  2
UCS
  5
7
100
AcDbSymbolTable
 70
0
  0
ENDTAB
  0
TABLE
  2
APPID
  5
9
100
AcDbSymbolTable
 70
1
  0
APPID
  5
20F
100
AcDbSymbolTableRecord
100
AcDbRegAppTableRecord
  2
ACAD
 70
0
  0
ENDTAB
  0
TABLE
  2
BLOCK_RECORD
  5
1
100
AcDbSymbolTable
 70
0
  0
BLOCK_RECORD
  5
210
100
AcDbSymbolTableRecord
100
AcDbBlockTableRecord
  2
*Model_Space
  0
BLOCK_RECORD
  5
211
100
AcDbSymbolTableRecord
100
AcDbBlockTableRecord
  2
*Paper_Space
  0
BLOCK_RECORD
  5
212
100
AcDbSymbolTableRecord
100
AcDbBlockTableRecord
  2
_FILLED
  0
ENDTAB
  0
TABLE
  2
DIMSTYLE
  5
A
100
AcDbSymbolTable
 70
1
100
AcDbDimStyleTable
 71
0
  0
DIMSTYLE
105
213
100
AcDbSymbolTableRecord
100
AcDbDimStyleTableRecord
  2
STANDARD
 70
0
  3

  4

 40
1.0
 41
1.0834825277
 42
1.0
 43
0.38
 44
1.0
 45
0.0
 46
0.0
 47
0.01
 48
0.01
140
1.5168755388
141
0.09
142
0.0
143
25.4
144
1.0
145
0.0
146
1.0
147
0.625
 71
1
 72
0
 73
0
 74
0
 75
0
 76
0
 77
1
 78
8
 79
2
170
0
171
1
172
0
173
0
174
0
175
0
176
0
177
0
178
0
270
2
179
2
271
2
272
2
273
2
274
2
275
0
280
0
281
0
282
0
283
1
284
8
285
0
286
0
287
3
288
0
340
11
278
46
341
212
342
212
343
212
344
212
  0
ENDTAB
  0
ENDSEC
  0
SECTION
  2
BLOCKS
  0
BLOCK
  5
20
100
AcDbEntity
  8
0
100
AcDbBlockBegin
  2
*Model_Space
 70
0
 10
0.0
 20
0.0
 30
0.0
  3
*Model_Space
  1

  0
ENDBLK
  5
21
100
AcDbEntity
  8
0
100
AcDbBlockEnd
  0
BLOCK
  5
1C
100
AcDbEntity
  8
0
100
AcDbBlockBegin
  2
*Paper_Space
 70
0
 10
0.0
 20
0.0
 30
0.0
  3
*Paper_Space
  1

  0
ENDBLK
  5
1D
100
AcDbEntity
  8
0
100
AcDbBlockEnd
  0
BLOCK
  5
214
100
AcDbEntity
  8
0
100
AcDbBlockBegin
  2
_FILLED
 70
64
 10
0.0
 20
0.0
  3
_FILLED
  1

  0
SOLID
  5
215
100
AcDbEntity
  8
0
  6
BYBLOCK
 62
0
100
AcDbTrace
 10
0.0
 20
0.0
 11
-1.0
 21
0.25
 12
-1.0
 22
-0.25
 13
-1.0
 23
-0.25
  0
ENDBLK
  5
216
100
AcDbEntity
  8
0
  6
BYBLOCK
 62
0
100
AcDbBlockEnd
  0
ENDSEC
  0
SECTION
  2
ENTITIES
  0
LINE
  5
217
100
AcDbEntity
  8
0
100
AcDbLine
 62
7
  6
CONTINUOUS
 10
9.6638153969
 20
84.4519932645
 11
9.6638153969
 21
86.2519932645
  0
LINE
  5
218
100
AcDbEntity
  8
0
100
AcDbLine
 62
7
  6
CONTINUOUS
 10
15.4638153969
 20
87.2519932645
 11
15.4638153969
 21
86.2519932645
  0
LINE
  5
219
100
AcDbEntity
  8
0
100
AcDbLine
 62
7
  6
CONTINUOUS
 10
15.4638153969
 20
83.4519932645
 11
15.4638153969
 21
84.4519932645
  0
LINE
  5
21A
100
AcDbEntity
  8
0
100
AcDbLine
 62
7
  6
CONTINUOUS
 10
25.5317645893
 20
87.2519932645
 11
25.5317645893
 21
86.2519932645
  0
LINE
  5
21B
100
AcDbEntity
  8
0
100
AcDbLine
 62
7
  6
CONTINUOUS
 10
25.5317645893
 20
84.4519932645
 11
25.5317645893
 21
83.4519932645
  0
LINE
  5
21C
100
AcDbEntity
  8
0
100
AcDbLine
 62
7
  6
CONTINUOUS
 10
23.0870002608
 20
46.2809292202
 11
39.2386343918
 21
45.2618137003
  0
LINE
  5
21D
100
AcDbEntity
  8
0
100
AcDbLine
 62
7
  6
CONTINUOUS
 10
42.1804358161
 20
43.5732817469
 11
65.5934461823
 21
42.0959279609
  0
LWPOLYLINE
  5
21E
100
AcDbEntity
  8
0
100
AcDbPolyline
 62
7
  6
CONTINUOUS
 90
3
 70
0
 10
40.4567406457
 20
43.9733386539
 10
40.5981474874
 20
43.9233464283
 10
40.6972503779
 20
43.8875851323
  0
LINE
  5
21F
100
AcDbEntity
  8
0
100
AcDbLine
 62
7
  6
CONTINUOUS
 10
27.2638153969
 20
87.2519932645
 11
27.2638153969
 21
86.2519932645
  0
LINE
  5
220
100
AcDbEntity
  8
0
100
AcDbLine
 62
7
  6
CONTINUOUS
 10
27.2638153969
 20
84.4519932645
 11
27.2638153969
 21
83.4519932645
  0
LINE
  5
221
100
AcDbEntity
  8
0
100
AcDbLine
 62
7
  6
CONTINUOUS
 10
38.2424820332
 20
45.3246676704
 11
38.985545936
 21
57.1012485
  0
LWPOLYLINE
  5
222
100
AcDbEntity
  8
0
100
AcDbPolyline
 62
7
  6
CONTINUOUS
 90
3
 70
0
 10
41.601769317
 20
58.2185212846
 10
41.4938630826
 20
58.1943024983
 10
41.3520963682
 20
58.1635434647
  0
LINE
  5
223
100
AcDbEntity
  8
0
100
AcDbLine
 62
7
  6
CONTINUOUS
 10
23.8300641637
 20
58.0575100498
 11
39.9816982946
 21
57.0383945299
  0
LINE
  5
224
100
AcDbEntity
  8
0
100
AcDbLine
 62
7
  6
CONTINUOUS
 10
43.1213260251
 20
58.3432486098
 11
66.5254246367
 21
56.8665547642
  0
LINE
  5
225
100
AcDbEntity
  8
0
100
AcDbLine
 62
7
  6
CONTINUOUS
 10
41.3294933669
 20
57.7549111156
 11
40.4856817924
 21
44.3816128369
  0
LINE
  5
226
100
AcDbEntity
  8
0
100
AcDbLine
 62
7
  6
CONTINUOUS
 10
55.2638153969
 20
87.2519932645
 11
55.2638153969
 21
86.2519932645
  0
LINE
  5
227
100
AcDbEntity
  8
0
100
AcDbLine
 62
7
  6
CONTINUOUS
 10
55.2638153969
 20
83.4519932645
 11
55.2638153969
 21
84.4519932645
  0
LINE
  5
228
100
AcDbEntity
  8
0
100
AcDbLine
 62
7
  6
CONTINUOUS
 10
64.5925335772
 20
87.2519932645
 11
64.5925335772
 21
86.2519932645
  0
LINE
  5
229
100
AcDbEntity
  8
0
100
AcDbLine
 62
7
  6
CONTINUOUS
 10
64.5925335772
 20
84.4519932645
 11
64.5925335772
 21
83.4519932645
  0
LINE
  5
22A
100
AcDbEntity
  8
0
100
AcDbLine
 62
7
  6
CONTINUOUS
 10
15.4638153969
 20
83.4519932645
 11
27.2638153969
 21
83.4519932645
  0
LINE
  5
22B
100
AcDbEntity
  8
0
100
AcDbLine
 62
7
  6
CONTINUOUS
 10
55.2638153969
 20
83.4519932645
 11
70.2638153969
 21
83.4519932645
  0
LINE
  5
22C
100
AcDbEntity
  8
0
100
AcDbLine
 62
7
  6
CONTINUOUS
 10
78.3638153969
 20
83.4519932645
 11
80.3638153969
 21
83.4519932645
  0
LINE
  5
22D
100
AcDbEntity
  8
0
100
AcDbLine
 62
7
  6
CONTINUOUS
 10
9.6638153969
 20
84.4519932645
 11
78.3638153969
 21
84.4519932645
  0
LINE
  5
22E
100
AcDbEntity
  8
0
100
AcDbLine
 62
7
  6
CONTINUOUS
 10
80.3638153969
 20
84.4519932645
 11
81.6638153969
 21
84.4519932645
  0
LINE
  5
22F
100
AcDbEntity
  8
0
100
AcDbLine
 62
7
  6
CONTINUOUS
 10
65.5934461823
 20
42.0959279609
 11
66.5254246367
 21
56.8665547642
  0
LINE
  5
230
100
AcDbEntity
  8
0
100
AcDbLine
 62
7
  6
CONTINUOUS
 10
9.6638153969
 20
86.2519932645
 11
78.3638153969
 21
86.2519932645
  0
LINE
  5
231
100
AcDbEntity
  8
0
100
AcDbLine
 62
7
  6
CONTINUOUS
 10
80.3638153969
 20
86.2519932645
 11
81.6638153969
 21
86.2519932645
  0
LINE
  5
232
100
AcDbEntity
  8
0
100
AcDbLine
 62
7
  6
CONTINUOUS
 10
15.4638153969
 20
87.2519932645
 11
27.2638153969
 21
87.2519932645
  0
LINE
  5
233
100
AcDbEntity
  8
0
100
AcDbLine
 62
7
  6
CONTINUOUS
 10
55.2638153969
 20
87.2519932645
 11
70.2638153969
 21
87.2519932645
  0
LINE
  5
234
100
AcDbEntity
  8
0
100
AcDbLine
 62
7
  6
CONTINUOUS
 10
78.3638153969
 20
87.2519932645
 11
80.3638153969
 21
87.2519932645
  0
LINE
  5
235
100
AcDbEntity
  8
0
100
AcDbLine
 62
7
  6
CONTINUOUS
 10
70.2638153969
 20
87.2519932645
 11
70.2638153969
 21
86.2519932645
  0
LINE
  5
236
100
AcDbEntity
  8
0
100
AcDbLine
 62
7
  6
CONTINUOUS
 10
70.2638153969
 20
84.4519932645
 11
70.2638153969
 21
83.4519932645
  0
LINE
  5
237
100
AcDbEntity
  8
0
100
AcDbLine
 62
7
  6
CONTINUOUS
 10
74.8638153969
 20
84.4519932645
 11
74.8638153969
 21
86.2519932645
  0
LINE
  5
238
100
AcDbEntity
  8
0
100
AcDbLine
 62
7
  6
CONTINUOUS
 10
78.3638153969
 20
87.2519932645
 11
78.3638153969
 21
86.2519932645
  0
LINE
  5
239
100
AcDbEntity
  8
0
100
AcDbLine
 62
7
  6
CONTINUOUS
 10
78.3638153969
 20
83.4519932645
 11
78.3638153969
 21
84.4519932645
  0
LINE
  5
23A
100
AcDbEntity
  8
0
100
AcDbLine
 62
7
  6
CONTINUOUS
 10
80.3638153969
 20
87.2519932645
 11
80.3638153969
 21
86.2519932645
  0
LINE
  5
23B
100
AcDbEntity
  8
0
100
AcDbLine
 62
7
  6
CONTINUOUS
 10
80.3638153969
 20
83.4519932645
 11
80.3638153969
 21
84.4519932645
  0
LINE
  5
23C
100
AcDbEntity
  8
0
100
AcDbLine
 62
7
  6
CONTINUOUS
 10
81.6638153969
 20
84.4519932645
 11
81.6638153969
 21
86.2519932645
  0
ARC
  5
23D
100
AcDbEntity
  8
0
100
AcDbCircle
 62
7
  6
CONTINUOUS
 10
33.6232084518
 20
27.8275526437
 40
17.9201622432
100
AcDbArc
 50
67.483638807
 51
67.8799653734
  0
ARC
  5
23E
100
AcDbEntity
  8
0
100
AcDbCircle
 62
7
  6
CONTINUOUS
 10
36.8861615223
 20
73.9874296896
 40
16.8297608595
100
AcDbArc
 50
284.8864832238
 51
285.3084908589
  0
ARC
  5
23F
100
AcDbEntity
  8
0
100
AcDbCircle
 62
7
  6
CONTINUOUS
 10
32.1269143751
 20
51.622272947
 40
10.5
100
AcDbArc
 50
142.2019816975
 51
210.5772363717
  0
CIRCLE
  5
240
100
AcDbEntity
  8
0
100
AcDbCircle
 62
7
  6
CONTINUOUS
 10
28.7835630378
 20
51.8332275295
 40
3.15
  0
ARC
  5
241
100
AcDbEntity
  8
0
100
AcDbCircle
 62
7
  6
CONTINUOUS
 10
40.063561267
 20
58.3358144518
 40
1.3
100
AcDbArc
 50
266.3896090346
 51
352.3866628238
  0
ARC
  5
242
100
AcDbEntity
  8
0
100
AcDbCircle
 62
7
  6
CONTINUOUS
 10
39.1567714195
 20
43.9643937784
 40
1.3
100
AcDbArc
 50
0.3917633142
 51
86.3896090346
  0
ARC
  5
243
100
AcDbEntity
  8
0
100
AcDbCircle
 62
7
  6
CONTINUOUS
 10
42.2237912686
 20
43.8617850808
 40
0.290729847
100
AcDbArc
 50
261.7381205004
 51
266.377423916
  0
ARC
  5
244
100
AcDbEntity
  8
0
100
AcDbCircle
 62
7
  6
CONTINUOUS
 10
43.1192167966
 20
58.0536684674
 40
0.2891667537
100
AcDbArc
 50
86.3969593927
 51
89.3726353708
  0
SPLINE
  5
245
100
AcDbEntity
  8
0
100
AcDbSpline
 62
7
  6
CONTINUOUS
 70
0
 71
3
 72
9
 73
5
 74
0
 42
0.0000001
 43
0.0000001
 44
0.0000000001
 40
0.0
 40
0.0
 40
0.0
 40
0.0
 40
0.4976911069
 40
1.0
 40
1.0
 40
1.0
 40
1.0
 10
43.1197914373
 20
58.3433620854
 30
0.0
 10
42.8669346925
 20
58.358600508
 30
0.0
 10
42.356026042
 20
58.3527162773
 30
0.0
 10
41.8512022342
 20
58.2746306052
 30
0.0
 10
41.601769317
 20
58.2185212846
 30
0.0
  0
SPLINE
  5
246
100
AcDbEntity
  8
0
100
AcDbSpline
 62
7
  6
CONTINUOUS
 70
0
 71
3
 72
9
 73
5
 74
0
 42
0.0000001
 43
0.0000001
 44
0.0000000001
 40
0.0
 40
0.0
 40
0.0
 40
0.0
 40
0.5023119419
 40
1.0
 40
1.0
 40
1.0
 40
1.0
 10
40.6974581013
 20
43.8875022808
 30
0.0
 10
40.9363139495
 20
43.8009691178
 30
0.0
 10
41.4241093148
 20
43.6606599653
 30
0.0
 10
41.9269148149
 20
43.5904242211
 30
0.0
 10
42.1780522104
 20
43.5734721617
 30
0.0
  0
SPLINE
  5
247
100
AcDbEntity
  8
0
100
AcDbSpline
 62
7
  6
CONTINUOUS
 70
0
 71
3
 72
14
 73
10
 74
0
 42
0.0000001
 43
0.0000001
 44
0.0000000001
 40
0.0
 40
0.0
 40
0.0
 40
0.0
 40
0.2658246637
 40
0.4037010621
 40
0.5388511458
 40
0.6673855054
 40
0.7874138243
 40
0.8978737037
 40
1.0
 40
1.0
 40
1.0
 40
1.0
 10
42.7236525103
 20
57.8673747696
 30
0.0
 10
42.7274467526
 20
57.9275084952
 30
0.0
 10
42.7458177059
 20
58.0188593649
 30
0.0
 10
42.796827806
 20
58.1302647572
 30
0.0
 10
42.8480386294
 20
58.2061541092
 30
0.0
 10
42.9103143537
 20
58.2677025377
 30
0.0
 10
42.9791774106
 20
58.3122904046
 30
0.0
 10
43.0508193149
 20
58.3378731383
 30
0.0
 10
43.0992358764
 20
58.3430732014
 30
0.0
 10
43.1223829874
 20
58.3428178867
 30
0.0
  0
SPLINE
  5
248
100
AcDbEntity
  8
0
100
AcDbSpline
 62
7
  6
CONTINUOUS
 70
0
 71
3
 72
14
 73
10
 74
0
 42
0.0000001
 43
0.0000001
 44
0.0000000001
 40
0.0
 40
0.0
 40
0.0
 40
0.0
 40
0.264794517
 40
0.4022152794
 40
0.5371859412
 40
0.6658346928
 40
0.7862623652
 40
0.8973009919
 40
1.0
 40
1.0
 40
1.0
 40
1.0
 10
41.8546509015
 20
44.0948476498
 30
0.0
 10
41.8509099496
 20
44.0356834905
 30
0.0
 10
41.8573304123
 20
43.9442689548
 30
0.0
 10
41.8926251234
 20
43.828912562
 30
0.0
 10
41.9325365239
 20
43.7479294094
 30
0.0
 10
41.9849487013
 20
43.6790707033
 30
0.0
 10
42.0460919397
 20
43.6255736526
 30
0.0
 10
42.1125385795
 20
43.5898057671
 30
0.0
 10
42.1592597582
 20
43.5773723996
 30
0.0
 10
42.1820140264
 20
43.5740725402
 30
0.0
  0
SPLINE
  5
249
100
AcDbEntity
  8
0
100
AcDbSpline
 62
7
  6
CONTINUOUS
 70
0
 71
3
 72
11
 73
7
 74
0
 42
0.0000001
 43
0.0000001
 44
0.0000000001
 40
0.0
 40
0.0
 40
0.0
 40
0.0
 40
0.2440584188
 40
0.4970884053
 40
0.7518997388
 40
1.0
 40
1.0
 40
1.0
 40
1.0
 10
40.4856850918
 20
44.3816648501
 30
0.0
 10
40.4801893365
 20
44.3520805544
 30
0.0
 10
40.4732479496
 20
44.2909522235
 30
0.0
 10
40.4767247256
 20
44.1978812508
 30
0.0
 10
40.4971224656
 20
44.1064084699
 30
0.0
 10
40.5224646039
 20
44.0491702563
 30
0.0
 10
40.5381994254
 20
44.022938838
 30
0.0
  0
SPLINE
  5
24A
100
AcDbEntity
  8
0
100
AcDbSpline
 62
7
  6
CONTINUOUS
 70
0
 71
3
 72
9
 73
5
 74
0
 42
0.0000001
 43
0.0000001
 44
0.0000000001
 40
0.0
 40
0.0
 40
0.0
 40
0.0
 40
0.5182209831
 40
1.0
 40
1.0
 40
1.0
 40
1.0
 10
40.5381994254
 20
44.022938838
 30
0.0
 10
40.5570380226
 20
43.9915331356
 30
0.0
 10
40.6032316581
 20
43.936196286
 30
0.0
 10
40.6653591065
 20
43.8991431837
 30
0.0
 10
40.6973601444
 20
43.8875179737
 30
0.0
  0
SPLINE
  5
24B
100
AcDbEntity
  8
0
100
AcDbSpline
 62
7
  6
CONTINUOUS
 70
0
 71
3
 72
29
 73
25
 74
0
 42
0.0000001
 43
0.0000001
 44
0.0000000001
 40
0.0
 40
0.0
 40
0.0
 40
0.0
 40
0.024561775
 40
0.0493164857
 40
0.0744545304
 40
0.100164535
 40
0.1266298603
 40
0.1540274732
 40
0.2122036138
 40
0.2758911693
 40
0.3456779252
 40
0.4210822097
 40
0.5000000043
 40
0.5789178059
 40
0.6543220873
 40
0.7241088436
 40
0.7877963997
 40
0.8459725437
 40
0.8733701564
 40
0.8998354792
 40
0.9255454784
 40
0.950683523
 40
0.9754382234
 40
1.0
 40
1.0
 40
1.0
 40
1.0
 10
42.2054218613
 20
43.5716361383
 30
0.0
 10
42.3751541905
 20
43.5609271449
 30
0.0
 10
42.7174755797
 20
43.5586610726
 30
0.0
 10
43.2311439416
 20
43.6132377161
 30
0.0
 10
43.7433931245
 20
43.7262438118
 30
0.0
 10
44.2514034579
 20
43.8983359373
 30
0.0
 10
44.752296206
 20
44.1303945561
 30
0.0
 10
45.4193893326
 20
44.528759748
 30
0.0
 10
46.2195207394
 20
45.1946903811
 30
0.0
 10
47.0625373423
 20
46.2292973361
 30
0.0
 10
47.7601863975
 20
47.5052436127
 30
0.0
 10
48.2553786561
 20
48.9843020106
 30
0.0
 10
48.4970071408
 20
50.5893735997
 30
0.0
 10
48.4590485315
 20
52.2120878772
 30
0.0
 10
48.1536813149
 20
53.7416563902
 30
0.0
 10
47.621946623
 20
55.0951741598
 30
0.0
 10
46.9156566331
 20
56.2275361876
 30
0.0
 10
46.2055741242
 20
56.9887565254
 30
0.0
 10
45.5938434695
 20
57.4678115521
 30
0.0
 10
45.1260914171
 20
57.7609884634
 30
0.0
 10
44.6437408812
 20
57.9955691561
 30
0.0
 10
44.1497584136
 20
58.1720650811
 30
0.0
 10
43.6470238605
 20
58.290773504
 30
0.0
 10
43.3071325919
 20
58.331552929
 30
0.0
 10
43.1374003157
 20
58.3422629415
 30
0.0
  0
SPLINE
  5
24C
100
AcDbEntity
  8
0
100
AcDbSpline
 62
7
  6
CONTINUOUS
 70
0
 71
3
 72
39
 73
35
 74
0
 42
0.0000001
 43
0.0000001
 44
0.0000000001
 40
0.0
 40
0.0
 40
0.0
 40
0.0
 40
0.0253591291
 40
0.0508795281
 40
0.0767156034
 40
0.103027388
 40
0.1299753266
 40
0.1577124893
 40
0.1863948117
 40
0.2161636477
 40
0.2471579117
 40
0.2794794051
 40
0.3132135421
 40
0.3483533717
 40
0.384849792
 40
0.4224943975
 40
0.4610198853
 40
0.5000012488
 40
0.5389835679
 40
0.5775113794
 40
0.6151586059
 40
0.6516555051
 40
0.6867918499
 40
0.7205209681
 40
0.7528387379
 40
0.783831235
 40
0.8136002202
 40
0.8422832303
 40
0.870020364
 40
0.8969682629
 40
0.9232809065
 40
0.9491184178
 40
0.9746401875
 40
1.0
 40
1.0
 40
1.0
 40
1.0
 10
42.7236525061
 20
57.8673747699
 30
0.0
 10
42.8920683801
 20
57.8567473657
 30
0.0
 10
43.2291282324
 20
57.8178654658
 30
0.0
 10
43.7282826999
 20
57.7067169315
 30
0.0
 10
44.2192646148
 20
57.542309542
 30
0.0
 10
44.6993474156
 20
57.3243346671
 30
0.0
 10
45.1658514882
 20
57.0525426424
 30
0.0
 10
45.6154647711
 20
56.7259904767
 30
0.0
 10
46.0445356505
 20
56.3440082846
 30
0.0
 10
46.4487802647
 20
55.9058486909
 30
0.0
 10
46.8234189218
 20
55.4113562569
 30
0.0
 10
47.1627603353
 20
54.8607233566
 30
0.0
 10
47.4603704657
 20
54.255533182
 30
0.0
 10
47.7093255837
 20
53.5989085529
 30
0.0
 10
47.9018161676
 20
52.8965278397
 30
0.0
 10
48.0315627544
 20
52.1569640634
 30
0.0
 10
48.0915773635
 20
51.3919080739
 30
0.0
 10
48.0798663633
 20
50.6156630397
 30
0.0
 10
47.9939070691
 20
49.8440876935
 30
0.0
 10
47.8381895177
 20
49.092605691
 30
0.0
 10
47.6164868763
 20
48.3751859625
 30
0.0
 10
47.3372305528
 20
47.7025767697
 30
0.0
 10
47.0077345731
 20
47.0825025079
 30
0.0
 10
46.6364509637
 20
46.5195946772
 30
0.0
 10
46.2306368269
 20
46.016034516
 30
0.0
 10
45.7968468179
 20
45.5725720073
 30
0.0
 10
45.3407435258
 20
45.188697158
 30
0.0
 10
44.8670655093
 20
44.8636627978
 30
0.0
 10
44.3799750871
 20
44.5962005423
 30
0.0
 10
43.8830056961
 20
44.3851927403
 30
0.0
 10
43.3793186887
 20
44.2292831067
 30
0.0
 10
42.8715427178
 20
44.1278838745
 30
0.0
 10
42.362353847
 20
44.0803485327
 30
0.0
 10
42.0230660971
 20
44.0841376228
 30
0.0
 10
41.8546455574
 20
44.0947632919
 30
0.0
  0
SPLINE
  5
24D
100
AcDbEntity
  8
0
100
AcDbSpline
 62
7
  6
CONTINUOUS
 70
0
 71
3
 72
9
 73
5
 74
0
 42
0.0000001
 43
0.0000001
 44
0.0000000001
 40
0.0
 40
0.0
 40
0.0
 40
0.0
 40
0.5029897096
 40
1.0
 40
1.0
 40
1.0
 40
1.0
 10
41.3294933669
 20
57.7549111156
 30
0.0
 10
41.5588708883
 20
57.8064970932
 30
0.0
 10
42.0225660959
 20
57.8778606727
 30
0.0
 10
42.4918087987
 20
57.8821147724
 30
0.0
 10
42.7236514108
 20
57.8673574103
 30
0.0
  0
SPLINE
  5
24E
100
AcDbEntity
  8
0
100
AcDbSpline
 62
7
  6
CONTINUOUS
 70
0
 71
3
 72
9
 73
5
 74
0
 42
0.0000001
 43
0.0000001
 44
0.0000000001
 40
0.0
 40
0.0
 40
0.0
 40
0.0
 40
0.4970046949
 40
1.0
 40
1.0
 40
1.0
 40
1.0
 10
41.8546482187
 20
44.0948054715
 30
0.0
 10
41.6227848059
 20
44.1092321914
 30
0.0
 10
41.1577808284
 20
44.1724023286
 30
0.0
 10
40.7067374531
 20
44.3015377125
 30
0.0
 10
40.4856817924
 20
44.3816128369
 30
0.0
  0
SPLINE
  5
24F
100
AcDbEntity
  8
0
100
AcDbSpline
 62
7
  6
CONTINUOUS
 70
0
 71
3
 72
11
 73
7
 74
0
 42
0.0000001
 43
0.0000001
 44
0.0000000001
 40
0.0
 40
0.0
 40
0.0
 40
0.0
 40
0.2440680046
 40
0.4970985497
 40
0.7519057752
 40
1.0
 40
1.0
 40
1.0
 40
1.0
 10
41.3294821705
 20
57.7549091341
 30
0.0
 10
41.3277532085
 20
57.7849448444
 30
0.0
 10
41.3285581975
 20
57.8464493281
 30
0.0
 10
41.3437138934
 20
57.9383251273
 30
0.0
 10
41.3754489699
 20
58.0264861241
 30
0.0
 10
41.4077805312
 20
58.0800707743
 30
0.0
 10
41.4266843591
 20
58.1041100652
 30
0.0
  0
SPLINE
  5
250
100
AcDbEntity
  8
0
100
AcDbSpline
 62
7
  6
CONTINUOUS
 70
0
 71
3
 72
9
 73
5
 74
0
 42
0.0000001
 43
0.0000001
 44
0.0000000001
 40
0.0
 40
0.0
 40
0.0
 40
0.0
 40
0.5182198718
 40
1.0
 40
1.0
 40
1.0
 40
1.0
 10
41.4266843591
 20
58.1041100652
 30
0.0
 10
41.4493206874
 20
58.1328958373
 30
0.0
 10
41.502101568
 20
58.1819822296
 30
0.0
 10
41.5683893956
 20
58.2109294033
 30
0.0
 10
41.6015957133
 20
58.2184394783
 30
0.0
  0
ENDSEC
  0
SECTION
  2
OBJECTS
  0
DICTIONARY
  5
C
100
AcDbDictionary
280
0
281
1
  3
ACAD_GROUP
350
D
  3
ACAD_MLINESTYLE
350
17
  3
ACAD_LAYOUT
350
1A
  3
ACAD_PLOTSETTINGS
350
19
  3
ACAD_PLOTSTYLENAME
350
E
  0
DICTIONARY
  5
D
102
{ACAD_REACTORS
330
C
102
}
100
AcDbDictionary
280
0
281
1
  0
ACDBDICTIONARYWDFLT
  5
E
102
{ACAD_REACTORS
330
C
102
}
100
AcDbDictionary
281
1
  3
Normal
350
F
100
AcDbDictionaryWithDefault
340
F
  0
DICTIONARY
  5
17
102
{ACAD_REACTORS
330
C
102
}
100
AcDbDictionary
280
0
281
1
  3
Standard
350
18
  0
DICTIONARY
  5
19
102
{ACAD_REACTORS
330
C
102
}
100
AcDbDictionary
281
1
  0
DICTIONARY
  5
1A
102
{ACAD_REACTORS
330
C
102
}
100
AcDbDictionary
281
1
  3
Model
350
251
  3
Layout1
350
252
  0
ACDBPLACEHOLDER
  5
F
102
{ACAD_REACTORS
330
E
102
}
  0
MLINESTYLE
  5
18
102
{ACAD_REACTORS
330
17
102
}
100
AcDbMlineStyle
  2
STANDARD
 70
0
  3

 62
256
 51
90.0
 52
90.0
 71
2
 49
0.5
 62
256
  6
BYLAYER
 49
-0.5
 62
256
  6
BYLAYER
  0
LAYOUT
  5
251
102
{ACAD_REACTORS
330
1A
102
}
100
AcDbPlotSettings
  1

  2
none_device
  4

  6

 40
0.0
 41
0.0
 42
0.0
 43
0.0
 44
210.0
 45
297.0
 46
0.0
 47
0.0
 48
0.0
 49
0.0
140
0.0
141
0.0
142
1.0
143
1.0
 70
1024
 72
1
 73
0
 74
0
  7

 75
0
147
1.0
148
0.0
149
0.0
100
AcDbLayout
  1
Model
 70
0
 71
0
 10
0.0
 20
0.0
 11
210.0
 21
297.0
 12
0.0
 22
0.0
 32
0.0
 14
0.0
 24
0.0
 34
0.0
 15
0.0
 25
0.0
 35
0.0
146
0.0
 13
0.0
 23
0.0
 33
0.0
 16
1.0
 26
0.0
 36
0.0
 17
0.0
 27
1.0
 37
0.0
 76
0
330
210
345
0
346
0
  0
LAYOUT
  5
252
102
{ACAD_REACTORS
330
1A
102
}
100
AcDbPlotSettings
  1

  2
none_device
  4

  6

 40
0.0
 41
0.0
 42
0.0
 43
0.0
 44
210.0
 45
297.0
 46
0.0
 47
0.0
 48
0.0
 49
0.0
140
0.0
141
0.0
142
1.0
143
1.0
 70
0
 72
1
 73
0
 74
0
  7

 75
0
147
1.0
148
0.0
149
0.0
100
AcDbLayout
  1
Layout1
 70
0
 71
1
 10
0.0
 20
0.0
 11
210.0
 21
297.0
 12
0.0
 22
0.0
 32
0.0
 14
0.0
 24
0.0
 34
0.0
 15
0.0
 25
0.0
 35
0.0
146
0.0
 13
0.0
 23
0.0
 33
0.0
 16
1.0
 26
0.0
 36
0.0
 17
0.0
 27
1.0
 37
0.0
 76
0
330
211
345
0
346
0
  0
ENDSEC
  0
EOF
