999
DXF file: C:\Users\sesa63760\Dev\_Creo\CAD\MCADID0005626_3D-CAD\mcadid0005626_3d-simplified_6.dxf
999
Pro/ENGINEER 2019471 by Parametric Technology Corporation
  0
SECTION
  2
HEADER
  9
$ACADVER
  1
AC1024
  9
$DWGCODEPAGE
  3
ANSI_1252
  9
$EXTMAX
 10
91.9193977705
 20
130.0002911325
 30
0.0
  9
$EXTMIN
 10
0.0
 20
0.0
 30
0.0
  9
$LIMMIN
 10
0.0
 20
0.0
  9
$LIMMAX
 10
91.9193977705
 20
130.0002911325
  9
$VIEWCTR
 10
45.9596988852
 20
65.0001455663
  9
$VIEWSIZE
 40
130.0002911325
  9
$CLAYER
  8
0
  9
$LTSCALE
 40
8.4740930516
  9
$CELTYPE
  6
BYLAYER
  9
$DIMSCALE
 40
1.0
  9
$DIMASZ
 40
1.0942785449
  9
$DIMEXO
 40
1.0
  9
$DIMDLI
 40
5.8548279266
  9
$DIMEXE
 40
1.0
  9
$DIMCEN
 40
1.3866697721
  9
$DIMLFAC
 40
1.0
  9
$DIMBLK
  1
_FILLED
  9
$DIMALT
 70
0
  9
$DIMALTF
 40
0.0393700787
  9
$DIMTXT
 40
1.5319899628
  9
$DIMTOL
 70
1
  9
$DIMLIM
 70
0
  9
$DIMTFAC
 40
1.0
  9
$DIMTP
 40
0.01
  9
$DIMTM
 40
0.01
  9
$DIMGAP
 40
0.625
  9
$DIMDSEP
 70
46
  9
$AUNITS
 70
0
  9
$PDMODE
 70
3
  9
$PDSIZE
 40
0.3125
  9
$HANDSEED
  5
2F9
  9
$TILEMODE
 70
1
  9
$MEASUREMENT
 70
1
  9
$INSUNITS
 70
4
  0
ENDSEC
  0
SECTION
  2
CLASSES
  0
CLASS
  1
ACDBDICTIONARYWDFLT
  2
AcDbDictionaryWithDefault
  3
AutoCAD 2000
 90
0
 91
1
280
0
281
0
  0
CLASS
  1
ACDBPLACEHOLDER
  2
AcDbPlaceHolder
  3
AutoCAD 2000
 90
0
 91
1
280
0
281
0
  0
CLASS
  1
LAYOUT
  2
AcDbLayout
  3
AutoCAD 2000
 90
0
 91
0
280
0
281
0
  0
ENDSEC
  0
SECTION
  2
TABLES
  0
TABLE
  2
VPORT
  5
8
100
AcDbSymbolTable
 70
2
  0
VPORT
  5
1F4
100
AcDbSymbolTableRecord
100
AcDbViewportTableRecord
  2
*ACTIVE
 70
0
 10
0.0
 20
0.0
 11
1.0
 21
1.0
 12
45.9596988852
 22
65.0001455663
 13
0.0
 23
0.0
 14
1.0
 24
1.0
 15
0.0
 25
0.0
 16
0.0
 26
0.0
 36
1.0
 17
0.0
 27
0.0
 37
0.0
 40
130.0002911325
 41
0.7070707071
 42
50.0
 43
0.0
 44
0.0
 50
0.0
 51
0.0
 71
0
 72
100
 73
1
 74
1
 75
0
 76
0
 77
0
 78
0
  0
ENDTAB
  0
TABLE
  2
LTYPE
  5
5
100
AcDbSymbolTable
 70
6
  0
LTYPE
  5
14
100
AcDbSymbolTableRecord
100
AcDbLinetypeTableRecord
  2
BYBLOCK
 70
0
  3

 72
65
 73
0
 40
0.0
  0
LTYPE
  5
15
100
AcDbSymbolTableRecord
100
AcDbLinetypeTableRecord
  2
BYLAYER
 70
0
  3

 72
65
 73
0
 40
0.0
  0
LTYPE
  5
16
100
AcDbSymbolTableRecord
100
AcDbLinetypeTableRecord
  2
CONTINUOUS
 70
64
  3
Solid line
 72
65
 73
0
 40
0.0
  0
LTYPE
  5
1F5
100
AcDbSymbolTableRecord
100
AcDbLinetypeTableRecord
  2
CENTER
 70
64
  3
____ _ ____ _ ____ _ ____ _ ____ _ ____ _ ____
 72
65
 73
4
 40
0.6
 49
0.375
 74
0
 49
-0.075
 74
0
 49
0.075
 74
0
 49
-0.075
 74
0
  0
LTYPE
  5
1F6
100
AcDbSymbolTableRecord
100
AcDbLinetypeTableRecord
  2
HIDDEN
 70
64
  3
- - - - - - - - - - - - - - - - - - - -
 72
65
 73
2
 40
0.2
 49
0.1
 74
0
 49
-0.1
 74
0
  0
LTYPE
  5
1F7
100
AcDbSymbolTableRecord
100
AcDbLinetypeTableRecord
  2
PHANTOM
 70
64
  3
_____ _ _ _____ _ _ _____ _ _ _____
 72
65
 73
6
 40
0.8
 49
0.45
 74
0
 49
-0.05
 74
0
 49
0.1
 74
0
 49
-0.05
 74
0
 49
0.1
 74
0
 49
-0.05
 74
0
  0
LTYPE
  5
1F8
100
AcDbSymbolTableRecord
100
AcDbLinetypeTableRecord
  2
DOT
 70
64
  3
. . . . . . . . . . . . . . . . . . . .
 72
65
 73
2
 40
0.2
 49
0.1
 74
0
 49
-0.1
 74
0
  0
LTYPE
  5
1F9
100
AcDbSymbolTableRecord
100
AcDbLinetypeTableRecord
  2
DASHED
 70
64
  3
- - - - - - - - - - - - - - - - - - - -
 72
65
 73
2
 40
0.2
 49
0.1
 74
0
 49
-0.1
 74
0
  0
ENDTAB
  0
TABLE
  2
LAYER
  5
2
100
AcDbSymbolTable
 70
36
  0
LAYER
  5
10
100
AcDbSymbolTableRecord
100
AcDbLayerTableRecord
  2
0
 70
0
 62
7
  6
CONTINUOUS
370
-3
390
F
  0
LAYER
  5
1FA
100
AcDbSymbolTableRecord
100
AcDbLayerTableRecord
  2
DEFAULT_1
 70
0
 62
7
  6
CENTER
370
-3
390
F
  0
LAYER
  5
1FB
100
AcDbSymbolTableRecord
100
AcDbLayerTableRecord
  2
DEFAULT_2
 70
0
 62
7
  6
HIDDEN
370
-3
390
F
  0
LAYER
  5
1FC
100
AcDbSymbolTableRecord
100
AcDbLayerTableRecord
  2
DEFAULT_3
 70
0
 62
7
  6
PHANTOM
370
-3
390
F
  0
LAYER
  5
1FD
100
AcDbSymbolTableRecord
100
AcDbLayerTableRecord
  2
00_COMPONENTS
 70
0
 62
7
  6
CONTINUOUS
370
-3
390
F
  0
LAYER
  5
1FE
100
AcDbSymbolTableRecord
100
AcDbLayerTableRecord
  2
00_COMPONENTS_2
 70
0
 62
7
  6
CONTINUOUS
370
-3
390
F
  0
LAYER
  5
1FF
100
AcDbSymbolTableRecord
100
AcDbLayerTableRecord
  2
00_COMPONENTS_3
 70
0
 62
7
  6
CONTINUOUS
370
-3
390
F
  0
LAYER
  5
200
100
AcDbSymbolTableRecord
100
AcDbLayerTableRecord
  2
00_COMPONENTS_4
 70
0
 62
7
  6
CONTINUOUS
370
-3
390
F
  0
LAYER
  5
201
100
AcDbSymbolTableRecord
100
AcDbLayerTableRecord
  2
00_COMPONENTS_5
 70
0
 62
7
  6
CONTINUOUS
370
-3
390
F
  0
LAYER
  5
202
100
AcDbSymbolTableRecord
100
AcDbLayerTableRecord
  2
00_COMPONENTS_6
 70
0
 62
7
  6
CONTINUOUS
370
-3
390
F
  0
LAYER
  5
203
100
AcDbSymbolTableRecord
100
AcDbLayerTableRecord
  2
00_COMPONENTS_7
 70
0
 62
7
  6
CONTINUOUS
370
-3
390
F
  0
LAYER
  5
204
100
AcDbSymbolTableRecord
100
AcDbLayerTableRecord
  2
01_1_DEFAULT_DATUMS
 70
0
 62
7
  6
CONTINUOUS
370
-3
390
F
  0
LAYER
  5
205
100
AcDbSymbolTableRecord
100
AcDbLayerTableRecord
  2
01_PLANES
 70
0
 62
7
  6
CONTINUOUS
370
-3
390
F
  0
LAYER
  5
206
100
AcDbSymbolTableRecord
100
AcDbLayerTableRecord
  2
02_COORD_SYS
 70
0
 62
7
  6
CONTINUOUS
370
-3
390
F
  0
LAYER
  5
207
100
AcDbSymbolTableRecord
100
AcDbLayerTableRecord
  2
03_AXES
 70
0
 62
7
  6
CONTINUOUS
370
-3
390
F
  0
LAYER
  5
208
100
AcDbSymbolTableRecord
100
AcDbLayerTableRecord
  2
03_AXES_1
 70
0
 62
7
  6
CONTINUOUS
370
-3
390
F
  0
LAYER
  5
209
100
AcDbSymbolTableRecord
100
AcDbLayerTableRecord
  2
03_AXES_4
 70
0
 62
7
  6
CONTINUOUS
370
-3
390
F
  0
LAYER
  5
20A
100
AcDbSymbolTableRecord
100
AcDbLayerTableRecord
  2
04_POINTS
 70
0
 62
7
  6
CONTINUOUS
370
-3
390
F
  0
LAYER
  5
20B
100
AcDbSymbolTableRecord
100
AcDbLayerTableRecord
  2
05_CURVES
 70
0
 62
7
  6
CONTINUOUS
370
-3
390
F
  0
LAYER
  5
20C
100
AcDbSymbolTableRecord
100
AcDbLayerTableRecord
  2
06_SURFS
 70
0
 62
7
  6
CONTINUOUS
370
-3
390
F
  0
LAYER
  5
20D
100
AcDbSymbolTableRecord
100
AcDbLayerTableRecord
  2
07_COSMETICS
 70
0
 62
7
  6
CONTINUOUS
370
-3
390
F
  0
LAYER
  5
20E
100
AcDbSymbolTableRecord
100
AcDbLayerTableRecord
  2
10_NOTES
 70
0
 62
7
  6
CONTINUOUS
370
-3
390
F
  0
LAYER
  5
20F
100
AcDbSymbolTableRecord
100
AcDbLayerTableRecord
  2
11_NOTES_PUB
 70
0
 62
7
  6
CONTINUOUS
370
-3
390
F
  0
LAYER
  5
210
100
AcDbSymbolTableRecord
100
AcDbLayerTableRecord
  2
13_REF_GTOL
 70
0
 62
7
  6
CONTINUOUS
370
-3
390
F
  0
LAYER
  5
211
100
AcDbSymbolTableRecord
100
AcDbLayerTableRecord
  2
16_MISC
 70
0
 62
7
  6
CONTINUOUS
370
-3
390
F
  0
LAYER
  5
212
100
AcDbSymbolTableRecord
100
AcDbLayerTableRecord
  2
17_NO_PRINT
 70
0
 62
7
  6
CONTINUOUS
370
-3
390
F
  0
LAYER
  5
213
100
AcDbSymbolTableRecord
100
AcDbLayerTableRecord
  2
18_DATUM_CAMS_JOINTS
 70
0
 62
7
  6
CONTINUOUS
370
-3
390
F
  0
LAYER
  5
214
100
AcDbSymbolTableRecord
100
AcDbLayerTableRecord
  2
19_DATUM_FUNCTIONAL
 70
0
 62
7
  6
CONTINUOUS
370
-3
390
F
  0
LAYER
  5
215
100
AcDbSymbolTableRecord
100
AcDbLayerTableRecord
  2
20_DATUM_KINEMATIC_SCHEME
 70
0
 62
7
  6
CONTINUOUS
370
-3
390
F
  0
LAYER
  5
216
100
AcDbSymbolTableRecord
100
AcDbLayerTableRecord
  2
INTFCLR_133347
 70
0
 62
7
  6
CONTINUOUS
370
-3
390
F
  0
LAYER
  5
217
100
AcDbSymbolTableRecord
100
AcDbLayerTableRecord
  2
INTFCLR_97945
 70
0
 62
7
  6
CONTINUOUS
370
-3
390
F
  0
LAYER
  5
218
100
AcDbSymbolTableRecord
100
AcDbLayerTableRecord
  2
INTF_BLANK
 70
0
 62
7
  6
CONTINUOUS
370
-3
390
F
  0
LAYER
  5
219
100
AcDbSymbolTableRecord
100
AcDbLayerTableRecord
  2
SHELL22
 70
0
 62
7
  6
CONTINUOUS
370
-3
390
F
  0
LAYER
  5
21A
100
AcDbSymbolTableRecord
100
AcDbLayerTableRecord
  2
SHELL56
 70
0
 62
7
  6
CONTINUOUS
370
-3
390
F
  0
LAYER
  5
21B
100
AcDbSymbolTableRecord
100
AcDbLayerTableRecord
  2
SHELL57
 70
0
 62
7
  6
CONTINUOUS
370
-3
390
F
  0
LAYER
  5
21C
100
AcDbSymbolTableRecord
100
AcDbLayerTableRecord
  2
SHELL58
 70
0
 62
7
  6
CONTINUOUS
370
-3
390
F
  0
LAYER
  5
21D
100
AcDbSymbolTableRecord
100
AcDbLayerTableRecord
  2
SHELL8
 70
0
 62
7
  6
CONTINUOUS
370
-3
390
F
  0
LAYER
  5
21E
100
AcDbSymbolTableRecord
100
AcDbLayerTableRecord
  2
_BLACK_HOLE
 70
0
 62
7
  6
CONTINUOUS
370
-3
390
F
  0
LAYER
  5
21F
100
AcDbSymbolTableRecord
100
AcDbLayerTableRecord
  2
black
 70
0
 62
7
  6
CONTINUOUS
370
-3
390
F
  0
ENDTAB
  0
TABLE
  2
STYLE
  5
3
100
AcDbSymbolTable
 70
1
  0
STYLE
  5
11
100
AcDbSymbolTableRecord
100
AcDbTextStyleTableRecord
  2
STANDARD
 70
0
 40
0.0
 41
1.0
 50
0.0
 71
0
 42
0.2
  3
ARIAL.TTF
  4

  0
STYLE
  5
220
100
AcDbSymbolTableRecord
100
AcDbTextStyleTableRecord
  2
TEXTSTYLE_1
 70
0
 40
0.0
 41
0.8
 50
0.0
 71
0
 42
0.2
  3
gdt
  4

  0
ENDTAB
  0
TABLE
  2
VIEW
  5
6
100
AcDbSymbolTable
 70
0
  0
ENDTAB
  0
TABLE
  2
UCS
  5
7
100
AcDbSymbolTable
 70
0
  0
ENDTAB
  0
TABLE
  2
APPID
  5
9
100
AcDbSymbolTable
 70
1
  0
APPID
  5
221
100
AcDbSymbolTableRecord
100
AcDbRegAppTableRecord
  2
ACAD
 70
0
  0
ENDTAB
  0
TABLE
  2
BLOCK_RECORD
  5
1
100
AcDbSymbolTable
 70
0
  0
BLOCK_RECORD
  5
222
100
AcDbSymbolTableRecord
100
AcDbBlockTableRecord
  2
*Model_Space
  0
BLOCK_RECORD
  5
223
100
AcDbSymbolTableRecord
100
AcDbBlockTableRecord
  2
*Paper_Space
  0
BLOCK_RECORD
  5
224
100
AcDbSymbolTableRecord
100
AcDbBlockTableRecord
  2
_FILLED
  0
ENDTAB
  0
TABLE
  2
DIMSTYLE
  5
A
100
AcDbSymbolTable
 70
1
100
AcDbDimStyleTable
 71
0
  0
DIMSTYLE
105
225
100
AcDbSymbolTableRecord
100
AcDbDimStyleTableRecord
  2
STANDARD
 70
0
  3

  4

 40
1.0
 41
1.0942785449
 42
1.0
 43
0.38
 44
1.0
 45
0.0
 46
0.0
 47
0.01
 48
0.01
140
1.5319899628
141
0.09
142
0.0
143
25.4
144
1.0
145
0.0
146
1.0
147
0.625
 71
1
 72
0
 73
0
 74
0
 75
0
 76
0
 77
1
 78
8
 79
2
170
0
171
1
172
0
173
0
174
0
175
0
176
0
177
0
178
0
270
2
179
2
271
2
272
2
273
2
274
2
275
0
280
0
281
0
282
0
283
1
284
8
285
0
286
0
287
3
288
0
340
11
278
46
341
224
342
224
343
224
344
224
  0
ENDTAB
  0
ENDSEC
  0
SECTION
  2
BLOCKS
  0
BLOCK
  5
20
100
AcDbEntity
  8
0
100
AcDbBlockBegin
  2
*Model_Space
 70
0
 10
0.0
 20
0.0
 30
0.0
  3
*Model_Space
  1

  0
ENDBLK
  5
21
100
AcDbEntity
  8
0
100
AcDbBlockEnd
  0
BLOCK
  5
1C
100
AcDbEntity
  8
0
100
AcDbBlockBegin
  2
*Paper_Space
 70
0
 10
0.0
 20
0.0
 30
0.0
  3
*Paper_Space
  1

  0
ENDBLK
  5
1D
100
AcDbEntity
  8
0
100
AcDbBlockEnd
  0
BLOCK
  5
226
100
AcDbEntity
  8
0
100
AcDbBlockBegin
  2
_FILLED
 70
64
 10
0.0
 20
0.0
  3
_FILLED
  1

  0
SOLID
  5
227
100
AcDbEntity
  8
0
  6
BYBLOCK
 62
0
100
AcDbTrace
 10
0.0
 20
0.0
 11
-1.0
 21
0.25
 12
-1.0
 22
-0.25
 13
-1.0
 23
-0.25
  0
ENDBLK
  5
228
100
AcDbEntity
  8
0
  6
BYBLOCK
 62
0
100
AcDbBlockEnd
  0
ENDSEC
  0
SECTION
  2
ENTITIES
  0
LINE
  5
229
100
AcDbEntity
  8
00_COMPONENTS
100
AcDbLine
 62
7
  6
BYLAYER
 10
67.1741442698
 20
11.7392237454
 11
65.2083943022
 21
11.4629556041
  0
LINE
  5
22A
100
AcDbEntity
  8
00_COMPONENTS
100
AcDbLine
 62
7
  6
BYLAYER
 10
58.4492442698
 20
11.4322263461
 11
53.6230786643
 21
10.7539530035
  0
LINE
  5
22B
100
AcDbEntity
  8
00_COMPONENTS
100
AcDbLine
 62
7
  6
BYLAYER
 10
39.8875099401
 20
10.7539530035
 11
53.6230786643
 21
10.7539530035
  0
LINE
  5
22C
100
AcDbEntity
  8
00_COMPONENTS
100
AcDbLine
 62
7
  6
BYLAYER
 10
26.3364443346
 20
11.7392237454
 11
28.3021943022
 21
11.4629556041
  0
LINE
  5
22D
100
AcDbEntity
  8
00_COMPONENTS
100
AcDbLine
 62
7
  6
BYLAYER
 10
35.0613443346
 20
11.4322263461
 11
39.8875099401
 21
10.7539530035
  0
LINE
  5
22E
100
AcDbEntity
  8
00_COMPONENTS
100
AcDbLine
 62
7
  6
BYLAYER
 10
58.4492442698
 20
11.4322263461
 11
35.0613443346
 21
11.4322263461
  0
LINE
  5
22F
100
AcDbEntity
  8
00_COMPONENTS
100
AcDbLine
 62
7
  6
BYLAYER
 10
65.2083943022
 20
11.4629556041
 11
28.3021943022
 21
11.4629556041
  0
LINE
  5
230
100
AcDbEntity
  8
00_COMPONENTS
100
AcDbLine
 62
7
  6
BYLAYER
 10
67.1741442698
 20
11.7392237454
 11
26.3364443346
 21
11.7392237454
  0
LINE
  5
231
100
AcDbEntity
  8
00_COMPONENTS
100
AcDbLine
 62
7
  6
BYLAYER
 10
26.1177943022
 20
11.9907518349
 11
67.3927943022
 21
11.9907518349
  0
LINE
  5
232
100
AcDbEntity
  8
00_COMPONENTS
100
AcDbLine
 62
7
  6
BYLAYER
 10
67.3927943022
 20
14.9449530035
 11
26.1177943022
 21
14.9449530035
  0
LINE
  5
233
100
AcDbEntity
  8
00_COMPONENTS
100
AcDbLine
 62
7
  6
BYLAYER
 10
67.1387943022
 20
15.1989530035
 11
26.3717943022
 21
15.1989530035
  0
LINE
  5
234
100
AcDbEntity
  8
0
100
AcDbLine
 62
7
  6
BYLAYER
 10
30.5189912353
 20
111.3856998656
 11
36.5896443732
 21
117.4563530035
  0
LINE
  5
235
100
AcDbEntity
  8
00_COMPONENTS_3
100
AcDbLine
 62
7
  6
BYLAYER
 10
32.3673994854
 20
20.6543530035
 11
61.143189119
 21
20.6543530035
  0
LINE
  5
236
100
AcDbEntity
  8
0
100
AcDbLine
 62
7
  6
BYLAYER
 10
40.5903445843
 20
117.4563530035
 11
32.5193413409
 21
109.38534976
  0
LINE
  5
237
100
AcDbEntity
  8
0
100
AcDbLine
 62
7
  6
BYLAYER
 10
26.2084682972
 20
102.1180755487
 11
32.9975419247
 21
108.9071491762
  0
LINE
  5
238
100
AcDbEntity
  8
0
100
AcDbLine
 62
7
  6
BYLAYER
 10
31.3541550546
 20
105.4677110818
 11
28.8217228284
 21
102.9352788557
  0
LINE
  5
239
100
AcDbEntity
  8
00_COMPONENTS_3
100
AcDbLine
 62
7
  6
BYLAYER
 10
61.143189119
 20
26.0443530035
 11
32.3673994854
 21
26.0443530035
  0
LINE
  5
23A
100
AcDbEntity
  8
0
100
AcDbLine
 62
7
  6
BYLAYER
 10
34.9978920303
 20
106.9067990706
 11
32.456479548
 21
104.3653865884
  0
LINE
  5
23B
100
AcDbEntity
  8
0
100
AcDbLine
 62
7
  6
BYLAYER
 10
29.9240473219
 20
101.8329543622
 11
27.5103184028
 21
99.4192254431
  0
LINE
  5
23C
100
AcDbEntity
  8
0
100
AcDbLine
 62
7
  6
BYLAYER
 10
31.3002735178
 20
100.4567281663
 11
33.832705744
 21
102.9891603924
  0
LINE
  5
23D
100
AcDbEntity
  8
0
100
AcDbLine
 62
7
  6
BYLAYER
 10
32.6442714587
 20
100.5075692257
 11
32.0221010641
 21
99.885398831
  0
LINE
  5
23E
100
AcDbEntity
  8
0
100
AcDbLine
 62
7
  6
BYLAYER
 10
32.3779042524
 20
99.3790974317
 11
34.9103364785
 21
101.9115296579
  0
LINE
  5
23F
100
AcDbEntity
  8
00_COMPONENTS_3
100
AcDbLine
 62
7
  6
BYLAYER
 10
30.7552942982
 20
27.6564581906
 11
62.7552943062
 21
27.6564581906
  0
LINE
  5
240
100
AcDbEntity
  8
00_COMPONENTS_3
100
AcDbLine
 62
7
  6
BYLAYER
 10
32.3673994854
 20
26.0443530035
 11
30.7552942982
 21
27.6564581906
  0
LINE
  5
241
100
AcDbEntity
  8
0
100
AcDbLine
 62
7
  6
BYLAYER
 10
33.4555349869
 20
98.3014666972
 11
35.987967213
 21
100.8338989234
  0
LINE
  5
242
100
AcDbEntity
  8
0
100
AcDbLine
 62
7
  6
BYLAYER
 10
36.4369800191
 20
100.3848861173
 11
33.904547793
 21
97.8524538912
  0
LINE
  5
243
100
AcDbEntity
  8
0
100
AcDbLine
 62
7
  6
BYLAYER
 10
34.0841529154
 20
97.6728487687
 11
36.6165851415
 21
100.2052809949
  0
LINE
  5
244
100
AcDbEntity
  8
0
100
AcDbLine
 62
7
  6
BYLAYER
 10
37.8828012546
 20
101.1122868631
 11
36.7961902639
 21
100.0256758725
  0
LINE
  5
245
100
AcDbEntity
  8
0
100
AcDbLine
 62
7
  6
BYLAYER
 10
34.2637580378
 20
97.4932436463
 11
33.1771470471
 21
96.4066326557
  0
LINE
  5
246
100
AcDbEntity
  8
0
100
AcDbLine
 62
7
  6
BYLAYER
 10
37.6852356199
 20
100.1963007388
 11
34.0931331715
 21
96.6041982903
  0
LINE
  5
247
100
AcDbEntity
  8
0
100
AcDbLine
 62
7
  6
BYLAYER
 10
35.0630008326
 20
94.5207788702
 11
39.76865504
 21
99.2264330777
  0
LINE
  5
248
100
AcDbEntity
  8
0
100
AcDbLine
 62
7
  6
BYLAYER
 10
60.0281128491
 20
98.3284074656
 11
60.1071970401
 21
98.3536101199
  0
LINE
  5
249
100
AcDbEntity
  8
00_COMPONENTS_3
100
AcDbLine
 62
7
  6
BYLAYER
 10
30.3615942982
 20
39.7034558044
 11
29.2927943022
 21
40.3205277698
  0
LINE
  5
24A
100
AcDbEntity
  8
00_COMPONENTS_3
100
AcDbLine
 62
7
  6
BYLAYER
 10
62.7552943062
 20
39.0215474015
 11
30.7552942982
 21
39.0215474015
  0
LINE
  5
24B
100
AcDbEntity
  8
00_COMPONENTS_3
100
AcDbLine
 62
7
  6
BYLAYER
 10
30.3615942982
 20
39.7034558044
 11
63.1489943062
 21
39.7034558044
  0
LINE
  5
24C
100
AcDbEntity
  8
00_COMPONENTS
100
AcDbLine
 62
7
  6
BYLAYER
 10
26.1177943022
 20
14.9449530035
 11
26.1177943022
 21
11.9907518349
  0
LINE
  5
24D
100
AcDbEntity
  8
0
100
AcDbLine
 62
7
  6
BYLAYER
 10
26.1813095574
 20
74.0223530038
 11
26.1813095574
 21
68.561353006
  0
LINE
  5
24E
100
AcDbEntity
  8
0
100
AcDbLine
 62
7
  6
BYLAYER
 10
26.2084682972
 20
100.7210755487
 11
26.2084682972
 21
102.1180755487
  0
LINE
  5
24F
100
AcDbEntity
  8
0
100
AcDbLine
 62
7
  6
BYLAYER
 10
26.4352943022
 20
63.9639530035
 11
26.4352943022
 21
92.8183530035
  0
LINE
  5
250
100
AcDbEntity
  8
0
100
AcDbLine
 62
7
  6
BYLAYER
 10
26.4606943022
 20
63.9639530035
 11
26.4606943022
 21
61.9319530035
  0
LINE
  5
251
100
AcDbEntity
  8
0
100
AcDbLine
 62
7
  6
BYLAYER
 10
26.5115575477
 20
63.9639530035
 11
26.5115575477
 21
60.6619530035
  0
LINE
  5
252
100
AcDbEntity
  8
0
100
AcDbLine
 62
7
  6
BYLAYER
 10
26.5622943022
 20
117.4563530035
 11
26.5622943022
 21
102.4719015537
  0
LINE
  5
253
100
AcDbEntity
  8
0
100
AcDbLine
 62
7
  6
BYLAYER
 10
26.5622943022
 20
100.3672495437
 11
26.5622943022
 21
92.8183530035
  0
LINE
  5
254
100
AcDbEntity
  8
00_COMPONENTS_3
100
AcDbLine
 62
7
  6
BYLAYER
 10
26.9115443022
 20
47.8835530035
 11
26.9115443022
 21
49.4075530035
  0
LINE
  5
255
100
AcDbEntity
  8
0
100
AcDbLine
 62
7
  6
BYLAYER
 10
26.9115443022
 20
55.8083530035
 11
26.9115443022
 21
57.3958530035
  0
LINE
  5
256
100
AcDbEntity
  8
0
100
AcDbLine
 62
7
  6
BYLAYER
 10
27.2552943022
 20
59.3958530035
 11
27.2552943022
 21
60.6619530035
  0
LINE
  5
257
100
AcDbEntity
  8
0
100
AcDbLine
 62
7
  6
BYLAYER
 10
27.2988943022
 20
63.9639530035
 11
27.2988943075
 21
60.6619530035
  0
LINE
  5
258
100
AcDbEntity
  8
0
100
AcDbLine
 62
7
  6
BYLAYER
 10
62.9915973691
 20
111.3856998656
 11
58.5126965741
 21
106.9067990706
  0
LINE
  5
259
100
AcDbEntity
  8
0
100
AcDbLine
 62
7
  6
BYLAYER
 10
55.6277873498
 20
101.1122868631
 11
53.7419335644
 21
99.2264330777
  0
LINE
  5
25A
100
AcDbEntity
  8
0
100
AcDbLine
 62
7
  6
BYLAYER
 10
53.8496966378
 20
99.1186700042
 11
55.7355504233
 21
101.0045237897
  0
LINE
  5
25B
100
AcDbEntity
  8
00_COMPONENTS_3
100
AcDbLine
 62
7
  6
BYLAYER
 10
28.3402943022
 20
46.6135530035
 11
28.3402943022
 21
47.8835530035
  0
LINE
  5
25C
100
AcDbEntity
  8
0
100
AcDbLine
 62
7
  6
BYLAYER
 10
28.7552943022
 20
57.3958530035
 11
28.7552943022
 21
59.3958530035
  0
LINE
  5
25D
100
AcDbEntity
  8
0
100
AcDbLine
 62
7
  6
BYLAYER
 10
28.9752943022
 20
60.6619530035
 11
28.9752943022
 21
63.9639530035
  0
LINE
  5
25E
100
AcDbEntity
  8
00_COMPONENTS_3
100
AcDbLine
 62
7
  6
BYLAYER
 10
29.2927943022
 20
40.3204193005
 11
29.2927943022
 21
46.6135530035
  0
LINE
  5
25F
100
AcDbEntity
  8
0
100
AcDbLine
 62
7
  6
BYLAYER
 10
29.7626310567
 20
63.9639530035
 11
29.7626310567
 21
60.6619530035
  0
LINE
  5
260
100
AcDbEntity
  8
00_COMPONENTS_3
100
AcDbLine
 62
7
  6
BYLAYER
 10
30.7552942982
 20
27.6564581906
 11
30.7552942982
 21
39.0215474015
  0
LINE
  5
261
100
AcDbEntity
  8
0
100
AcDbLine
 62
7
  6
BYLAYER
 10
31.1342943022
 20
92.8183530035
 11
31.1342943022
 21
63.9639530035
  0
LINE
  5
262
100
AcDbEntity
  8
0
100
AcDbLine
 62
7
  6
BYLAYER
 10
31.7692943022
 20
49.4075530035
 11
31.7692943022
 21
55.8083530035
  0
LINE
  5
263
100
AcDbEntity
  8
0
100
AcDbLine
 62
7
  6
BYLAYER
 10
56.1845632293
 20
100.5555109836
 11
54.2987094439
 21
98.6696571982
  0
LINE
  5
264
100
AcDbEntity
  8
0
100
AcDbLine
 62
7
  6
BYLAYER
 10
56.7143983405
 20
100.0256758725
 11
62.1564335498
 21
105.4677110818
  0
LINE
  5
265
100
AcDbEntity
  8
0
100
AcDbLine
 62
7
  6
BYLAYER
 10
57.1005493537
 20
100.3579453489
 11
56.9209442313
 21
100.1783402265
  0
LINE
  5
266
100
AcDbEntity
  8
0
100
AcDbLine
 62
7
  6
BYLAYER
 10
56.382128864
 20
99.6395248593
 11
54.8554853234
 21
98.1128813187
  0
LINE
  5
267
100
AcDbEntity
  8
0
100
AcDbLine
 62
7
  6
BYLAYER
 10
59.1065535252
 20
102.2673328462
 11
59.7531319659
 21
102.9139112869
  0
LINE
  5
268
100
AcDbEntity
  8
0
100
AcDbLine
 62
7
  6
BYLAYER
 10
60.3753023606
 20
102.2917408923
 11
59.7287239199
 21
101.6451624515
  0
LINE
  5
269
100
AcDbEntity
  8
00_COMPONENTS_3
100
AcDbLine
 62
7
  6
BYLAYER
 10
28.3402943022
 20
46.6135530035
 11
65.424290118
 21
46.6135530035
  0
LINE
  5
26A
100
AcDbEntity
  8
00_COMPONENTS_3
100
AcDbLine
 62
7
  6
BYLAYER
 10
26.9116891964
 20
47.8835530035
 11
66.598899408
 21
47.8835530035
  0
LINE
  5
26B
100
AcDbEntity
  8
00_COMPONENTS_3
100
AcDbLine
 62
7
  6
BYLAYER
 10
26.9116891964
 20
49.4075530035
 11
66.598899408
 21
49.4075530035
  0
LINE
  5
26C
100
AcDbEntity
  8
00_COMPONENTS_3
100
AcDbLine
 62
7
  6
BYLAYER
 10
32.3673994854
 20
20.6543530035
 11
32.3673994854
 21
26.0443530035
  0
LINE
  5
26D
100
AcDbEntity
  8
0
100
AcDbLine
 62
7
  6
BYLAYER
 10
33.5726943022
 20
62.9479530035
 11
33.5726943022
 21
61.9319530035
  0
LINE
  5
26E
100
AcDbEntity
  8
00_COMPONENTS
100
AcDbLine
 62
7
  6
BYLAYER
 10
34.1441943022
 20
20.6543530035
 11
34.1441943022
 21
15.1989530035
  0
LINE
  5
26F
100
AcDbEntity
  8
0
100
AcDbLine
 62
7
  6
BYLAYER
 10
34.4986943022
 20
60.6619530035
 11
34.4986943022
 21
62.9479530035
  0
LINE
  5
270
100
AcDbEntity
  8
0
100
AcDbLine
 62
7
  6
BYLAYER
 10
57.3340360128
 20
95.6343306293
 11
58.8606795534
 21
97.1609741698
  0
LINE
  5
271
100
AcDbEntity
  8
0
100
AcDbLine
 62
7
  6
BYLAYER
 10
59.3994949207
 20
97.6997895371
 11
59.5791000431
 21
97.8793946595
  0
LINE
  5
272
100
AcDbEntity
  8
0
100
AcDbLine
 62
7
  6
BYLAYER
 10
59.2468305666
 20
97.4932436463
 11
64.688865776
 21
102.9352788557
  0
LINE
  5
273
100
AcDbEntity
  8
0
100
AcDbLine
 62
7
  6
BYLAYER
 10
57.8908118923
 20
95.0775547498
 11
59.7766656778
 21
96.9634085352
  0
LINE
  5
274
100
AcDbEntity
  8
0
100
AcDbLine
 62
7
  6
BYLAYER
 10
60.2256784838
 20
96.5143957291
 11
58.3398246984
 21
94.6285419437
  0
LINE
  5
275
100
AcDbEntity
  8
0
100
AcDbLine
 62
7
  6
BYLAYER
 10
58.4475877718
 20
94.5207788702
 11
60.3334415573
 21
96.4066326557
  0
LINE
  5
276
100
AcDbEntity
  8
0
100
AcDbLine
 62
7
  6
BYLAYER
 10
26.4352943022
 20
76.576950991
 11
26.3514572946
 21
76.7221609477
  0
LINE
  5
277
100
AcDbEntity
  8
0
100
AcDbLine
 62
7
  6
BYLAYER
 10
36.1126943022
 20
62.9479530035
 11
36.1126943022
 21
63.9639530035
  0
LINE
  5
278
100
AcDbEntity
  8
00_COMPONENTS_3
100
AcDbLine
 62
7
  6
BYLAYER
 10
39.5220899693
 20
46.6135530035
 11
39.5220899693
 21
41.1512042092
  0
LINE
  5
279
100
AcDbEntity
  8
0
100
AcDbLine
 62
7
  6
BYLAYER
 10
67.3021203072
 20
100.7210755487
 11
59.5252185064
 21
92.9441737478
  0
LINE
  5
27A
100
AcDbEntity
  8
0
100
AcDbLine
 62
7
  6
BYLAYER
 10
26.9118000589
 20
55.8083530035
 11
66.5987885455
 21
55.8083530035
  0
LINE
  5
27B
100
AcDbEntity
  8
0
100
AcDbLine
 62
7
  6
BYLAYER
 10
66.5987885455
 20
57.3958530035
 11
26.9118000589
 21
57.3958530035
  0
LINE
  5
27C
100
AcDbEntity
  8
0
100
AcDbLine
 62
7
  6
BYLAYER
 10
40.1512943022
 20
60.6619530035
 11
40.1512943022
 21
63.9639530035
  0
LINE
  5
27D
100
AcDbEntity
  8
00_COMPONENTS_3
100
AcDbLine
 62
7
  6
BYLAYER
 10
41.1990443022
 20
49.4075530035
 11
41.1990443022
 21
47.8835530035
  0
LINE
  5
27E
100
AcDbEntity
  8
0
100
AcDbLine
 62
7
  6
BYLAYER
 10
41.2167698724
 20
63.9639530035
 11
41.2167698724
 21
62.4399530035
  0
LINE
  5
27F
100
AcDbEntity
  8
0
100
AcDbLine
 62
7
  6
BYLAYER
 10
41.7260942997
 20
62.4399530035
 11
41.7260942997
 21
60.6619530035
  0
LINE
  5
280
100
AcDbEntity
  8
0
100
AcDbLine
 62
7
  6
BYLAYER
 10
41.9800943022
 20
62.4399530035
 11
41.9800943022
 21
62.1605530035
  0
LINE
  5
281
100
AcDbEntity
  8
0
100
AcDbLine
 62
7
  6
BYLAYER
 10
27.2552943022
 20
59.3958530035
 11
66.2552943022
 21
59.3958530035
  0
LINE
  5
282
100
AcDbEntity
  8
0
100
AcDbLine
 62
7
  6
BYLAYER
 10
26.5115667719
 20
60.6619530035
 11
66.9990218325
 21
60.6619530035
  0
LINE
  5
283
100
AcDbEntity
  8
0
100
AcDbLine
 62
7
  6
BYLAYER
 10
43.4532943022
 20
62.1605530035
 11
43.4532943022
 21
60.6619530035
  0
LINE
  5
284
100
AcDbEntity
  8
0
100
AcDbLine
 62
7
  6
BYLAYER
 10
43.5167943022
 20
117.4563530035
 11
43.5167943022
 21
119.2597530035
  0
LINE
  5
285
100
AcDbEntity
  8
00_COMPONENTS_3
100
AcDbLine
 62
7
  6
BYLAYER
 10
43.6862006249
 20
47.8835530035
 11
43.6862006249
 21
46.6135530035
  0
LINE
  5
286
100
AcDbEntity
  8
0
100
AcDbLine
 62
7
  6
BYLAYER
 10
46.0606147502
 20
62.4399530035
 11
46.0606147502
 21
63.9639530035
  0
LINE
  5
287
100
AcDbEntity
  8
0
100
AcDbLine
 62
7
  6
BYLAYER
 10
57.574764814
 20
100.886042346
 11
57.5495621597
 21
100.806958155
  0
LINE
  5
288
100
AcDbEntity
  8
0
100
AcDbLine
 62
7
  6
BYLAYER
 10
26.4606943022
 20
61.9319530035
 11
26.5115575477
 21
61.9319530035
  0
LINE
  5
289
100
AcDbEntity
  8
0
100
AcDbLine
 62
7
  6
BYLAYER
 10
29.7626310567
 20
61.9319530035
 11
33.5726943022
 21
61.9319530035
  0
LINE
  5
28A
100
AcDbEntity
  8
0
100
AcDbLine
 62
7
  6
BYLAYER
 10
59.9378943022
 20
61.9319530035
 11
63.7479575477
 21
61.9319530035
  0
LINE
  5
28B
100
AcDbEntity
  8
0
100
AcDbLine
 62
7
  6
BYLAYER
 10
66.9990310567
 20
61.9319530035
 11
67.0498943022
 21
61.9319530035
  0
LINE
  5
28C
100
AcDbEntity
  8
0
100
AcDbLine
 62
7
  6
BYLAYER
 10
41.9800943022
 20
62.1605530035
 11
51.5304943022
 21
62.1605530035
  0
LINE
  5
28D
100
AcDbEntity
  8
0
100
AcDbLine
 62
7
  6
BYLAYER
 10
52.293818732
 20
62.4399530035
 11
47.4499738542
 21
62.4399530035
  0
LINE
  5
28E
100
AcDbEntity
  8
0
100
AcDbLine
 62
7
  6
BYLAYER
 10
46.0606147502
 20
62.4399530035
 11
41.2167698724
 21
62.4399530035
  0
LINE
  5
28F
100
AcDbEntity
  8
0
100
AcDbLine
 62
7
  6
BYLAYER
 10
33.5726943022
 20
62.9479530035
 11
36.1126943022
 21
62.9479530035
  0
LINE
  5
290
100
AcDbEntity
  8
0
100
AcDbLine
 62
7
  6
BYLAYER
 10
57.3978943022
 20
62.9479530035
 11
59.9378943022
 21
62.9479530035
  0
LINE
  5
291
100
AcDbEntity
  8
0
100
AcDbLine
 62
7
  6
BYLAYER
 10
26.4352943022
 20
63.9639530035
 11
67.0752943022
 21
63.9639530035
  0
LINE
  5
292
100
AcDbEntity
  8
0
100
AcDbLine
 62
7
  6
BYLAYER
 10
47.4499738542
 20
63.9639530035
 11
47.4499738542
 21
62.4399530035
  0
LINE
  5
293
100
AcDbEntity
  8
00_COMPONENTS_3
100
AcDbLine
 62
7
  6
BYLAYER
 10
49.8243879795
 20
46.6135530035
 11
49.8243879795
 21
47.8835530035
  0
LINE
  5
294
100
AcDbEntity
  8
0
100
AcDbLine
 62
7
  6
BYLAYER
 10
49.9937943022
 20
117.4563530035
 11
49.9937943022
 21
119.2597530035
  0
LINE
  5
295
100
AcDbEntity
  8
0
100
AcDbLine
 62
7
  6
BYLAYER
 10
50.0572943022
 20
62.1605530035
 11
50.0572943022
 21
60.6619530035
  0
LINE
  5
296
100
AcDbEntity
  8
0
100
AcDbLine
 62
7
  6
BYLAYER
 10
35.9610264447
 20
100.806958155
 11
35.9358237904
 21
100.886042346
  0
LINE
  5
297
100
AcDbEntity
  8
0
100
AcDbLine
 62
7
  6
BYLAYER
 10
51.5304943022
 20
62.1605530035
 11
51.5304943022
 21
62.4399530035
  0
LINE
  5
298
100
AcDbEntity
  8
0
100
AcDbLine
 62
7
  6
BYLAYER
 10
51.7844943022
 20
60.6619530035
 11
51.7844943022
 21
62.4399530035
  0
LINE
  5
299
100
AcDbEntity
  8
0
100
AcDbLine
 62
7
  6
BYLAYER
 10
52.293818732
 20
62.4399530035
 11
52.293818732
 21
63.9639530035
  0
LINE
  5
29A
100
AcDbEntity
  8
00_COMPONENTS_3
100
AcDbLine
 62
7
  6
BYLAYER
 10
52.3115443022
 20
47.8835530035
 11
52.3115443022
 21
49.4075530035
  0
LINE
  5
29B
100
AcDbEntity
  8
0
100
AcDbLine
 62
7
  6
BYLAYER
 10
53.3592942997
 20
63.9639530035
 11
53.3592942997
 21
60.6619530035
  0
LINE
  5
29C
100
AcDbEntity
  8
00_COMPONENTS_3
100
AcDbLine
 62
7
  6
BYLAYER
 10
53.9884986351
 20
46.6135530035
 11
53.9884986351
 21
41.1512042092
  0
LINE
  5
29D
100
AcDbEntity
  8
0
100
AcDbLine
 62
7
  6
BYLAYER
 10
57.3978943022
 20
63.9639530035
 11
57.3978943022
 21
62.9479530035
  0
LINE
  5
29E
100
AcDbEntity
  8
0
100
AcDbLine
 62
7
  6
BYLAYER
 10
67.1591618202
 20
76.7221609476
 11
67.0752943022
 21
76.5768981453
  0
LINE
  5
29F
100
AcDbEntity
  8
0
100
AcDbLine
 62
7
  6
BYLAYER
 10
33.985370098
 20
92.9441737478
 11
26.2084682972
 21
100.7210755487
  0
LINE
  5
2A0
100
AcDbEntity
  8
00_COMPONENTS
100
AcDbLine
 62
7
  6
BYLAYER
 10
59.3663943022
 20
20.6543530035
 11
59.3663943022
 21
15.1989530035
  0
LINE
  5
2A1
100
AcDbEntity
  8
0
100
AcDbLine
 62
7
  6
BYLAYER
 10
59.9378943022
 20
61.9319530035
 11
59.9378943022
 21
62.9479530035
  0
LINE
  5
2A2
100
AcDbEntity
  8
00_COMPONENTS_3
100
AcDbLine
 62
7
  6
BYLAYER
 10
61.143189119
 20
20.6543530035
 11
61.143189119
 21
26.0443530035
  0
LINE
  5
2A3
100
AcDbEntity
  8
0
100
AcDbLine
 62
7
  6
BYLAYER
 10
61.7412943022
 20
49.4075530035
 11
61.7412943022
 21
55.8083530035
  0
LINE
  5
2A4
100
AcDbEntity
  8
0
100
AcDbLine
 62
7
  6
BYLAYER
 10
62.3762943022
 20
63.9639530035
 11
62.3762943022
 21
92.8183530035
  0
LINE
  5
2A5
100
AcDbEntity
  8
0
100
AcDbLine
 62
7
  6
BYLAYER
 10
33.1771470471
 20
96.4066326557
 11
35.0630008326
 21
94.5207788702
  0
LINE
  5
2A6
100
AcDbEntity
  8
0
100
AcDbLine
 62
7
  6
BYLAYER
 10
35.170763906
 20
94.6285419437
 11
33.2849101206
 21
96.5143957291
  0
LINE
  5
2A7
100
AcDbEntity
  8
0
100
AcDbLine
 62
7
  6
BYLAYER
 10
33.7339229266
 20
96.9634085352
 11
35.6197767121
 21
95.0775547497
  0
LINE
  5
2A8
100
AcDbEntity
  8
0
100
AcDbLine
 62
7
  6
BYLAYER
 10
34.2637580378
 20
97.4932436463
 11
28.8217228284
 21
102.9352788557
  0
LINE
  5
2A9
100
AcDbEntity
  8
0
100
AcDbLine
 62
7
  6
BYLAYER
 10
33.9314885613
 20
97.8793946595
 11
34.1110936837
 21
97.6997895371
  0
LINE
  5
2AA
100
AcDbEntity
  8
0
100
AcDbLine
 62
7
  6
BYLAYER
 10
34.649909051
 20
97.1609741698
 11
36.1765525916
 21
95.6343306293
  0
LINE
  5
2AB
100
AcDbEntity
  8
0
100
AcDbLine
 62
7
  6
BYLAYER
 10
32.0221010641
 20
99.885398831
 11
31.3755226233
 21
100.5319772718
  0
LINE
  5
2AC
100
AcDbEntity
  8
0
100
AcDbLine
 62
7
  6
BYLAYER
 10
31.997693018
 20
101.1541476664
 11
32.6442714587
 21
100.5075692257
  0
LINE
  5
2AD
100
AcDbEntity
  8
00_COMPONENTS_3
100
AcDbLine
 62
7
  6
BYLAYER
 10
62.7552943062
 20
27.6564581906
 11
62.7552943062
 21
39.0215474015
  0
LINE
  5
2AE
100
AcDbEntity
  8
0
100
AcDbLine
 62
7
  6
BYLAYER
 10
63.7479575477
 20
63.9639530035
 11
63.7479575477
 21
60.6619530035
  0
LINE
  5
2AF
100
AcDbEntity
  8
00_COMPONENTS_3
100
AcDbLine
 62
7
  6
BYLAYER
 10
64.2177943022
 20
46.6135530035
 11
64.2177943022
 21
40.3204193005
  0
LINE
  5
2B0
100
AcDbEntity
  8
0
100
AcDbLine
 62
7
  6
BYLAYER
 10
64.5352943077
 20
63.9639530035
 11
64.5352943075
 21
60.6619530035
  0
LINE
  5
2B1
100
AcDbEntity
  8
0
100
AcDbLine
 62
7
  6
BYLAYER
 10
64.7552943022
 20
59.3958530035
 11
64.7552943022
 21
57.3958530035
  0
LINE
  5
2B2
100
AcDbEntity
  8
00_COMPONENTS_3
100
AcDbLine
 62
7
  6
BYLAYER
 10
65.4242943022
 20
46.6135530035
 11
65.4242943022
 21
47.8835530035
  0
LINE
  5
2B3
100
AcDbEntity
  8
0
100
AcDbLine
 62
7
  6
BYLAYER
 10
66.2116942969
 20
60.6619530035
 11
66.211694297
 21
63.9639530035
  0
LINE
  5
2B4
100
AcDbEntity
  8
0
100
AcDbLine
 62
7
  6
BYLAYER
 10
66.2552943022
 20
60.6619530035
 11
66.2552943022
 21
59.3958530035
  0
LINE
  5
2B5
100
AcDbEntity
  8
00_COMPONENTS_3
100
AcDbLine
 62
7
  6
BYLAYER
 10
66.5990443022
 20
47.8835530035
 11
66.5990443022
 21
49.4075530035
  0
LINE
  5
2B6
100
AcDbEntity
  8
0
100
AcDbLine
 62
7
  6
BYLAYER
 10
66.5990443022
 20
55.8083530035
 11
66.5990443022
 21
57.3958530035
  0
LINE
  5
2B7
100
AcDbEntity
  8
0
100
AcDbLine
 62
7
  6
BYLAYER
 10
38.655103281
 20
98.1128813187
 11
37.1284597404
 21
99.6395248593
  0
LINE
  5
2B8
100
AcDbEntity
  8
0
100
AcDbLine
 62
7
  6
BYLAYER
 10
36.5896443732
 20
100.1783402265
 11
36.4100392507
 21
100.3579453489
  0
LINE
  5
2B9
100
AcDbEntity
  8
0
100
AcDbLine
 62
7
  6
BYLAYER
 10
36.7961902639
 20
100.0256758725
 11
31.3541550546
 21
105.4677110818
  0
LINE
  5
2BA
100
AcDbEntity
  8
0
100
AcDbLine
 62
7
  6
BYLAYER
 10
39.2118791605
 20
98.6696571982
 11
37.3260253751
 21
100.5555109836
  0
LINE
  5
2BB
100
AcDbEntity
  8
0
100
AcDbLine
 62
7
  6
BYLAYER
 10
37.7750381811
 20
101.0045237897
 11
39.6608919666
 21
99.1186700042
  0
LINE
  5
2BC
100
AcDbEntity
  8
0
100
AcDbLine
 62
7
  6
BYLAYER
 10
39.76865504
 20
99.2264330777
 11
37.8828012546
 21
101.1122868631
  0
LINE
  5
2BD
100
AcDbEntity
  8
0
100
AcDbLine
 62
7
  6
BYLAYER
 10
66.9482943022
 20
92.8183530035
 11
66.9482943022
 21
100.3672495437
  0
LINE
  5
2BE
100
AcDbEntity
  8
0
100
AcDbLine
 62
7
  6
BYLAYER
 10
66.9482943022
 20
102.4719015537
 11
66.9482943022
 21
117.4563530035
  0
LINE
  5
2BF
100
AcDbEntity
  8
0
100
AcDbLine
 62
7
  6
BYLAYER
 10
66.9990310567
 20
63.9639530035
 11
66.9990310567
 21
60.6619530035
  0
LINE
  5
2C0
100
AcDbEntity
  8
0
100
AcDbLine
 62
7
  6
BYLAYER
 10
67.0498943022
 20
61.9319530035
 11
67.0498943022
 21
63.9639530035
  0
LINE
  5
2C1
100
AcDbEntity
  8
0
100
AcDbLine
 62
7
  6
BYLAYER
 10
67.0752943022
 20
92.8183530035
 11
67.0752943022
 21
63.9639530035
  0
LINE
  5
2C2
100
AcDbEntity
  8
0
100
AcDbLine
 62
7
  6
BYLAYER
 10
67.3021203072
 20
102.1180755487
 11
67.3021203072
 21
100.7210755487
  0
LINE
  5
2C3
100
AcDbEntity
  8
0
100
AcDbLine
 62
7
  6
BYLAYER
 10
67.3293095574
 20
68.561353006
 11
67.3293095574
 21
74.0223530038
  0
LINE
  5
2C4
100
AcDbEntity
  8
00_COMPONENTS
100
AcDbLine
 62
7
  6
BYLAYER
 10
67.3927943022
 20
14.9449530035
 11
67.3927943022
 21
11.9907518349
  0
LINE
  5
2C5
100
AcDbEntity
  8
0
100
AcDbLine
 62
7
  6
BYLAYER
 10
34.9978920303
 20
106.9067990706
 11
30.5189912353
 21
111.3856998656
  0
LINE
  5
2C6
100
AcDbEntity
  8
00_COMPONENTS_3
100
AcDbLine
 62
7
  6
BYLAYER
 10
63.1489943062
 20
39.7034558044
 11
64.2177943022
 21
40.3205277698
  0
LINE
  5
2C7
100
AcDbEntity
  8
0
100
AcDbLine
 62
7
  6
BYLAYER
 10
67.0752943022
 20
92.8183530035
 11
26.4352943022
 21
92.8183530035
  0
LINE
  5
2C8
100
AcDbEntity
  8
0
100
AcDbLine
 62
7
  6
BYLAYER
 10
59.5252185064
 20
92.9441737478
 11
33.985370098
 21
92.9441737478
  0
LINE
  5
2C9
100
AcDbEntity
  8
0
100
AcDbLine
 62
7
  6
BYLAYER
 10
33.4033915643
 20
98.3536101199
 11
33.4824757553
 21
98.3284074656
  0
LINE
  5
2CA
100
AcDbEntity
  8
0
100
AcDbLine
 62
7
  6
BYLAYER
 10
53.7419335644
 20
99.2264330777
 11
58.4475877718
 21
94.5207788702
  0
LINE
  5
2CB
100
AcDbEntity
  8
0
100
AcDbLine
 62
7
  6
BYLAYER
 10
59.4174554329
 20
96.6041982903
 11
55.8253529845
 21
100.1963007388
  0
LINE
  5
2CC
100
AcDbEntity
  8
0
100
AcDbLine
 62
7
  6
BYLAYER
 10
60.3334415573
 20
96.4066326557
 11
59.2468305666
 21
97.4932436463
  0
LINE
  5
2CD
100
AcDbEntity
  8
0
100
AcDbLine
 62
7
  6
BYLAYER
 10
56.7143983405
 20
100.0256758725
 11
55.6277873498
 21
101.1122868631
  0
LINE
  5
2CE
100
AcDbEntity
  8
0
100
AcDbLine
 62
7
  6
BYLAYER
 10
56.8940034629
 20
100.2052809949
 11
59.426435689
 21
97.6728487687
  0
LINE
  5
2CF
100
AcDbEntity
  8
0
100
AcDbLine
 62
7
  6
BYLAYER
 10
59.6060408115
 20
97.8524538912
 11
57.0736085853
 21
100.3848861173
  0
LINE
  5
2D0
100
AcDbEntity
  8
0
100
AcDbLine
 62
7
  6
BYLAYER
 10
57.5226213914
 20
100.8338989234
 11
60.0550536175
 21
98.3014666972
  0
LINE
  5
2D1
100
AcDbEntity
  8
0
100
AcDbLine
 62
7
  6
BYLAYER
 10
58.6002521259
 20
101.9115296579
 11
61.132684352
 21
99.3790974317
  0
LINE
  5
2D2
100
AcDbEntity
  8
0
100
AcDbLine
 62
7
  6
BYLAYER
 10
59.7287239199
 20
101.6451624515
 11
59.1065535252
 21
102.2673328462
  0
LINE
  5
2D3
100
AcDbEntity
  8
00_COMPONENTS_3
100
AcDbLine
 62
7
  6
BYLAYER
 10
61.143189119
 20
26.0443530035
 11
62.7552943062
 21
27.6564581906
  0
LINE
  5
2D4
100
AcDbEntity
  8
0
100
AcDbLine
 62
7
  6
BYLAYER
 10
62.2103150866
 20
100.4567281663
 11
59.6778828604
 21
102.9891603924
  0
LINE
  5
2D5
100
AcDbEntity
  8
0
100
AcDbLine
 62
7
  6
BYLAYER
 10
66.0002702016
 20
99.4192254431
 11
63.5865412825
 21
101.8329543622
  0
LINE
  5
2D6
100
AcDbEntity
  8
0
100
AcDbLine
 62
7
  6
BYLAYER
 10
61.0541090564
 20
104.3653865884
 11
58.5126965741
 21
106.9067990706
  0
LINE
  5
2D7
100
AcDbEntity
  8
0
100
AcDbLine
 62
7
  6
BYLAYER
 10
64.688865776
 20
102.9352788557
 11
62.1564335498
 21
105.4677110818
  0
LINE
  5
2D8
100
AcDbEntity
  8
0
100
AcDbLine
 62
7
  6
BYLAYER
 10
60.5130466797
 20
108.9071491762
 11
67.3021203072
 21
102.1180755487
  0
LINE
  5
2D9
100
AcDbEntity
  8
0
100
AcDbLine
 62
7
  6
BYLAYER
 10
60.9912472635
 20
109.38534976
 11
52.9202440201
 21
117.4563530035
  0
LINE
  5
2DA
100
AcDbEntity
  8
0
100
AcDbLine
 62
7
  6
BYLAYER
 10
56.9209442313
 20
117.4563530035
 11
62.9915973691
 21
111.3856998656
  0
LINE
  5
2DB
100
AcDbEntity
  8
0
100
AcDbLine
 62
7
  6
BYLAYER
 10
26.5622943022
 20
117.4563530035
 11
66.9482943022
 21
117.4563530035
  0
LINE
  5
2DC
100
AcDbEntity
  8
0
100
AcDbLine
 62
7
  6
BYLAYER
 10
49.9937943022
 20
119.2597530035
 11
43.5167943022
 21
119.2597530035
  0
ARC
  5
2DD
100
AcDbEntity
  8
0
100
AcDbCircle
 62
7
  6
BYLAYER
 10
64.2813095574
 20
68.561353006
 40
3.048
100
AcDbArc
 50
336.5159756509
 51
360.0
  0
ARC
  5
2DE
100
AcDbEntity
  8
0
100
AcDbCircle
 62
7
  6
BYLAYER
 10
29.2293095574
 20
68.561353006
 40
3.048
100
AcDbArc
 50
180.0
 51
203.4830933658
  0
ARC
  5
2DF
100
AcDbEntity
  8
0
100
AcDbCircle
 62
7
  6
BYLAYER
 10
66.0593095574
 20
77.3571609476
 40
1.27
100
AcDbArc
 50
329.9999999985
 51
35.3811909722
  0
ARC
  5
2E0
100
AcDbEntity
  8
0
100
AcDbCircle
 62
7
  6
BYLAYER
 10
66.0593095574
 20
74.0223530038
 40
1.27
100
AcDbArc
 50
0.0
 51
36.4223645273
  0
ARC
  5
2E1
100
AcDbEntity
  8
0
100
AcDbCircle
 62
7
  6
BYLAYER
 10
27.4513095574
 20
74.0223530038
 40
1.27
100
AcDbArc
 50
143.5801657359
 51
180.0
  0
ARC
  5
2E2
100
AcDbEntity
  8
0
100
AcDbCircle
 62
7
  6
BYLAYER
 10
27.4513095574
 20
77.3571609476
 40
1.27
100
AcDbArc
 50
144.621333628
 51
209.9999999983
  0
ARC
  5
2E3
100
AcDbEntity
  8
00_COMPONENTS_3
100
AcDbCircle
 62
7
  6
BYLAYER
 10
63.5426943062
 20
39.0215474015
 40
0.7874
100
AcDbArc
 50
120.0
 51
180.0
  0
ARC
  5
2E4
100
AcDbEntity
  8
00_COMPONENTS_3
100
AcDbCircle
 62
7
  6
BYLAYER
 10
29.9678942982
 20
39.0215474015
 40
0.7874
100
AcDbArc
 50
0.0
 51
60.0
  0
ARC
  5
2E5
100
AcDbEntity
  8
00_COMPONENTS
100
AcDbCircle
 62
7
  6
BYLAYER
 10
26.3717943022
 20
14.9449530035
 40
0.254
100
AcDbArc
 50
90.0
 51
180.0
  0
ARC
  5
2E6
100
AcDbEntity
  8
00_COMPONENTS
100
AcDbCircle
 62
7
  6
BYLAYER
 10
67.1387943022
 20
14.9449530035
 40
0.254
100
AcDbArc
 50
0.0
 51
90.0
  0
ARC
  5
2E7
100
AcDbEntity
  8
00_COMPONENTS
100
AcDbCircle
 62
7
  6
BYLAYER
 10
67.1387943022
 20
11.9907518349
 40
0.254
100
AcDbArc
 50
278.0
 51
360.0
  0
ARC
  5
2E8
100
AcDbEntity
  8
00_COMPONENTS
100
AcDbCircle
 62
7
  6
BYLAYER
 10
26.3717943022
 20
11.9907518349
 40
0.254
100
AcDbArc
 50
180.0
 51
262.0
  0
ARC
  5
2E9
100
AcDbEntity
  8
00_COMPONENTS
100
AcDbCircle
 62
7
  6
BYLAYER
 10
35.0966943022
 20
11.6837544355
 40
0.254
100
AcDbArc
 50
247.1582872456
 51
262.0
  0
ARC
  5
2EA
100
AcDbEntity
  8
00_COMPONENTS
100
AcDbCircle
 62
7
  6
BYLAYER
 10
58.4138943022
 20
11.6837544355
 40
0.254
100
AcDbArc
 50
278.0
 51
292.8417127544
  0
SPLINE
  5
2EB
100
AcDbEntity
  8
0
100
AcDbSpline
 62
7
  6
BYLAYER
 70
0
 71
3
 72
15
 73
11
 74
0
 42
0.0000001
 43
0.0000001
 44
0.0000000001
 40
0.0
 40
0.0
 40
0.0
 40
0.0
 40
0.0762796551
 40
0.1604963053
 40
0.2581855293
 40
0.3724034092
 40
0.5042198134
 40
0.6535053273
 40
0.8193679375
 40
1.0
 40
1.0
 40
1.0
 40
1.0
 10
61.286714024
 20
106.6095689271
 30
0.0
 10
61.2545795258
 20
106.5774344289
 30
0.0
 10
61.1994570671
 20
106.4964646421
 30
0.0
 10
61.1582470037
 20
106.3461915285
 30
0.0
 10
61.154238224
 20
106.1685478114
 30
0.0
 10
61.1858995779
 20
105.9654636489
 30
0.0
 10
61.2522814947
 20
105.738970389
 30
0.0
 10
61.3525692282
 20
105.4919092093
 30
0.0
 10
61.485348719
 20
105.2277871093
 30
0.0
 10
61.5901582223
 20
105.0497677733
 30
0.0
 10
61.6472979982
 20
104.9585755302
 30
0.0
  0
SPLINE
  5
2EC
100
AcDbEntity
  8
0
100
AcDbSpline
 62
7
  6
BYLAYER
 70
0
 71
3
 72
15
 73
11
 74
0
 42
0.0000001
 43
0.0000001
 44
0.0000000001
 40
0.0
 40
0.0
 40
0.0
 40
0.0
 40
0.1806320625
 40
0.3464946727
 40
0.4957801866
 40
0.6275965908
 40
0.7418144707
 40
0.8395036947
 40
0.9237203449
 40
1.0
 40
1.0
 40
1.0
 40
1.0
 10
64.1797302243
 20
102.426143304
 30
0.0
 10
64.2709224674
 20
102.3690035281
 30
0.0
 10
64.4489418034
 20
102.2641940248
 30
0.0
 10
64.7130639034
 20
102.1314145341
 30
0.0
 10
64.9601250831
 20
102.0311268006
 30
0.0
 10
65.186618343
 20
101.9647448837
 30
0.0
 10
65.3897025055
 20
101.9330835298
 30
0.0
 10
65.5673462227
 20
101.9370923095
 30
0.0
 10
65.7176193363
 20
101.978302373
 30
0.0
 10
65.7985891231
 20
102.0334248317
 30
0.0
 10
65.8307236213
 20
102.0655593299
 30
0.0
  0
SPLINE
  5
2ED
100
AcDbEntity
  8
0
100
AcDbSpline
 62
7
  6
BYLAYER
 70
0
 71
3
 72
15
 73
11
 74
0
 42
0.0000001
 43
0.0000001
 44
0.0000000001
 40
0.0
 40
0.0
 40
0.0
 40
0.0
 40
0.0762796551
 40
0.1604963053
 40
0.2581855293
 40
0.3724034092
 40
0.5042198134
 40
0.6535053273
 40
0.8193679375
 40
1.0
 40
1.0
 40
1.0
 40
1.0
 10
27.6798649831
 20
102.0655593299
 30
0.0
 10
27.7119994813
 20
102.0334248317
 30
0.0
 10
27.7929692681
 20
101.978302373
 30
0.0
 10
27.9432423818
 20
101.9370923095
 30
0.0
 10
28.1208860989
 20
101.9330835298
 30
0.0
 10
28.3239702614
 20
101.9647448837
 30
0.0
 10
28.5504635213
 20
102.0311268006
 30
0.0
 10
28.797524701
 20
102.1314145341
 30
0.0
 10
29.061646801
 20
102.2641940248
 30
0.0
 10
29.239666137
 20
102.3690035281
 30
0.0
 10
29.3308583801
 20
102.426143304
 30
0.0
  0
SPLINE
  5
2EE
100
AcDbEntity
  8
0
100
AcDbSpline
 62
7
  6
BYLAYER
 70
0
 71
3
 72
15
 73
11
 74
0
 42
0.0000001
 43
0.0000001
 44
0.0000000001
 40
0.0
 40
0.0
 40
0.0
 40
0.0
 40
0.1806320625
 40
0.3464946727
 40
0.4957801866
 40
0.6275965908
 40
0.7418144707
 40
0.8395036947
 40
0.9237203449
 40
1.0
 40
1.0
 40
1.0
 40
1.0
 10
31.8632906062
 20
104.9585755302
 30
0.0
 10
31.9204303821
 20
105.0497677733
 30
0.0
 10
32.0252398854
 20
105.2277871093
 30
0.0
 10
32.1580193762
 20
105.4919092093
 30
0.0
 10
32.2583071097
 20
105.738970389
 30
0.0
 10
32.3246890265
 20
105.9654636489
 30
0.0
 10
32.3563503804
 20
106.1685478114
 30
0.0
 10
32.3523416007
 20
106.3461915285
 30
0.0
 10
32.3111315373
 20
106.4964646421
 30
0.0
 10
32.2560090786
 20
106.5774344289
 30
0.0
 10
32.2238745804
 20
106.6095689271
 30
0.0
  0
SPLINE
  5
2EF
100
AcDbEntity
  8
0
100
AcDbSpline
 62
7
  6
BYLAYER
 70
0
 71
3
 72
18
 73
14
 74
0
 42
0.0000001
 43
0.0000001
 44
0.0000000001
 40
0.0
 40
0.0
 40
0.0
 40
0.0
 40
0.0320502393
 40
0.0658354606
 40
0.1027430072
 40
0.1437865228
 40
0.1896179225
 40
0.2405849253
 40
0.35813741
 40
0.4957588799
 40
0.6510061269
 40
0.8204831006
 40
1.0
 40
1.0
 40
1.0
 40
1.0
 10
65.8307236213
 20
102.0655593299
 30
0.0
 10
65.8530889228
 20
102.0879246314
 30
0.0
 10
65.8932323201
 20
102.1400213765
 30
0.0
 10
65.9344694364
 20
102.2335361194
 30
0.0
 10
65.9574403596
 20
102.3420510153
 30
0.0
 10
65.9624634416
 20
102.4645508509
 30
0.0
 10
65.9498439999
 20
102.6003220546
 30
0.0
 10
65.9076519334
 20
102.8079325619
 30
0.0
 10
65.8077734093
 20
103.0943960864
 30
0.0
 10
65.6295232203
 20
103.4587652319
 30
0.0
 10
65.3919651847
 20
103.8489675224
 30
0.0
 10
65.1017602288
 20
104.2536622818
 30
0.0
 10
64.8830355289
 20
104.5200478997
 30
0.0
 10
64.7666137847
 20
104.6535820712
 30
0.0
  0
SPLINE
  5
2F0
100
AcDbEntity
  8
0
100
AcDbSpline
 62
7
  6
BYLAYER
 70
0
 71
3
 72
18
 73
14
 74
0
 42
0.0000001
 43
0.0000001
 44
0.0000000001
 40
0.0
 40
0.0
 40
0.0
 40
0.0
 40
0.1795168994
 40
0.3489938731
 40
0.5042411201
 40
0.64186259
 40
0.7594150747
 40
0.8103820775
 40
0.8562134772
 40
0.8972569928
 40
0.9341645394
 40
0.9679497607
 40
1.0
 40
1.0
 40
1.0
 40
1.0
 10
28.7439748197
 20
104.6535820712
 30
0.0
 10
28.6275530755
 20
104.5200478997
 30
0.0
 10
28.4088283756
 20
104.2536622818
 30
0.0
 10
28.1186234197
 20
103.8489675223
 30
0.0
 10
27.8810653841
 20
103.4587652319
 30
0.0
 10
27.7028151952
 20
103.0943960864
 30
0.0
 10
27.602936671
 20
102.8079325619
 30
0.0
 10
27.5607446045
 20
102.6003220546
 30
0.0
 10
27.5481251628
 20
102.4645508509
 30
0.0
 10
27.5531482449
 20
102.3420510153
 30
0.0
 10
27.576119168
 20
102.2335361194
 30
0.0
 10
27.6173562843
 20
102.1400213765
 30
0.0
 10
27.6574996816
 20
102.0879246314
 30
0.0
 10
27.6798649831
 20
102.0655593299
 30
0.0
  0
SPLINE
  5
2F1
100
AcDbEntity
  8
0
100
AcDbSpline
 62
7
  6
BYLAYER
 70
0
 71
3
 72
18
 73
14
 74
0
 42
0.0000001
 43
0.0000001
 44
0.0000000001
 40
0.0
 40
0.0
 40
0.0
 40
0.0
 40
0.1795168994
 40
0.3489938731
 40
0.5042411201
 40
0.64186259
 40
0.7594150747
 40
0.8103820775
 40
0.8562134772
 40
0.8972569928
 40
0.9341645394
 40
0.9679497607
 40
1.0
 40
1.0
 40
1.0
 40
1.0
 10
63.8747367654
 20
105.5454590905
 30
0.0
 10
63.7412025938
 20
105.6618808347
 30
0.0
 10
63.4748169759
 20
105.8806055346
 30
0.0
 10
63.0701222165
 20
106.1708104906
 30
0.0
 10
62.6799199261
 20
106.4083685262
 30
0.0
 10
62.3155507806
 20
106.5866187151
 30
0.0
 10
62.029087256
 20
106.6864972393
 30
0.0
 10
61.8214767487
 20
106.7286893058
 30
0.0
 10
61.6857055451
 20
106.7413087475
 30
0.0
 10
61.5632057094
 20
106.7362856654
 30
0.0
 10
61.4546908136
 20
106.7133147423
 30
0.0
 10
61.3611760706
 20
106.672077626
 30
0.0
 10
61.3090793255
 20
106.6319342286
 30
0.0
 10
61.286714024
 20
106.6095689271
 30
0.0
  0
SPLINE
  5
2F2
100
AcDbEntity
  8
0
100
AcDbSpline
 62
7
  6
BYLAYER
 70
0
 71
3
 72
18
 73
14
 74
0
 42
0.0000001
 43
0.0000001
 44
0.0000000001
 40
0.0
 40
0.0
 40
0.0
 40
0.0
 40
0.0320502393
 40
0.0658354606
 40
0.1027430072
 40
0.1437865228
 40
0.1896179225
 40
0.2405849253
 40
0.35813741
 40
0.4957588799
 40
0.6510061269
 40
0.8204831006
 40
1.0
 40
1.0
 40
1.0
 40
1.0
 10
32.2238745804
 20
106.6095689271
 30
0.0
 10
32.2015092789
 20
106.6319342286
 30
0.0
 10
32.1494125338
 20
106.672077626
 30
0.0
 10
32.0558977909
 20
106.7133147423
 30
0.0
 10
31.947382895
 20
106.7362856654
 30
0.0
 10
31.8248830593
 20
106.7413087475
 30
0.0
 10
31.6891118557
 20
106.7286893058
 30
0.0
 10
31.4815013484
 20
106.6864972393
 30
0.0
 10
31.1950378238
 20
106.5866187151
 30
0.0
 10
30.8306686783
 20
106.4083685262
 30
0.0
 10
30.4404663879
 20
106.1708104906
 30
0.0
 10
30.0357716285
 20
105.8806055346
 30
0.0
 10
29.7693860106
 20
105.6618808347
 30
0.0
 10
29.6358518391
 20
105.5454590905
 30
0.0
  0
SPLINE
  5
2F3
100
AcDbEntity
  8
00_COMPONENTS_3
100
AcDbSpline
 62
7
  6
BYLAYER
 70
0
 71
3
 72
13
 73
9
 74
0
 42
0.0000001
 43
0.0000001
 44
0.0000000001
 40
0.0
 40
0.0
 40
0.0
 40
0.0
 40
0.2514377003
 40
0.3759344879
 40
0.5
 40
0.6240655121
 40
0.7485622997
 40
1.0
 40
1.0
 40
1.0
 40
1.0
 10
29.2927943022
 20
41.1512042092
 30
0.0
 10
30.1246333221
 20
40.8912880268
 30
0.0
 10
31.3946769161
 20
40.5760931183
 30
0.0
 10
33.1154634424
 20
40.3574977962
 30
0.0
 10
34.4074421357
 20
40.3020935813
 30
0.0
 10
35.6994208291
 20
40.3574977962
 30
0.0
 10
37.4202073553
 20
40.5760931183
 30
0.0
 10
38.6902509493
 20
40.8912880268
 30
0.0
 10
39.5220899693
 20
41.1512042092
 30
0.0
  0
SPLINE
  5
2F4
100
AcDbEntity
  8
00_COMPONENTS_3
100
AcDbSpline
 62
7
  6
BYLAYER
 70
0
 71
3
 72
11
 73
7
 74
0
 42
0.0000001
 43
0.0000001
 44
0.0000000001
 40
0.0
 40
0.0
 40
0.0
 40
0.0
 40
0.250002409
 40
0.5000015229
 40
0.7500018388
 40
1.0
 40
1.0
 40
1.0
 40
1.0
 10
39.5220899693
 20
41.1512042092
 30
0.0
 10
40.1156520284
 20
41.0200611936
 30
0.0
 10
41.3087826733
 20
40.7839471579
 30
0.0
 10
43.1141015886
 20
40.5203493073
 30
0.0
 10
44.9313808866
 20
40.3573751193
 30
0.0
 10
46.1474276624
 20
40.3205277698
 30
0.0
 10
46.7552943022
 20
40.3205277698
 30
0.0
  0
SPLINE
  5
2F5
100
AcDbEntity
  8
00_COMPONENTS_3
100
AcDbSpline
 62
7
  6
BYLAYER
 70
0
 71
3
 72
10
 73
6
 74
0
 42
0.0000001
 43
0.0000001
 44
0.0000000001
 40
0.0
 40
0.0
 40
0.0
 40
0.0
 40
0.2500381947
 40
0.5000769298
 40
1.0
 40
1.0
 40
1.0
 40
1.0
 10
46.7552943022
 20
40.3205277698
 30
0.0
 10
47.363162935
 20
40.3205277698
 30
0.0
 10
48.5792473465
 20
40.3574648905
 30
0.0
 10
51.001684317
 20
40.5743403539
 30
0.0
 10
52.8017547528
 20
40.8890021882
 30
0.0
 10
53.9884986351
 20
41.1512042092
 30
0.0
  0
SPLINE
  5
2F6
100
AcDbEntity
  8
00_COMPONENTS_3
100
AcDbSpline
 62
7
  6
BYLAYER
 70
0
 71
3
 72
13
 73
9
 74
0
 42
0.0000001
 43
0.0000001
 44
0.0000000001
 40
0.0
 40
0.0
 40
0.0
 40
0.0
 40
0.2514377003
 40
0.3759344879
 40
0.5
 40
0.6240655121
 40
0.7485622997
 40
1.0
 40
1.0
 40
1.0
 40
1.0
 10
53.9884986351
 20
41.1512042092
 30
0.0
 10
54.8203376551
 20
40.8912880268
 30
0.0
 10
56.0903812491
 20
40.5760931183
 30
0.0
 10
57.8111677753
 20
40.3574977962
 30
0.0
 10
59.1031464687
 20
40.3020935813
 30
0.0
 10
60.395125162
 20
40.3574977962
 30
0.0
 10
62.1159116883
 20
40.5760931183
 30
0.0
 10
63.3859552823
 20
40.8912880268
 30
0.0
 10
64.2177943022
 20
41.1512042092
 30
0.0
  0
ENDSEC
  0
SECTION
  2
OBJECTS
  0
DICTIONARY
  5
C
100
AcDbDictionary
280
0
281
1
  3
ACAD_GROUP
350
D
  3
ACAD_MLINESTYLE
350
17
  3
ACAD_LAYOUT
350
1A
  3
ACAD_PLOTSETTINGS
350
19
  3
ACAD_PLOTSTYLENAME
350
E
  0
DICTIONARY
  5
D
102
{ACAD_REACTORS
330
C
102
}
100
AcDbDictionary
280
0
281
1
  0
ACDBDICTIONARYWDFLT
  5
E
102
{ACAD_REACTORS
330
C
102
}
100
AcDbDictionary
281
1
  3
Normal
350
F
100
AcDbDictionaryWithDefault
340
F
  0
DICTIONARY
  5
17
102
{ACAD_REACTORS
330
C
102
}
100
AcDbDictionary
280
0
281
1
  3
Standard
350
18
  0
DICTIONARY
  5
19
102
{ACAD_REACTORS
330
C
102
}
100
AcDbDictionary
281
1
  0
DICTIONARY
  5
1A
102
{ACAD_REACTORS
330
C
102
}
100
AcDbDictionary
281
1
  3
Model
350
2F7
  3
Layout1
350
2F8
  0
ACDBPLACEHOLDER
  5
F
102
{ACAD_REACTORS
330
E
102
}
  0
MLINESTYLE
  5
18
102
{ACAD_REACTORS
330
17
102
}
100
AcDbMlineStyle
  2
STANDARD
 70
0
  3

 62
256
 51
90.0
 52
90.0
 71
2
 49
0.5
 62
256
  6
BYLAYER
 49
-0.5
 62
256
  6
BYLAYER
  0
LAYOUT
  5
2F7
102
{ACAD_REACTORS
330
1A
102
}
100
AcDbPlotSettings
  1

  2
none_device
  4

  6

 40
0.0
 41
0.0
 42
0.0
 43
0.0
 44
210.0
 45
297.0
 46
0.0
 47
0.0
 48
0.0
 49
0.0
140
0.0
141
0.0
142
1.0
143
1.0
 70
1024
 72
1
 73
0
 74
0
  7

 75
0
147
1.0
148
0.0
149
0.0
100
AcDbLayout
  1
Model
 70
0
 71
0
 10
0.0
 20
0.0
 11
210.0
 21
297.0
 12
0.0
 22
0.0
 32
0.0
 14
0.0
 24
0.0
 34
0.0
 15
0.0
 25
0.0
 35
0.0
146
0.0
 13
0.0
 23
0.0
 33
0.0
 16
1.0
 26
0.0
 36
0.0
 17
0.0
 27
1.0
 37
0.0
 76
0
330
222
345
0
346
0
  0
LAYOUT
  5
2F8
102
{ACAD_REACTORS
330
1A
102
}
100
AcDbPlotSettings
  1

  2
none_device
  4

  6

 40
0.0
 41
0.0
 42
0.0
 43
0.0
 44
210.0
 45
297.0
 46
0.0
 47
0.0
 48
0.0
 49
0.0
140
0.0
141
0.0
142
1.0
143
1.0
 70
0
 72
1
 73
0
 74
0
  7

 75
0
147
1.0
148
0.0
149
0.0
100
AcDbLayout
  1
Layout1
 70
0
 71
1
 10
0.0
 20
0.0
 11
210.0
 21
297.0
 12
0.0
 22
0.0
 32
0.0
 14
0.0
 24
0.0
 34
0.0
 15
0.0
 25
0.0
 35
0.0
146
0.0
 13
0.0
 23
0.0
 33
0.0
 16
1.0
 26
0.0
 36
0.0
 17
0.0
 27
1.0
 37
0.0
 76
0
330
223
345
0
346
0
  0
ENDSEC
  0
EOF
