  0
SECTION
  2
HEADER
  9
$ACADVER
  1
AC1009
  9
$DWGCODEPAGE
  3
ansi_1250
  9
$INSBASE
 10
0.0
 20
0.0
 30
0.0
  9
$EXTMIN
 10
-2.273704
 20
-1.337639
 30
0.0
  9
$EXTMAX
 10
0.401575
 20
1.337639
 30
0.0
  9
$LIMMIN
 10
0.0
 20
0.0
  9
$LIMMAX
 10
0.0
 20
0.0
  9
$ORTHOMODE
 70
     0
  9
$REGENMODE
 70
     1
  9
$FILLMODE
 70
     1
  9
$QTEXTMODE
 70
     0
  9
$MIRRTEXT
 70
     1
  9
$DRAGMODE
 70
     2
  9
$LTSCALE
 40
1.0
  9
$OSMODE
 70
     0
  9
$ATTMODE
 70
     1
  9
$TEXTSIZE
 40
0.2
  9
$TRACEWID
 40
0.05
  9
$TEXTSTYLE
  7
STANDARD
  9
$CLAYER
  8
0
  9
$CELTYPE
  6
CONTINUOUS
  9
$CECOLOR
 62
   256
  9
$DIMSCALE
 40
1.0
  9
$DIMASZ
 40
0.18
  9
$DIMEXO
 40
0.0625
  9
$DIMDLI
 40
0.38
  9
$DIMRND
 40
0.0
  9
$DIMDLE
 40
0.0
  9
$DIMEXE
 40
0.18
  9
$DIMTP
 40
0.0
  9
$DIMTM
 40
0.0
  9
$DIMTXT
 40
0.18
  9
$DIMCEN
 40
0.09
  9
$DIMTSZ
 40
0.0
  9
$DIMTOL
 70
     0
  9
$DIMLIM
 70
     0
  9
$DIMTIH
 70
     1
  9
$DIMTOH
 70
     1
  9
$DIMSE1
 70
     0
  9
$DIMSE2
 70
     0
  9
$DIMTAD
 70
     0
  9
$DIMZIN
 70
     0
  9
$DIMBLK
  1

  9
$DIMASO
 70
     1
  9
$DIMSHO
 70
     1
  9
$DIMPOST
  1

  9
$DIMAPOST
  1

  9
$DIMALT
 70
     0
  9
$DIMALTD
 70
     2
  9
$DIMALTF
 40
25.4
  9
$DIMLFAC
 40
1.0
  9
$DIMTOFL
 70
     0
  9
$DIMTVP
 40
0.0
  9
$DIMTIX
 70
     0
  9
$DIMSOXD
 70
     0
  9
$DIMSAH
 70
     0
  9
$DIMBLK1
  1

  9
$DIMBLK2
  1

  9
$DIMSTYLE
  2
STANDARD
  9
$DIMCLRD
 70
     0
  9
$DIMCLRE
 70
     0
  9
$DIMCLRT
 70
     0
  9
$DIMTFAC
 40
1.0
  9
$DIMGAP
 40
0.09
  9
$LUNITS
 70
     2
  9
$LUPREC
 70
     4
  9
$AXISMODE
 70
     0
  9
$AXISUNIT
 10
0.0
 20
0.0
  9
$SKETCHINC
 40
0.1
  9
$FILLETRAD
 40
0.0
  9
$AUNITS
 70
     0
  9
$AUPREC
 70
     0
  9
$MENU
  1
acad
  9
$ELEVATION
 40
0.0
  9
$PELEVATION
 40
0.0
  9
$THICKNESS
 40
0.0
  9
$LIMCHECK
 70
     0
  9
$BLIPMODE
 70
     1
  9
$CHAMFERA
 40
0.0
  9
$CHAMFERB
 40
0.0
  9
$SKPOLY
 70
     0
  9
$TDCREATE
 40
0.000000000
  9
$TDUPDATE
 40
0.000000000
  9
$TDINDWG
 40
0.0000000000
  9
$TDUSRTIMER
 40
0.0000000000
  9
$USRTIMER
 70
     1
  9
$ANGBASE
 50
0.0
  9
$ANGDIR
 70
     0
  9
$PDMODE
 70
     0
  9
$PDSIZE
 40
0.0
  9
$PLINEWID
 40
0.0
  9
$COORDS
 70
     0
  9
$SPLFRAME
 70
     0
  9
$SPLINETYPE
 70
     6
  9
$SPLINESEGS
 70
     8
  9
$ATTDIA
 70
     0
  9
$ATTREQ
 70
     1
  9
$HANDLING
 70
     1
  9
$HANDSEED
  5
444
  9
$SURFTAB1
 70
     6
  9
$SURFTAB2
 70
     6
  9
$SURFTYPE
 70
     6
  9
$SURFU
 70
     6
  9
$SURFV
 70
     6
  9
$UCSNAME
  2

  9
$UCSORG
 10
0.0
 20
0.0
 30
0.0
  9
$UCSXDIR
 10
1.0
 20
0.0
 30
0.0
  9
$UCSYDIR
 10
0.0
 20
1.0
 30
0.0
  9
$PUCSNAME
  2

  9
$PUCSORG
 10
0.0
 20
0.0
 30
0.0
  9
$PUCSXDIR
 10
1.0
 20
0.0
 30
0.0
  9
$PUCSYDIR
 10
0.0
 20
1.0
 30
0.0
  9
$USERI1
 70
     0
  9
$USERI2
 70
     0
  9
$USERI3
 70
     0
  9
$USERI4
 70
     0
  9
$USERI5
 70
     0
  9
$USERR1
 40
0.0
  9
$USERR2
 40
0.0
  9
$USERR3
 40
0.0
  9
$USERR4
 40
0.0
  9
$USERR5
 40
0.0
  9
$WORLDVIEW
 70
     1
  9
$SHADEDGE
 70
     3
  9
$SHADEDIF
 70
    70
  9
$TILEMODE
 70
     1
  9
$MAXACTVP
 70
    16
  9
$PINSBASE
 10
0.0
 20
0.0
 30
0.0
  9
$PLIMCHECK
 70
     0
  9
$PEXTMIN
 10
1.000000E+20
 20
1.000000E+20
 30
1.000000E+20
  9
$PEXTMAX
 10
-1.000000E+20
 20
-1.000000E+20
 30
-1.000000E+20
  9
$PLIMMIN
 10
0.0
 20
0.0
  9
$PLIMMAX
 10
12.0
 20
9.0
  9
$UNITMODE
 70
     0
  9
$VISRETAIN
 70
     0
  9
$PLINEGEN
 70
     1
  9
$PSLTSCALE
 70
     0
  9
$TREEDEPTH
 70
  3020
  0
ENDSEC
  0
SECTION
  2
TABLES
  0
TABLE
  2
VPORT
 70
     1
  0
VPORT
  2
*ACTIVE
 70
     0
 10
0.0
 20
0.0
 11
1.0
 21
1.0
 12
6.591288
 22
4.579184
 13
0.0
 23
0.0
 14
1.0
 24
1.0
 15
0.0
 25
0.0
 16
0.0
 26
0.0
 36
1.0
 17
0.0
 27
0.0
 37
0.0
 40
9.158369
 41
0.688564
 42
50.0
 43
0.0
 44
0.0
 50
0.0
 51
0.0
 71
     0
 72
   100
 73
     1
 74
     1
 75
     0
 76
     0
 77
     0
 78
     0
  0
ENDTAB
  0
TABLE
  2
LTYPE
 70
     5
  0
LTYPE
  2
CONTINUOUS
 70
    64
  3
Solid line
 72
    65
 73
     0
 40
0.0
  0
LTYPE
  2
CENTER
 70
    64
  3
Center ____ _ ____ _ ____ _ ____ _ ____ _ ____
 72
    65
 73
     4
 40
50.8
 49
31.75
 49
-6.35
 49
6.35
 49
-6.35
  0
LTYPE
  2
HIDDEN
 70
    64
  3
Hidden __ __ __ __ __ __ __ __ __ __ __ __ __ __
 72
    65
 73
     2
 40
9.525
 49
6.35
 49
-3.175
  0
LTYPE
  2
CENTER2
 70
    64
  3
Center (.5x) ___ _ ___ _ ___ _ ___ _ ___ _ ___
 72
    65
 73
     4
 40
28.575
 49
19.05
 49
-3.175
 49
3.175
 49
-3.175
  0
LTYPE
  2
HIDDEN2
 70
    64
  3
Hidden (.5x) _ _ _ _ _ _ _ _ _ _ _ _ _ _ _ _ _
 72
    65
 73
     2
 40
4.7625
 49
3.175
 49
-1.5875
  0
ENDTAB
  0
TABLE
  2
LAYER
 70
     1
  0
LAYER
  2
0
 70
     0
 62
     7
  6
CONTINUOUS
  0
ENDTAB
  0
TABLE
  2
STYLE
 70
     1
  0
STYLE
  2
STANDARD
 70
     0
 40
0.0
 41
1.0
 50
0.0
 71
     0
 42
0.0
  3
txt
  4

  0
ENDTAB
  0
TABLE
  2
VIEW
 70
     0
  0
ENDTAB
  0
TABLE
  2
UCS
 70
     0
  0
ENDTAB
  0
TABLE
  2
APPID
 70
     1
  0
APPID
  2
ACAD
 70
     0
  0
ENDTAB
  0
TABLE
  2
DIMSTYLE
 70
     1
  0
DIMSTYLE
  2
STANDARD
 70
     0
  3

  4

  5

  6

  7

 40
1.0
 41
0.18
 42
0.0625
 43
0.38
 44
0.18
 45
0.0
 46
0.0
 47
0.0
 48
0.0
 71
     0
 72
     0
 73
     1
 74
     1
 75
     0
 76
     0
 77
     0
 78
     0
140
0.18
141
0.09
142
0.0
143
25.4
144
1.0
145
0.0
146
1.0
147
0.09
170
     0
171
     2
172
     0
173
     0
174
     0
175
     0
176
     0
177
     0
178
     0
  0
ENDTAB
  0
ENDSEC
  0
SECTION
  2
BLOCKS
  0
ENDSEC
  0
SECTION
  2
ENTITIES
  0
LINE
  8
0
  6
CONTINUOUS
 62
     7
  5
265
 10
0.0
 20
-0.34252
 30
0.0
 11
0.0
 21
0.34252
 31
0.0
  0
LINE
  8
0
  6
CONTINUOUS
 62
     7
  5
266
 10
0.393257
 20
-0.148942
 30
0.0
 11
0.393263
 21
-0.148884
 31
0.0
  0
LINE
  8
0
  6
CONTINUOUS
 62
     7
  5
267
 10
0.393263
 20
-0.148884
 30
0.0
 11
0.393283
 21
-0.148709
 31
0.0
  0
LINE
  8
0
  6
CONTINUOUS
 62
     7
  5
268
 10
0.393283
 20
-0.148709
 30
0.0
 11
0.393316
 21
-0.148414
 31
0.0
  0
LINE
  8
0
  6
CONTINUOUS
 62
     7
  5
269
 10
0.393316
 20
-0.148414
 30
0.0
 11
0.393362
 21
-0.147997
 31
0.0
  0
LINE
  8
0
  6
CONTINUOUS
 62
     7
  5
26A
 10
0.393362
 20
-0.147997
 30
0.0
 11
0.393423
 21
-0.147455
 31
0.0
  0
LINE
  8
0
  6
CONTINUOUS
 62
     7
  5
26B
 10
0.393423
 20
-0.147455
 30
0.0
 11
0.393497
 21
-0.146787
 31
0.0
  0
LINE
  8
0
  6
CONTINUOUS
 62
     7
  5
26C
 10
0.393497
 20
-0.146787
 30
0.0
 11
0.393584
 21
-0.145991
 31
0.0
  0
LINE
  8
0
  6
CONTINUOUS
 62
     7
  5
26D
 10
0.393584
 20
-0.145991
 30
0.0
 11
0.393686
 21
-0.145065
 31
0.0
  0
LINE
  8
0
  6
CONTINUOUS
 62
     7
  5
26E
 10
0.393686
 20
-0.145065
 30
0.0
 11
0.3938
 21
-0.144008
 31
0.0
  0
LINE
  8
0
  6
CONTINUOUS
 62
     7
  5
26F
 10
0.3938
 20
-0.144008
 30
0.0
 11
0.393929
 21
-0.142818
 31
0.0
  0
LINE
  8
0
  6
CONTINUOUS
 62
     7
  5
270
 10
0.393929
 20
-0.142818
 30
0.0
 11
0.39407
 21
-0.141496
 31
0.0
  0
LINE
  8
0
  6
CONTINUOUS
 62
     7
  5
271
 10
0.39407
 20
-0.141496
 30
0.0
 11
0.394224
 21
-0.140039
 31
0.0
  0
LINE
  8
0
  6
CONTINUOUS
 62
     7
  5
272
 10
0.394224
 20
-0.140039
 30
0.0
 11
0.394391
 21
-0.138447
 31
0.0
  0
LINE
  8
0
  6
CONTINUOUS
 62
     7
  5
273
 10
0.394391
 20
-0.138447
 30
0.0
 11
0.394569
 21
-0.13672
 31
0.0
  0
LINE
  8
0
  6
CONTINUOUS
 62
     7
  5
274
 10
0.394569
 20
-0.13672
 30
0.0
 11
0.39476
 21
-0.134856
 31
0.0
  0
LINE
  8
0
  6
CONTINUOUS
 62
     7
  5
275
 10
0.39476
 20
-0.134856
 30
0.0
 11
0.394961
 21
-0.132856
 31
0.0
  0
LINE
  8
0
  6
CONTINUOUS
 62
     7
  5
276
 10
0.394961
 20
-0.132856
 30
0.0
 11
0.395172
 21
-0.130718
 31
0.0
  0
LINE
  8
0
  6
CONTINUOUS
 62
     7
  5
277
 10
0.395172
 20
-0.130718
 30
0.0
 11
0.395394
 21
-0.128444
 31
0.0
  0
LINE
  8
0
  6
CONTINUOUS
 62
     7
  5
278
 10
0.395394
 20
-0.128444
 30
0.0
 11
0.395624
 21
-0.126031
 31
0.0
  0
LINE
  8
0
  6
CONTINUOUS
 62
     7
  5
279
 10
0.395624
 20
-0.126031
 30
0.0
 11
0.395863
 21
-0.123481
 31
0.0
  0
LINE
  8
0
  6
CONTINUOUS
 62
     7
  5
27A
 10
0.395863
 20
-0.123481
 30
0.0
 11
0.39611
 21
-0.120793
 31
0.0
  0
LINE
  8
0
  6
CONTINUOUS
 62
     7
  5
27B
 10
0.39611
 20
-0.120793
 30
0.0
 11
0.396363
 21
-0.117967
 31
0.0
  0
LINE
  8
0
  6
CONTINUOUS
 62
     7
  5
27C
 10
0.396363
 20
-0.117967
 30
0.0
 11
0.396622
 21
-0.115002
 31
0.0
  0
LINE
  8
0
  6
CONTINUOUS
 62
     7
  5
27D
 10
0.396622
 20
-0.115002
 30
0.0
 11
0.396886
 21
-0.111897
 31
0.0
  0
LINE
  8
0
  6
CONTINUOUS
 62
     7
  5
27E
 10
0.396886
 20
-0.111897
 30
0.0
 11
0.397155
 21
-0.108652
 31
0.0
  0
LINE
  8
0
  6
CONTINUOUS
 62
     7
  5
27F
 10
0.397155
 20
-0.108652
 30
0.0
 11
0.397426
 21
-0.105267
 31
0.0
  0
LINE
  8
0
  6
CONTINUOUS
 62
     7
  5
280
 10
0.397426
 20
-0.105267
 30
0.0
 11
0.3977
 21
-0.10174
 31
0.0
  0
LINE
  8
0
  6
CONTINUOUS
 62
     7
  5
281
 10
0.3977
 20
-0.10174
 30
0.0
 11
0.397975
 21
-0.098071
 31
0.0
  0
LINE
  8
0
  6
CONTINUOUS
 62
     7
  5
282
 10
0.397975
 20
-0.098071
 30
0.0
 11
0.39825
 21
-0.094258
 31
0.0
  0
LINE
  8
0
  6
CONTINUOUS
 62
     7
  5
283
 10
0.39825
 20
-0.094258
 30
0.0
 11
0.398523
 21
-0.090299
 31
0.0
  0
LINE
  8
0
  6
CONTINUOUS
 62
     7
  5
284
 10
0.398523
 20
-0.090299
 30
0.0
 11
0.398795
 21
-0.086193
 31
0.0
  0
LINE
  8
0
  6
CONTINUOUS
 62
     7
  5
285
 10
0.398795
 20
-0.086193
 30
0.0
 11
0.399063
 21
-0.081936
 31
0.0
  0
LINE
  8
0
  6
CONTINUOUS
 62
     7
  5
286
 10
0.399063
 20
-0.081936
 30
0.0
 11
0.399326
 21
-0.077526
 31
0.0
  0
LINE
  8
0
  6
CONTINUOUS
 62
     7
  5
287
 10
0.399326
 20
-0.077526
 30
0.0
 11
0.399584
 21
-0.072958
 31
0.0
  0
LINE
  8
0
  6
CONTINUOUS
 62
     7
  5
288
 10
0.399584
 20
-0.072958
 30
0.0
 11
0.399834
 21
-0.068228
 31
0.0
  0
LINE
  8
0
  6
CONTINUOUS
 62
     7
  5
289
 10
0.399834
 20
0.068228
 30
0.0
 11
0.399584
 21
0.072958
 31
0.0
  0
LINE
  8
0
  6
CONTINUOUS
 62
     7
  5
28A
 10
0.399584
 20
0.072958
 30
0.0
 11
0.399326
 21
0.077526
 31
0.0
  0
LINE
  8
0
  6
CONTINUOUS
 62
     7
  5
28B
 10
0.399326
 20
0.077526
 30
0.0
 11
0.399063
 21
0.081936
 31
0.0
  0
LINE
  8
0
  6
CONTINUOUS
 62
     7
  5
28C
 10
0.399063
 20
0.081936
 30
0.0
 11
0.398795
 21
0.086193
 31
0.0
  0
LINE
  8
0
  6
CONTINUOUS
 62
     7
  5
28D
 10
0.398795
 20
0.086193
 30
0.0
 11
0.398523
 21
0.090299
 31
0.0
  0
LINE
  8
0
  6
CONTINUOUS
 62
     7
  5
28E
 10
0.398523
 20
0.090299
 30
0.0
 11
0.39825
 21
0.094258
 31
0.0
  0
LINE
  8
0
  6
CONTINUOUS
 62
     7
  5
28F
 10
0.39825
 20
0.094258
 30
0.0
 11
0.397975
 21
0.098071
 31
0.0
  0
LINE
  8
0
  6
CONTINUOUS
 62
     7
  5
290
 10
0.397975
 20
0.098071
 30
0.0
 11
0.3977
 21
0.10174
 31
0.0
  0
LINE
  8
0
  6
CONTINUOUS
 62
     7
  5
291
 10
0.3977
 20
0.10174
 30
0.0
 11
0.397426
 21
0.105267
 31
0.0
  0
LINE
  8
0
  6
CONTINUOUS
 62
     7
  5
292
 10
0.397426
 20
0.105267
 30
0.0
 11
0.397155
 21
0.108652
 31
0.0
  0
LINE
  8
0
  6
CONTINUOUS
 62
     7
  5
293
 10
0.397155
 20
0.108652
 30
0.0
 11
0.396886
 21
0.111897
 31
0.0
  0
LINE
  8
0
  6
CONTINUOUS
 62
     7
  5
294
 10
0.396886
 20
0.111897
 30
0.0
 11
0.396622
 21
0.115002
 31
0.0
  0
LINE
  8
0
  6
CONTINUOUS
 62
     7
  5
295
 10
0.396622
 20
0.115002
 30
0.0
 11
0.396363
 21
0.117967
 31
0.0
  0
LINE
  8
0
  6
CONTINUOUS
 62
     7
  5
296
 10
0.396363
 20
0.117967
 30
0.0
 11
0.39611
 21
0.120793
 31
0.0
  0
LINE
  8
0
  6
CONTINUOUS
 62
     7
  5
297
 10
0.39611
 20
0.120793
 30
0.0
 11
0.395863
 21
0.123481
 31
0.0
  0
LINE
  8
0
  6
CONTINUOUS
 62
     7
  5
298
 10
0.395863
 20
0.123481
 30
0.0
 11
0.395624
 21
0.126031
 31
0.0
  0
LINE
  8
0
  6
CONTINUOUS
 62
     7
  5
299
 10
0.395624
 20
0.126031
 30
0.0
 11
0.395394
 21
0.128444
 31
0.0
  0
LINE
  8
0
  6
CONTINUOUS
 62
     7
  5
29A
 10
0.395394
 20
0.128444
 30
0.0
 11
0.395172
 21
0.130718
 31
0.0
  0
LINE
  8
0
  6
CONTINUOUS
 62
     7
  5
29B
 10
0.395172
 20
0.130718
 30
0.0
 11
0.394961
 21
0.132856
 31
0.0
  0
LINE
  8
0
  6
CONTINUOUS
 62
     7
  5
29C
 10
0.394961
 20
0.132856
 30
0.0
 11
0.39476
 21
0.134856
 31
0.0
  0
LINE
  8
0
  6
CONTINUOUS
 62
     7
  5
29D
 10
0.39476
 20
0.134856
 30
0.0
 11
0.394569
 21
0.13672
 31
0.0
  0
LINE
  8
0
  6
CONTINUOUS
 62
     7
  5
29E
 10
0.394569
 20
0.13672
 30
0.0
 11
0.394391
 21
0.138447
 31
0.0
  0
LINE
  8
0
  6
CONTINUOUS
 62
     7
  5
29F
 10
0.394391
 20
0.138447
 30
0.0
 11
0.394224
 21
0.140039
 31
0.0
  0
LINE
  8
0
  6
CONTINUOUS
 62
     7
  5
2A0
 10
0.394224
 20
0.140039
 30
0.0
 11
0.39407
 21
0.141496
 31
0.0
  0
LINE
  8
0
  6
CONTINUOUS
 62
     7
  5
2A1
 10
0.39407
 20
0.141496
 30
0.0
 11
0.393929
 21
0.142818
 31
0.0
  0
LINE
  8
0
  6
CONTINUOUS
 62
     7
  5
2A2
 10
0.393929
 20
0.142818
 30
0.0
 11
0.3938
 21
0.144008
 31
0.0
  0
LINE
  8
0
  6
CONTINUOUS
 62
     7
  5
2A3
 10
0.3938
 20
0.144008
 30
0.0
 11
0.393686
 21
0.145065
 31
0.0
  0
LINE
  8
0
  6
CONTINUOUS
 62
     7
  5
2A4
 10
0.393686
 20
0.145065
 30
0.0
 11
0.393584
 21
0.145991
 31
0.0
  0
LINE
  8
0
  6
CONTINUOUS
 62
     7
  5
2A5
 10
0.393584
 20
0.145991
 30
0.0
 11
0.393497
 21
0.146787
 31
0.0
  0
LINE
  8
0
  6
CONTINUOUS
 62
     7
  5
2A6
 10
0.393497
 20
0.146787
 30
0.0
 11
0.393423
 21
0.147455
 31
0.0
  0
LINE
  8
0
  6
CONTINUOUS
 62
     7
  5
2A7
 10
0.393423
 20
0.147455
 30
0.0
 11
0.393362
 21
0.147997
 31
0.0
  0
LINE
  8
0
  6
CONTINUOUS
 62
     7
  5
2A8
 10
0.393362
 20
0.147997
 30
0.0
 11
0.393316
 21
0.148414
 31
0.0
  0
LINE
  8
0
  6
CONTINUOUS
 62
     7
  5
2A9
 10
0.393316
 20
0.148414
 30
0.0
 11
0.393283
 21
0.148709
 31
0.0
  0
LINE
  8
0
  6
CONTINUOUS
 62
     7
  5
2AA
 10
0.393283
 20
0.148709
 30
0.0
 11
0.393263
 21
0.148884
 31
0.0
  0
LINE
  8
0
  6
CONTINUOUS
 62
     7
  5
2AB
 10
0.393263
 20
0.148884
 30
0.0
 11
0.393257
 21
0.148942
 31
0.0
  0
ARC
  8
0
  6
CONTINUOUS
 62
     7
  5
2AC
 10
-0.936065
 20
0.0
 30
0.0
 40
1.337639
 50
344.726856
 51
15.273144
  0
LINE
  8
0
  6
CONTINUOUS
 62
     7
  5
2AD
 10
0.023622
 20
0.352362
 30
0.0
 11
0.354331
 21
0.352362
 31
0.0
  0
LINE
  8
0
  6
CONTINUOUS
 62
     7
  5
2AE
 10
0.354331
 20
-0.352362
 30
0.0
 11
0.023622
 21
-0.352362
 31
0.0
  0
LINE
  8
0
  6
CONTINUOUS
 62
     7
  5
2AF
 10
0.023622
 20
-0.352362
 30
0.0
 11
0.023622
 21
0.352362
 31
0.0
  0
LINE
  8
0
  6
CONTINUOUS
 62
     7
  5
2B0
 10
0.0
 20
0.31249
 30
0.0
 11
-0.109331
 21
0.31249
 31
0.0
  0
LINE
  8
0
  6
CONTINUOUS
 62
     7
  5
2B1
 10
-0.437008
 20
0.31249
 30
0.0
 11
-0.437297
 21
0.311985
 31
0.0
  0
LINE
  8
0
  6
CONTINUOUS
 62
     7
  5
2B2
 10
-0.437297
 20
0.311985
 30
0.0
 11
-0.437586
 21
0.31148
 31
0.0
  0
LINE
  8
0
  6
CONTINUOUS
 62
     7
  5
2B3
 10
-0.437586
 20
0.31148
 30
0.0
 11
-0.437875
 21
0.310977
 31
0.0
  0
LINE
  8
0
  6
CONTINUOUS
 62
     7
  5
2B4
 10
-0.437875
 20
0.310977
 30
0.0
 11
-0.438163
 21
0.310474
 31
0.0
  0
LINE
  8
0
  6
CONTINUOUS
 62
     7
  5
2B5
 10
-0.438163
 20
0.310474
 30
0.0
 11
-0.438451
 21
0.309972
 31
0.0
  0
LINE
  8
0
  6
CONTINUOUS
 62
     7
  5
2B6
 10
-0.438451
 20
0.309972
 30
0.0
 11
-0.438738
 21
0.30947
 31
0.0
  0
LINE
  8
0
  6
CONTINUOUS
 62
     7
  5
2B7
 10
-0.438738
 20
0.30947
 30
0.0
 11
-0.439024
 21
0.30897
 31
0.0
  0
LINE
  8
0
  6
CONTINUOUS
 62
     7
  5
2B8
 10
-0.439024
 20
0.30897
 30
0.0
 11
-0.439311
 21
0.30847
 31
0.0
  0
LINE
  8
0
  6
CONTINUOUS
 62
     7
  5
2B9
 10
-0.439311
 20
0.30847
 30
0.0
 11
-0.439596
 21
0.307971
 31
0.0
  0
LINE
  8
0
  6
CONTINUOUS
 62
     7
  5
2BA
 10
-0.439596
 20
0.307971
 30
0.0
 11
-0.439882
 21
0.307473
 31
0.0
  0
LINE
  8
0
  6
CONTINUOUS
 62
     7
  5
2BB
 10
-0.439882
 20
0.307473
 30
0.0
 11
-0.440166
 21
0.306976
 31
0.0
  0
LINE
  8
0
  6
CONTINUOUS
 62
     7
  5
2BC
 10
-0.440166
 20
0.306976
 30
0.0
 11
-0.440451
 21
0.306479
 31
0.0
  0
LINE
  8
0
  6
CONTINUOUS
 62
     7
  5
2BD
 10
-0.440451
 20
0.306479
 30
0.0
 11
-0.440734
 21
0.305984
 31
0.0
  0
LINE
  8
0
  6
CONTINUOUS
 62
     7
  5
2BE
 10
-0.440734
 20
0.305984
 30
0.0
 11
-0.441018
 21
0.305489
 31
0.0
  0
LINE
  8
0
  6
CONTINUOUS
 62
     7
  5
2BF
 10
-0.441018
 20
0.305489
 30
0.0
 11
-0.441301
 21
0.304995
 31
0.0
  0
LINE
  8
0
  6
CONTINUOUS
 62
     7
  5
2C0
 10
-0.441301
 20
0.304995
 30
0.0
 11
-0.441583
 21
0.304501
 31
0.0
  0
LINE
  8
0
  6
CONTINUOUS
 62
     7
  5
2C1
 10
-0.441583
 20
0.304501
 30
0.0
 11
-0.441865
 21
0.304009
 31
0.0
  0
LINE
  8
0
  6
CONTINUOUS
 62
     7
  5
2C2
 10
-0.441865
 20
0.304009
 30
0.0
 11
-0.442147
 21
0.303517
 31
0.0
  0
LINE
  8
0
  6
CONTINUOUS
 62
     7
  5
2C3
 10
-0.442147
 20
0.303517
 30
0.0
 11
-0.442428
 21
0.303026
 31
0.0
  0
LINE
  8
0
  6
CONTINUOUS
 62
     7
  5
2C4
 10
-0.442428
 20
0.303026
 30
0.0
 11
-0.442709
 21
0.302536
 31
0.0
  0
LINE
  8
0
  6
CONTINUOUS
 62
     7
  5
2C5
 10
-0.442709
 20
0.302536
 30
0.0
 11
-0.442989
 21
0.302046
 31
0.0
  0
LINE
  8
0
  6
CONTINUOUS
 62
     7
  5
2C6
 10
-0.442989
 20
0.302046
 30
0.0
 11
-0.443269
 21
0.301558
 31
0.0
  0
LINE
  8
0
  6
CONTINUOUS
 62
     7
  5
2C7
 10
-0.443269
 20
0.301558
 30
0.0
 11
-0.443548
 21
0.30107
 31
0.0
  0
LINE
  8
0
  6
CONTINUOUS
 62
     7
  5
2C8
 10
-0.443548
 20
0.30107
 30
0.0
 11
-0.443827
 21
0.300583
 31
0.0
  0
LINE
  8
0
  6
CONTINUOUS
 62
     7
  5
2C9
 10
-0.443827
 20
0.300583
 30
0.0
 11
-0.444105
 21
0.300097
 31
0.0
  0
LINE
  8
0
  6
CONTINUOUS
 62
     7
  5
2CA
 10
-0.444105
 20
0.300097
 30
0.0
 11
-0.444383
 21
0.299611
 31
0.0
  0
LINE
  8
0
  6
CONTINUOUS
 62
     7
  5
2CB
 10
-0.444383
 20
0.299611
 30
0.0
 11
-0.44466
 21
0.299126
 31
0.0
  0
LINE
  8
0
  6
CONTINUOUS
 62
     7
  5
2CC
 10
-0.44466
 20
0.299126
 30
0.0
 11
-0.444937
 21
0.298642
 31
0.0
  0
LINE
  8
0
  6
CONTINUOUS
 62
     7
  5
2CD
 10
-0.444937
 20
0.298642
 30
0.0
 11
-0.445214
 21
0.298159
 31
0.0
  0
LINE
  8
0
  6
CONTINUOUS
 62
     7
  5
2CE
 10
-0.445214
 20
0.298159
 30
0.0
 11
-0.44549
 21
0.297677
 31
0.0
  0
LINE
  8
0
  6
CONTINUOUS
 62
     7
  5
2CF
 10
-0.44549
 20
0.297677
 30
0.0
 11
-0.445766
 21
0.297195
 31
0.0
  0
LINE
  8
0
  6
CONTINUOUS
 62
     7
  5
2D0
 10
-0.445766
 20
0.297195
 30
0.0
 11
-0.446041
 21
0.296714
 31
0.0
  0
LINE
  8
0
  6
CONTINUOUS
 62
     7
  5
2D1
 10
-0.446041
 20
0.296714
 30
0.0
 11
-0.446316
 21
0.296234
 31
0.0
  0
LINE
  8
0
  6
CONTINUOUS
 62
     7
  5
2D2
 10
-0.446316
 20
0.296234
 30
0.0
 11
-0.44659
 21
0.295754
 31
0.0
  0
LINE
  8
0
  6
CONTINUOUS
 62
     7
  5
2D3
 10
-0.44659
 20
0.295754
 30
0.0
 11
-0.446864
 21
0.295276
 31
0.0
  0
LINE
  8
0
  6
CONTINUOUS
 62
     7
  5
2D4
 10
-0.322835
 20
0.31249
 30
0.0
 11
-0.437008
 21
0.31249
 31
0.0
  0
LINE
  8
0
  6
CONTINUOUS
 62
     7
  5
2D5
 10
-0.125984
 20
0.119675
 30
0.0
 11
0.0
 21
0.119675
 31
0.0
  0
LINE
  8
0
  6
CONTINUOUS
 62
     7
  5
2D6
 10
-0.437008
 20
-0.31249
 30
0.0
 11
-0.322835
 21
-0.31249
 31
0.0
  0
LINE
  8
0
  6
CONTINUOUS
 62
     7
  5
2D7
 10
-0.446864
 20
-0.295276
 30
0.0
 11
-0.44659
 21
-0.295754
 31
0.0
  0
LINE
  8
0
  6
CONTINUOUS
 62
     7
  5
2D8
 10
-0.44659
 20
-0.295754
 30
0.0
 11
-0.446316
 21
-0.296234
 31
0.0
  0
LINE
  8
0
  6
CONTINUOUS
 62
     7
  5
2D9
 10
-0.446316
 20
-0.296234
 30
0.0
 11
-0.446041
 21
-0.296714
 31
0.0
  0
LINE
  8
0
  6
CONTINUOUS
 62
     7
  5
2DA
 10
-0.446041
 20
-0.296714
 30
0.0
 11
-0.445766
 21
-0.297195
 31
0.0
  0
LINE
  8
0
  6
CONTINUOUS
 62
     7
  5
2DB
 10
-0.445766
 20
-0.297195
 30
0.0
 11
-0.44549
 21
-0.297677
 31
0.0
  0
LINE
  8
0
  6
CONTINUOUS
 62
     7
  5
2DC
 10
-0.44549
 20
-0.297677
 30
0.0
 11
-0.445214
 21
-0.298159
 31
0.0
  0
LINE
  8
0
  6
CONTINUOUS
 62
     7
  5
2DD
 10
-0.445214
 20
-0.298159
 30
0.0
 11
-0.444937
 21
-0.298642
 31
0.0
  0
LINE
  8
0
  6
CONTINUOUS
 62
     7
  5
2DE
 10
-0.444937
 20
-0.298642
 30
0.0
 11
-0.44466
 21
-0.299126
 31
0.0
  0
LINE
  8
0
  6
CONTINUOUS
 62
     7
  5
2DF
 10
-0.44466
 20
-0.299126
 30
0.0
 11
-0.444383
 21
-0.299611
 31
0.0
  0
LINE
  8
0
  6
CONTINUOUS
 62
     7
  5
2E0
 10
-0.444383
 20
-0.299611
 30
0.0
 11
-0.444105
 21
-0.300097
 31
0.0
  0
LINE
  8
0
  6
CONTINUOUS
 62
     7
  5
2E1
 10
-0.444105
 20
-0.300097
 30
0.0
 11
-0.443827
 21
-0.300583
 31
0.0
  0
LINE
  8
0
  6
CONTINUOUS
 62
     7
  5
2E2
 10
-0.443827
 20
-0.300583
 30
0.0
 11
-0.443548
 21
-0.30107
 31
0.0
  0
LINE
  8
0
  6
CONTINUOUS
 62
     7
  5
2E3
 10
-0.443548
 20
-0.30107
 30
0.0
 11
-0.443269
 21
-0.301558
 31
0.0
  0
LINE
  8
0
  6
CONTINUOUS
 62
     7
  5
2E4
 10
-0.443269
 20
-0.301558
 30
0.0
 11
-0.442989
 21
-0.302046
 31
0.0
  0
LINE
  8
0
  6
CONTINUOUS
 62
     7
  5
2E5
 10
-0.442989
 20
-0.302046
 30
0.0
 11
-0.442709
 21
-0.302536
 31
0.0
  0
LINE
  8
0
  6
CONTINUOUS
 62
     7
  5
2E6
 10
-0.442709
 20
-0.302536
 30
0.0
 11
-0.442428
 21
-0.303026
 31
0.0
  0
LINE
  8
0
  6
CONTINUOUS
 62
     7
  5
2E7
 10
-0.442428
 20
-0.303026
 30
0.0
 11
-0.442147
 21
-0.303517
 31
0.0
  0
LINE
  8
0
  6
CONTINUOUS
 62
     7
  5
2E8
 10
-0.442147
 20
-0.303517
 30
0.0
 11
-0.441865
 21
-0.304009
 31
0.0
  0
LINE
  8
0
  6
CONTINUOUS
 62
     7
  5
2E9
 10
-0.441865
 20
-0.304009
 30
0.0
 11
-0.441583
 21
-0.304501
 31
0.0
  0
LINE
  8
0
  6
CONTINUOUS
 62
     7
  5
2EA
 10
-0.441583
 20
-0.304501
 30
0.0
 11
-0.441301
 21
-0.304995
 31
0.0
  0
LINE
  8
0
  6
CONTINUOUS
 62
     7
  5
2EB
 10
-0.441301
 20
-0.304995
 30
0.0
 11
-0.441018
 21
-0.305489
 31
0.0
  0
LINE
  8
0
  6
CONTINUOUS
 62
     7
  5
2EC
 10
-0.441018
 20
-0.305489
 30
0.0
 11
-0.440734
 21
-0.305984
 31
0.0
  0
LINE
  8
0
  6
CONTINUOUS
 62
     7
  5
2ED
 10
-0.440734
 20
-0.305984
 30
0.0
 11
-0.440451
 21
-0.306479
 31
0.0
  0
LINE
  8
0
  6
CONTINUOUS
 62
     7
  5
2EE
 10
-0.440451
 20
-0.306479
 30
0.0
 11
-0.440166
 21
-0.306976
 31
0.0
  0
LINE
  8
0
  6
CONTINUOUS
 62
     7
  5
2EF
 10
-0.440166
 20
-0.306976
 30
0.0
 11
-0.439882
 21
-0.307473
 31
0.0
  0
LINE
  8
0
  6
CONTINUOUS
 62
     7
  5
2F0
 10
-0.439882
 20
-0.307473
 30
0.0
 11
-0.439596
 21
-0.307971
 31
0.0
  0
LINE
  8
0
  6
CONTINUOUS
 62
     7
  5
2F1
 10
-0.439596
 20
-0.307971
 30
0.0
 11
-0.439311
 21
-0.30847
 31
0.0
  0
LINE
  8
0
  6
CONTINUOUS
 62
     7
  5
2F2
 10
-0.439311
 20
-0.30847
 30
0.0
 11
-0.439024
 21
-0.30897
 31
0.0
  0
LINE
  8
0
  6
CONTINUOUS
 62
     7
  5
2F3
 10
-0.439024
 20
-0.30897
 30
0.0
 11
-0.438738
 21
-0.30947
 31
0.0
  0
LINE
  8
0
  6
CONTINUOUS
 62
     7
  5
2F4
 10
-0.438738
 20
-0.30947
 30
0.0
 11
-0.438451
 21
-0.309972
 31
0.0
  0
LINE
  8
0
  6
CONTINUOUS
 62
     7
  5
2F5
 10
-0.438451
 20
-0.309972
 30
0.0
 11
-0.438163
 21
-0.310474
 31
0.0
  0
LINE
  8
0
  6
CONTINUOUS
 62
     7
  5
2F6
 10
-0.438163
 20
-0.310474
 30
0.0
 11
-0.437875
 21
-0.310977
 31
0.0
  0
LINE
  8
0
  6
CONTINUOUS
 62
     7
  5
2F7
 10
-0.437875
 20
-0.310977
 30
0.0
 11
-0.437586
 21
-0.31148
 31
0.0
  0
LINE
  8
0
  6
CONTINUOUS
 62
     7
  5
2F8
 10
-0.437586
 20
-0.31148
 30
0.0
 11
-0.437297
 21
-0.311985
 31
0.0
  0
LINE
  8
0
  6
CONTINUOUS
 62
     7
  5
2F9
 10
-0.437297
 20
-0.311985
 30
0.0
 11
-0.437008
 21
-0.31249
 31
0.0
  0
LINE
  8
0
  6
CONTINUOUS
 62
     7
  5
2FA
 10
-0.109331
 20
-0.31249
 30
0.0
 11
0.0
 21
-0.31249
 31
0.0
  0
LINE
  8
0
  6
CONTINUOUS
 62
     7
  5
2FB
 10
0.0
 20
-0.119675
 30
0.0
 11
-0.125984
 21
-0.119675
 31
0.0
  0
LINE
  8
0
  6
CONTINUOUS
 62
     7
  5
2FC
 10
-0.322835
 20
-0.119675
 30
0.0
 11
-0.437008
 21
-0.119675
 31
0.0
  0
LINE
  8
0
  6
CONTINUOUS
 62
     7
  5
2FD
 10
-0.437008
 20
-0.119675
 30
0.0
 11
-0.437008
 21
-0.31249
 31
0.0
  0
LINE
  8
0
  6
CONTINUOUS
 62
     7
  5
2FE
 10
-0.446864
 20
0.295276
 30
0.0
 11
-0.44659
 21
0.295754
 31
0.0
  0
LINE
  8
0
  6
CONTINUOUS
 62
     7
  5
2FF
 10
-0.44659
 20
0.295754
 30
0.0
 11
-0.446316
 21
0.296234
 31
0.0
  0
LINE
  8
0
  6
CONTINUOUS
 62
     7
  5
300
 10
-0.446316
 20
0.296234
 30
0.0
 11
-0.446041
 21
0.296714
 31
0.0
  0
LINE
  8
0
  6
CONTINUOUS
 62
     7
  5
301
 10
-0.446041
 20
0.296714
 30
0.0
 11
-0.445766
 21
0.297195
 31
0.0
  0
LINE
  8
0
  6
CONTINUOUS
 62
     7
  5
302
 10
-0.445766
 20
0.297195
 30
0.0
 11
-0.44549
 21
0.297677
 31
0.0
  0
LINE
  8
0
  6
CONTINUOUS
 62
     7
  5
303
 10
-0.44549
 20
0.297677
 30
0.0
 11
-0.445214
 21
0.298159
 31
0.0
  0
LINE
  8
0
  6
CONTINUOUS
 62
     7
  5
304
 10
-0.445214
 20
0.298159
 30
0.0
 11
-0.444937
 21
0.298642
 31
0.0
  0
LINE
  8
0
  6
CONTINUOUS
 62
     7
  5
305
 10
-0.444937
 20
0.298642
 30
0.0
 11
-0.44466
 21
0.299126
 31
0.0
  0
LINE
  8
0
  6
CONTINUOUS
 62
     7
  5
306
 10
-0.44466
 20
0.299126
 30
0.0
 11
-0.444383
 21
0.299611
 31
0.0
  0
LINE
  8
0
  6
CONTINUOUS
 62
     7
  5
307
 10
-0.444383
 20
0.299611
 30
0.0
 11
-0.444105
 21
0.300097
 31
0.0
  0
LINE
  8
0
  6
CONTINUOUS
 62
     7
  5
308
 10
-0.444105
 20
0.300097
 30
0.0
 11
-0.443827
 21
0.300583
 31
0.0
  0
LINE
  8
0
  6
CONTINUOUS
 62
     7
  5
309
 10
-0.443827
 20
0.300583
 30
0.0
 11
-0.443548
 21
0.30107
 31
0.0
  0
LINE
  8
0
  6
CONTINUOUS
 62
     7
  5
30A
 10
-0.443548
 20
0.30107
 30
0.0
 11
-0.443269
 21
0.301558
 31
0.0
  0
LINE
  8
0
  6
CONTINUOUS
 62
     7
  5
30B
 10
-0.443269
 20
0.301558
 30
0.0
 11
-0.442989
 21
0.302046
 31
0.0
  0
LINE
  8
0
  6
CONTINUOUS
 62
     7
  5
30C
 10
-0.442989
 20
0.302046
 30
0.0
 11
-0.442709
 21
0.302536
 31
0.0
  0
LINE
  8
0
  6
CONTINUOUS
 62
     7
  5
30D
 10
-0.442709
 20
0.302536
 30
0.0
 11
-0.442428
 21
0.303026
 31
0.0
  0
LINE
  8
0
  6
CONTINUOUS
 62
     7
  5
30E
 10
-0.442428
 20
0.303026
 30
0.0
 11
-0.442147
 21
0.303517
 31
0.0
  0
LINE
  8
0
  6
CONTINUOUS
 62
     7
  5
30F
 10
-0.442147
 20
0.303517
 30
0.0
 11
-0.441865
 21
0.304009
 31
0.0
  0
LINE
  8
0
  6
CONTINUOUS
 62
     7
  5
310
 10
-0.441865
 20
0.304009
 30
0.0
 11
-0.441583
 21
0.304501
 31
0.0
  0
LINE
  8
0
  6
CONTINUOUS
 62
     7
  5
311
 10
-0.441583
 20
0.304501
 30
0.0
 11
-0.441301
 21
0.304995
 31
0.0
  0
LINE
  8
0
  6
CONTINUOUS
 62
     7
  5
312
 10
-0.441301
 20
0.304995
 30
0.0
 11
-0.441018
 21
0.305489
 31
0.0
  0
LINE
  8
0
  6
CONTINUOUS
 62
     7
  5
313
 10
-0.441018
 20
0.305489
 30
0.0
 11
-0.440734
 21
0.305984
 31
0.0
  0
LINE
  8
0
  6
CONTINUOUS
 62
     7
  5
314
 10
-0.440734
 20
0.305984
 30
0.0
 11
-0.440451
 21
0.306479
 31
0.0
  0
LINE
  8
0
  6
CONTINUOUS
 62
     7
  5
315
 10
-0.440451
 20
0.306479
 30
0.0
 11
-0.440166
 21
0.306976
 31
0.0
  0
LINE
  8
0
  6
CONTINUOUS
 62
     7
  5
316
 10
-0.440166
 20
0.306976
 30
0.0
 11
-0.439882
 21
0.307473
 31
0.0
  0
LINE
  8
0
  6
CONTINUOUS
 62
     7
  5
317
 10
-0.439882
 20
0.307473
 30
0.0
 11
-0.439596
 21
0.307971
 31
0.0
  0
LINE
  8
0
  6
CONTINUOUS
 62
     7
  5
318
 10
-0.439596
 20
0.307971
 30
0.0
 11
-0.439311
 21
0.30847
 31
0.0
  0
LINE
  8
0
  6
CONTINUOUS
 62
     7
  5
319
 10
-0.439311
 20
0.30847
 30
0.0
 11
-0.439024
 21
0.30897
 31
0.0
  0
LINE
  8
0
  6
CONTINUOUS
 62
     7
  5
31A
 10
-0.439024
 20
0.30897
 30
0.0
 11
-0.438738
 21
0.30947
 31
0.0
  0
LINE
  8
0
  6
CONTINUOUS
 62
     7
  5
31B
 10
-0.438738
 20
0.30947
 30
0.0
 11
-0.438451
 21
0.309972
 31
0.0
  0
LINE
  8
0
  6
CONTINUOUS
 62
     7
  5
31C
 10
-0.438451
 20
0.309972
 30
0.0
 11
-0.438163
 21
0.310474
 31
0.0
  0
LINE
  8
0
  6
CONTINUOUS
 62
     7
  5
31D
 10
-0.438163
 20
0.310474
 30
0.0
 11
-0.437875
 21
0.310977
 31
0.0
  0
LINE
  8
0
  6
CONTINUOUS
 62
     7
  5
31E
 10
-0.437875
 20
0.310977
 30
0.0
 11
-0.437586
 21
0.31148
 31
0.0
  0
LINE
  8
0
  6
CONTINUOUS
 62
     7
  5
31F
 10
-0.437586
 20
0.31148
 30
0.0
 11
-0.437297
 21
0.311985
 31
0.0
  0
LINE
  8
0
  6
CONTINUOUS
 62
     7
  5
320
 10
-0.437297
 20
0.311985
 30
0.0
 11
-0.437008
 21
0.31249
 31
0.0
  0
LINE
  8
0
  6
CONTINUOUS
 62
     7
  5
321
 10
-0.448819
 20
0.0
 30
0.0
 11
-0.448819
 21
0.043059
 31
0.0
  0
LINE
  8
0
  6
CONTINUOUS
 62
     7
  5
322
 10
-0.448819
 20
0.294503
 30
0.0
 11
-0.448819
 21
0.043059
 31
0.0
  0
LINE
  8
0
  6
CONTINUOUS
 62
     7
  5
323
 10
-0.448819
 20
-0.043059
 30
0.0
 11
-0.448819
 21
-0.294503
 31
0.0
  0
LINE
  8
0
  6
CONTINUOUS
 62
     7
  5
324
 10
-0.448819
 20
-0.043059
 30
0.0
 11
-0.448819
 21
0.0
 31
0.0
  0
LINE
  8
0
  6
CONTINUOUS
 62
     7
  5
325
 10
-0.448373
 20
-0.295276
 30
0.0
 11
-0.446864
 21
-0.295276
 31
0.0
  0
LINE
  8
0
  6
CONTINUOUS
 62
     7
  5
326
 10
-0.446864
 20
0.295276
 30
0.0
 11
-0.448373
 21
0.295276
 31
0.0
  0
LINE
  8
0
  6
CONTINUOUS
 62
     7
  5
327
 10
-0.437008
 20
0.31249
 30
0.0
 11
-0.437008
 21
0.119675
 31
0.0
  0
LINE
  8
0
  6
CONTINUOUS
 62
     7
  5
328
 10
-0.437008
 20
0.119675
 30
0.0
 11
-0.322835
 21
0.119675
 31
0.0
  0
LINE
  8
0
  6
CONTINUOUS
 62
     7
  5
329
 10
-0.448819
 20
0.043059
 30
0.0
 11
-0.448634
 21
0.045192
 31
0.0
  0
LINE
  8
0
  6
CONTINUOUS
 62
     7
  5
32A
 10
-0.448634
 20
0.045192
 30
0.0
 11
-0.448441
 21
0.047326
 31
0.0
  0
LINE
  8
0
  6
CONTINUOUS
 62
     7
  5
32B
 10
-0.448441
 20
0.047326
 30
0.0
 11
-0.448239
 21
0.049463
 31
0.0
  0
LINE
  8
0
  6
CONTINUOUS
 62
     7
  5
32C
 10
-0.448239
 20
0.049463
 30
0.0
 11
-0.448028
 21
0.051601
 31
0.0
  0
LINE
  8
0
  6
CONTINUOUS
 62
     7
  5
32D
 10
-0.448028
 20
0.051601
 30
0.0
 11
-0.447808
 21
0.05374
 31
0.0
  0
LINE
  8
0
  6
CONTINUOUS
 62
     7
  5
32E
 10
-0.447808
 20
0.05374
 30
0.0
 11
-0.44758
 21
0.055882
 31
0.0
  0
LINE
  8
0
  6
CONTINUOUS
 62
     7
  5
32F
 10
-0.44758
 20
0.055882
 30
0.0
 11
-0.447342
 21
0.058027
 31
0.0
  0
LINE
  8
0
  6
CONTINUOUS
 62
     7
  5
330
 10
-0.447342
 20
0.058027
 30
0.0
 11
-0.447096
 21
0.060174
 31
0.0
  0
LINE
  8
0
  6
CONTINUOUS
 62
     7
  5
331
 10
-0.447096
 20
0.060174
 30
0.0
 11
-0.44684
 21
0.062323
 31
0.0
  0
LINE
  8
0
  6
CONTINUOUS
 62
     7
  5
332
 10
-0.44684
 20
0.062323
 30
0.0
 11
-0.446576
 21
0.064475
 31
0.0
  0
LINE
  8
0
  6
CONTINUOUS
 62
     7
  5
333
 10
-0.446576
 20
0.064475
 30
0.0
 11
-0.446303
 21
0.06663
 31
0.0
  0
LINE
  8
0
  6
CONTINUOUS
 62
     7
  5
334
 10
-0.446303
 20
0.06663
 30
0.0
 11
-0.446021
 21
0.068788
 31
0.0
  0
LINE
  8
0
  6
CONTINUOUS
 62
     7
  5
335
 10
-0.446021
 20
0.068788
 30
0.0
 11
-0.44573
 21
0.07095
 31
0.0
  0
LINE
  8
0
  6
CONTINUOUS
 62
     7
  5
336
 10
-0.44573
 20
0.07095
 30
0.0
 11
-0.44543
 21
0.073115
 31
0.0
  0
LINE
  8
0
  6
CONTINUOUS
 62
     7
  5
337
 10
-0.44543
 20
0.073115
 30
0.0
 11
-0.445121
 21
0.075283
 31
0.0
  0
LINE
  8
0
  6
CONTINUOUS
 62
     7
  5
338
 10
-0.445121
 20
0.075283
 30
0.0
 11
-0.444803
 21
0.077455
 31
0.0
  0
LINE
  8
0
  6
CONTINUOUS
 62
     7
  5
339
 10
-0.444803
 20
0.077455
 30
0.0
 11
-0.444476
 21
0.079632
 31
0.0
  0
LINE
  8
0
  6
CONTINUOUS
 62
     7
  5
33A
 10
-0.444476
 20
0.079632
 30
0.0
 11
-0.44414
 21
0.081812
 31
0.0
  0
LINE
  8
0
  6
CONTINUOUS
 62
     7
  5
33B
 10
-0.44414
 20
0.081812
 30
0.0
 11
-0.443795
 21
0.083996
 31
0.0
  0
LINE
  8
0
  6
CONTINUOUS
 62
     7
  5
33C
 10
-0.443795
 20
0.083996
 30
0.0
 11
-0.44344
 21
0.086186
 31
0.0
  0
LINE
  8
0
  6
CONTINUOUS
 62
     7
  5
33D
 10
-0.44344
 20
0.086186
 30
0.0
 11
-0.443077
 21
0.088379
 31
0.0
  0
LINE
  8
0
  6
CONTINUOUS
 62
     7
  5
33E
 10
-0.443077
 20
0.088379
 30
0.0
 11
-0.442704
 21
0.090578
 31
0.0
  0
LINE
  8
0
  6
CONTINUOUS
 62
     7
  5
33F
 10
-0.442704
 20
0.090578
 30
0.0
 11
-0.442322
 21
0.092781
 31
0.0
  0
LINE
  8
0
  6
CONTINUOUS
 62
     7
  5
340
 10
-0.442322
 20
0.092781
 30
0.0
 11
-0.441931
 21
0.09499
 31
0.0
  0
LINE
  8
0
  6
CONTINUOUS
 62
     7
  5
341
 10
-0.441931
 20
0.09499
 30
0.0
 11
-0.441531
 21
0.097204
 31
0.0
  0
LINE
  8
0
  6
CONTINUOUS
 62
     7
  5
342
 10
-0.441531
 20
0.097204
 30
0.0
 11
-0.441121
 21
0.099423
 31
0.0
  0
LINE
  8
0
  6
CONTINUOUS
 62
     7
  5
343
 10
-0.441121
 20
0.099423
 30
0.0
 11
-0.440702
 21
0.101648
 31
0.0
  0
LINE
  8
0
  6
CONTINUOUS
 62
     7
  5
344
 10
-0.440702
 20
0.101648
 30
0.0
 11
-0.440274
 21
0.103879
 31
0.0
  0
LINE
  8
0
  6
CONTINUOUS
 62
     7
  5
345
 10
-0.440274
 20
0.103879
 30
0.0
 11
-0.439836
 21
0.106116
 31
0.0
  0
LINE
  8
0
  6
CONTINUOUS
 62
     7
  5
346
 10
-0.439836
 20
0.106116
 30
0.0
 11
-0.439388
 21
0.108359
 31
0.0
  0
LINE
  8
0
  6
CONTINUOUS
 62
     7
  5
347
 10
-0.439388
 20
0.108359
 30
0.0
 11
-0.438932
 21
0.110609
 31
0.0
  0
LINE
  8
0
  6
CONTINUOUS
 62
     7
  5
348
 10
-0.438932
 20
0.110609
 30
0.0
 11
-0.438465
 21
0.112865
 31
0.0
  0
LINE
  8
0
  6
CONTINUOUS
 62
     7
  5
349
 10
-0.438465
 20
0.112865
 30
0.0
 11
-0.437989
 21
0.115128
 31
0.0
  0
LINE
  8
0
  6
CONTINUOUS
 62
     7
  5
34A
 10
-0.437989
 20
0.115128
 30
0.0
 11
-0.437503
 21
0.117398
 31
0.0
  0
LINE
  8
0
  6
CONTINUOUS
 62
     7
  5
34B
 10
-0.437503
 20
0.117398
 30
0.0
 11
-0.437008
 21
0.119675
 31
0.0
  0
LINE
  8
0
  6
CONTINUOUS
 62
     7
  5
34C
 10
-0.437008
 20
-0.119675
 30
0.0
 11
-0.437503
 21
-0.117398
 31
0.0
  0
LINE
  8
0
  6
CONTINUOUS
 62
     7
  5
34D
 10
-0.437503
 20
-0.117398
 30
0.0
 11
-0.437989
 21
-0.115128
 31
0.0
  0
LINE
  8
0
  6
CONTINUOUS
 62
     7
  5
34E
 10
-0.437989
 20
-0.115128
 30
0.0
 11
-0.438465
 21
-0.112865
 31
0.0
  0
LINE
  8
0
  6
CONTINUOUS
 62
     7
  5
34F
 10
-0.438465
 20
-0.112865
 30
0.0
 11
-0.438932
 21
-0.110609
 31
0.0
  0
LINE
  8
0
  6
CONTINUOUS
 62
     7
  5
350
 10
-0.438932
 20
-0.110609
 30
0.0
 11
-0.439388
 21
-0.108359
 31
0.0
  0
LINE
  8
0
  6
CONTINUOUS
 62
     7
  5
351
 10
-0.439388
 20
-0.108359
 30
0.0
 11
-0.439836
 21
-0.106116
 31
0.0
  0
LINE
  8
0
  6
CONTINUOUS
 62
     7
  5
352
 10
-0.439836
 20
-0.106116
 30
0.0
 11
-0.440274
 21
-0.103879
 31
0.0
  0
LINE
  8
0
  6
CONTINUOUS
 62
     7
  5
353
 10
-0.440274
 20
-0.103879
 30
0.0
 11
-0.440702
 21
-0.101648
 31
0.0
  0
LINE
  8
0
  6
CONTINUOUS
 62
     7
  5
354
 10
-0.440702
 20
-0.101648
 30
0.0
 11
-0.441121
 21
-0.099423
 31
0.0
  0
LINE
  8
0
  6
CONTINUOUS
 62
     7
  5
355
 10
-0.441121
 20
-0.099423
 30
0.0
 11
-0.441531
 21
-0.097204
 31
0.0
  0
LINE
  8
0
  6
CONTINUOUS
 62
     7
  5
356
 10
-0.441531
 20
-0.097204
 30
0.0
 11
-0.441931
 21
-0.09499
 31
0.0
  0
LINE
  8
0
  6
CONTINUOUS
 62
     7
  5
357
 10
-0.441931
 20
-0.09499
 30
0.0
 11
-0.442322
 21
-0.092781
 31
0.0
  0
LINE
  8
0
  6
CONTINUOUS
 62
     7
  5
358
 10
-0.442322
 20
-0.092781
 30
0.0
 11
-0.442704
 21
-0.090578
 31
0.0
  0
LINE
  8
0
  6
CONTINUOUS
 62
     7
  5
359
 10
-0.442704
 20
-0.090578
 30
0.0
 11
-0.443077
 21
-0.088379
 31
0.0
  0
LINE
  8
0
  6
CONTINUOUS
 62
     7
  5
35A
 10
-0.443077
 20
-0.088379
 30
0.0
 11
-0.44344
 21
-0.086186
 31
0.0
  0
LINE
  8
0
  6
CONTINUOUS
 62
     7
  5
35B
 10
-0.44344
 20
-0.086186
 30
0.0
 11
-0.443795
 21
-0.083996
 31
0.0
  0
LINE
  8
0
  6
CONTINUOUS
 62
     7
  5
35C
 10
-0.443795
 20
-0.083996
 30
0.0
 11
-0.44414
 21
-0.081812
 31
0.0
  0
LINE
  8
0
  6
CONTINUOUS
 62
     7
  5
35D
 10
-0.44414
 20
-0.081812
 30
0.0
 11
-0.444476
 21
-0.079632
 31
0.0
  0
LINE
  8
0
  6
CONTINUOUS
 62
     7
  5
35E
 10
-0.444476
 20
-0.079632
 30
0.0
 11
-0.444803
 21
-0.077455
 31
0.0
  0
LINE
  8
0
  6
CONTINUOUS
 62
     7
  5
35F
 10
-0.444803
 20
-0.077455
 30
0.0
 11
-0.445121
 21
-0.075283
 31
0.0
  0
LINE
  8
0
  6
CONTINUOUS
 62
     7
  5
360
 10
-0.445121
 20
-0.075283
 30
0.0
 11
-0.44543
 21
-0.073115
 31
0.0
  0
LINE
  8
0
  6
CONTINUOUS
 62
     7
  5
361
 10
-0.44543
 20
-0.073115
 30
0.0
 11
-0.44573
 21
-0.07095
 31
0.0
  0
LINE
  8
0
  6
CONTINUOUS
 62
     7
  5
362
 10
-0.44573
 20
-0.07095
 30
0.0
 11
-0.446021
 21
-0.068788
 31
0.0
  0
LINE
  8
0
  6
CONTINUOUS
 62
     7
  5
363
 10
-0.446021
 20
-0.068788
 30
0.0
 11
-0.446303
 21
-0.06663
 31
0.0
  0
LINE
  8
0
  6
CONTINUOUS
 62
     7
  5
364
 10
-0.446303
 20
-0.06663
 30
0.0
 11
-0.446576
 21
-0.064475
 31
0.0
  0
LINE
  8
0
  6
CONTINUOUS
 62
     7
  5
365
 10
-0.446576
 20
-0.064475
 30
0.0
 11
-0.44684
 21
-0.062323
 31
0.0
  0
LINE
  8
0
  6
CONTINUOUS
 62
     7
  5
366
 10
-0.44684
 20
-0.062323
 30
0.0
 11
-0.447096
 21
-0.060174
 31
0.0
  0
LINE
  8
0
  6
CONTINUOUS
 62
     7
  5
367
 10
-0.447096
 20
-0.060174
 30
0.0
 11
-0.447342
 21
-0.058027
 31
0.0
  0
LINE
  8
0
  6
CONTINUOUS
 62
     7
  5
368
 10
-0.447342
 20
-0.058027
 30
0.0
 11
-0.44758
 21
-0.055882
 31
0.0
  0
LINE
  8
0
  6
CONTINUOUS
 62
     7
  5
369
 10
-0.44758
 20
-0.055882
 30
0.0
 11
-0.447808
 21
-0.05374
 31
0.0
  0
LINE
  8
0
  6
CONTINUOUS
 62
     7
  5
36A
 10
-0.447808
 20
-0.05374
 30
0.0
 11
-0.448028
 21
-0.051601
 31
0.0
  0
LINE
  8
0
  6
CONTINUOUS
 62
     7
  5
36B
 10
-0.448028
 20
-0.051601
 30
0.0
 11
-0.448239
 21
-0.049463
 31
0.0
  0
LINE
  8
0
  6
CONTINUOUS
 62
     7
  5
36C
 10
-0.448239
 20
-0.049463
 30
0.0
 11
-0.448441
 21
-0.047326
 31
0.0
  0
LINE
  8
0
  6
CONTINUOUS
 62
     7
  5
36D
 10
-0.448441
 20
-0.047326
 30
0.0
 11
-0.448634
 21
-0.045192
 31
0.0
  0
LINE
  8
0
  6
CONTINUOUS
 62
     7
  5
36E
 10
-0.448634
 20
-0.045192
 30
0.0
 11
-0.448819
 21
-0.043059
 31
0.0
  0
LINE
  8
0
  6
CONTINUOUS
 62
     7
  5
36F
 10
-0.275591
 20
0.331978
 30
0.0
 11
-0.322835
 21
0.331978
 31
0.0
  0
LINE
  8
0
  6
CONTINUOUS
 62
     7
  5
370
 10
-0.322835
 20
0.11811
 30
0.0
 11
-0.275591
 21
0.11811
 31
0.0
  0
LINE
  8
0
  6
CONTINUOUS
 62
     7
  5
371
 10
-0.275591
 20
0.11811
 30
0.0
 11
-0.275591
 21
-0.11811
 31
0.0
  0
LINE
  8
0
  6
CONTINUOUS
 62
     7
  5
372
 10
-0.275591
 20
0.352362
 30
0.0
 11
-0.275591
 21
0.331978
 31
0.0
  0
LINE
  8
0
  6
CONTINUOUS
 62
     7
  5
373
 10
-0.275591
 20
-0.331978
 30
0.0
 11
-0.275591
 21
-0.352362
 31
0.0
  0
LINE
  8
0
  6
CONTINUOUS
 62
     7
  5
374
 10
-0.244094
 20
-0.343563
 30
0.0
 11
-0.165354
 21
-0.343563
 31
0.0
  0
LINE
  8
0
  6
CONTINUOUS
 62
     7
  5
375
 10
-0.165354
 20
-0.350929
 30
0.0
 11
-0.244094
 21
-0.350929
 31
0.0
  0
LINE
  8
0
  6
CONTINUOUS
 62
     7
  5
376
 10
-0.244094
 20
-0.302567
 30
0.0
 11
-0.165354
 21
-0.302567
 31
0.0
  0
LINE
  8
0
  6
CONTINUOUS
 62
     7
  5
377
 10
-0.165354
 20
-0.323944
 30
0.0
 11
-0.244094
 21
-0.323944
 31
0.0
  0
LINE
  8
0
  6
CONTINUOUS
 62
     7
  5
378
 10
-0.244094
 20
-0.231953
 30
0.0
 11
-0.165354
 21
-0.231953
 31
0.0
  0
LINE
  8
0
  6
CONTINUOUS
 62
     7
  5
379
 10
-0.165354
 20
-0.265248
 30
0.0
 11
-0.244094
 21
-0.265248
 31
0.0
  0
LINE
  8
0
  6
CONTINUOUS
 62
     7
  5
37A
 10
-0.244094
 20
-0.138634
 30
0.0
 11
-0.165354
 21
-0.138634
 31
0.0
  0
LINE
  8
0
  6
CONTINUOUS
 62
     7
  5
37B
 10
-0.165354
 20
-0.180589
 30
0.0
 11
-0.244094
 21
-0.180589
 31
0.0
  0
LINE
  8
0
  6
CONTINUOUS
 62
     7
  5
37C
 10
-0.244094
 20
-0.031745
 30
0.0
 11
-0.165354
 21
-0.031745
 31
0.0
  0
LINE
  8
0
  6
CONTINUOUS
 62
     7
  5
37D
 10
-0.165354
 20
-0.078252
 30
0.0
 11
-0.244094
 21
-0.078252
 31
0.0
  0
LINE
  8
0
  6
CONTINUOUS
 62
     7
  5
37E
 10
-0.322835
 20
-0.331978
 30
0.0
 11
-0.275591
 21
-0.331978
 31
0.0
  0
LINE
  8
0
  6
CONTINUOUS
 62
     7
  5
37F
 10
-0.322835
 20
0.11811
 30
0.0
 11
-0.322835
 21
0.331978
 31
0.0
  0
LINE
  8
0
  6
CONTINUOUS
 62
     7
  5
380
 10
-0.322835
 20
-0.331978
 30
0.0
 11
-0.322835
 21
-0.11811
 31
0.0
  0
LINE
  8
0
  6
CONTINUOUS
 62
     7
  5
381
 10
-0.275591
 20
-0.11811
 30
0.0
 11
-0.322835
 21
-0.11811
 31
0.0
  0
LINE
  8
0
  6
CONTINUOUS
 62
     7
  5
382
 10
-0.244094
 20
-0.350929
 30
0.0
 11
-0.244094
 21
-0.343563
 31
0.0
  0
LINE
  8
0
  6
CONTINUOUS
 62
     7
  5
383
 10
-0.244094
 20
-0.323944
 30
0.0
 11
-0.244094
 21
-0.302567
 31
0.0
  0
LINE
  8
0
  6
CONTINUOUS
 62
     7
  5
384
 10
-0.244094
 20
-0.265248
 30
0.0
 11
-0.244094
 21
-0.231953
 31
0.0
  0
LINE
  8
0
  6
CONTINUOUS
 62
     7
  5
385
 10
-0.244094
 20
-0.180589
 30
0.0
 11
-0.244094
 21
-0.138634
 31
0.0
  0
LINE
  8
0
  6
CONTINUOUS
 62
     7
  5
386
 10
-0.244094
 20
-0.078252
 30
0.0
 11
-0.244094
 21
-0.031745
 31
0.0
  0
LINE
  8
0
  6
CONTINUOUS
 62
     7
  5
387
 10
-0.165354
 20
0.031745
 30
0.0
 11
-0.244094
 21
0.031745
 31
0.0
  0
LINE
  8
0
  6
CONTINUOUS
 62
     7
  5
388
 10
-0.244094
 20
0.031745
 30
0.0
 11
-0.244094
 21
0.078252
 31
0.0
  0
LINE
  8
0
  6
CONTINUOUS
 62
     7
  5
389
 10
-0.244094
 20
0.078252
 30
0.0
 11
-0.165354
 21
0.078252
 31
0.0
  0
LINE
  8
0
  6
CONTINUOUS
 62
     7
  5
38A
 10
-0.165354
 20
0.138634
 30
0.0
 11
-0.244094
 21
0.138634
 31
0.0
  0
LINE
  8
0
  6
CONTINUOUS
 62
     7
  5
38B
 10
-0.244094
 20
0.138634
 30
0.0
 11
-0.244094
 21
0.180589
 31
0.0
  0
LINE
  8
0
  6
CONTINUOUS
 62
     7
  5
38C
 10
-0.244094
 20
0.180589
 30
0.0
 11
-0.165354
 21
0.180589
 31
0.0
  0
LINE
  8
0
  6
CONTINUOUS
 62
     7
  5
38D
 10
-0.165354
 20
0.231953
 30
0.0
 11
-0.244094
 21
0.231953
 31
0.0
  0
LINE
  8
0
  6
CONTINUOUS
 62
     7
  5
38E
 10
-0.244094
 20
0.231953
 30
0.0
 11
-0.244094
 21
0.265248
 31
0.0
  0
LINE
  8
0
  6
CONTINUOUS
 62
     7
  5
38F
 10
-0.244094
 20
0.265248
 30
0.0
 11
-0.165354
 21
0.265248
 31
0.0
  0
LINE
  8
0
  6
CONTINUOUS
 62
     7
  5
390
 10
-0.165354
 20
0.302567
 30
0.0
 11
-0.244094
 21
0.302567
 31
0.0
  0
LINE
  8
0
  6
CONTINUOUS
 62
     7
  5
391
 10
-0.244094
 20
0.302567
 30
0.0
 11
-0.244094
 21
0.323944
 31
0.0
  0
LINE
  8
0
  6
CONTINUOUS
 62
     7
  5
392
 10
-0.244094
 20
0.323944
 30
0.0
 11
-0.165354
 21
0.323944
 31
0.0
  0
LINE
  8
0
  6
CONTINUOUS
 62
     7
  5
393
 10
-0.165354
 20
0.343563
 30
0.0
 11
-0.244094
 21
0.343563
 31
0.0
  0
LINE
  8
0
  6
CONTINUOUS
 62
     7
  5
394
 10
-0.244094
 20
0.343563
 30
0.0
 11
-0.244094
 21
0.350929
 31
0.0
  0
LINE
  8
0
  6
CONTINUOUS
 62
     7
  5
395
 10
-0.244094
 20
0.350929
 30
0.0
 11
-0.165354
 21
0.350929
 31
0.0
  0
LINE
  8
0
  6
CONTINUOUS
 62
     7
  5
396
 10
-0.125984
 20
-0.244094
 30
0.0
 11
-0.125984
 21
0.244094
 31
0.0
  0
LINE
  8
0
  6
CONTINUOUS
 62
     7
  5
397
 10
-0.099144
 20
-0.354331
 30
0.0
 11
-0.125984
 21
-0.244094
 31
0.0
  0
LINE
  8
0
  6
CONTINUOUS
 62
     7
  5
398
 10
-0.099144
 20
-0.354331
 30
0.0
 11
-0.138514
 21
-0.354331
 31
0.0
  0
LINE
  8
0
  6
CONTINUOUS
 62
     7
  5
399
 10
-0.138514
 20
-0.354331
 30
0.0
 11
-0.165354
 21
-0.354331
 31
0.0
  0
LINE
  8
0
  6
CONTINUOUS
 62
     7
  5
39A
 10
-0.125984
 20
0.244094
 30
0.0
 11
-0.099144
 21
0.354331
 31
0.0
  0
LINE
  8
0
  6
CONTINUOUS
 62
     7
  5
39B
 10
-0.099144
 20
0.354331
 30
0.0
 11
-0.138514
 21
0.354331
 31
0.0
  0
LINE
  8
0
  6
CONTINUOUS
 62
     7
  5
39C
 10
-0.138514
 20
0.354331
 30
0.0
 11
-0.165354
 21
0.244094
 31
0.0
  0
LINE
  8
0
  6
CONTINUOUS
 62
     7
  5
39D
 10
-0.165354
 20
-0.244094
 30
0.0
 11
-0.165354
 21
0.244094
 31
0.0
  0
LINE
  8
0
  6
CONTINUOUS
 62
     7
  5
39E
 10
-0.165354
 20
-0.244094
 30
0.0
 11
-0.138514
 21
-0.354331
 31
0.0
  0
LINE
  8
0
  6
CONTINUOUS
 62
     7
  5
39F
 10
-0.165354
 20
0.354331
 30
0.0
 11
-0.138514
 21
0.354331
 31
0.0
  0
LINE
  8
0
  6
CONTINUOUS
 62
     7
  5
3A0
 10
-0.165354
 20
-0.354331
 30
0.0
 11
-0.165354
 21
-0.244094
 31
0.0
  0
LINE
  8
0
  6
CONTINUOUS
 62
     7
  5
3A1
 10
-0.165354
 20
0.244094
 30
0.0
 11
-0.165354
 21
0.354331
 31
0.0
  0
LINE
  8
0
  6
CONTINUOUS
 62
     7
  5
3A2
 10
-0.854331
 20
-0.216535
 30
0.0
 11
-0.854331
 21
-0.251969
 31
0.0
  0
LINE
  8
0
  6
CONTINUOUS
 62
     7
  5
3A3
 10
-1.137795
 20
-0.251969
 30
0.0
 11
-1.139904
 21
-0.249288
 31
0.0
  0
LINE
  8
0
  6
CONTINUOUS
 62
     7
  5
3A4
 10
-1.139904
 20
-0.249288
 30
0.0
 11
-1.141906
 21
-0.246526
 31
0.0
  0
LINE
  8
0
  6
CONTINUOUS
 62
     7
  5
3A5
 10
-1.141906
 20
-0.246526
 30
0.0
 11
-1.143798
 21
-0.243688
 31
0.0
  0
LINE
  8
0
  6
CONTINUOUS
 62
     7
  5
3A6
 10
-1.143798
 20
-0.243688
 30
0.0
 11
-1.145577
 21
-0.240778
 31
0.0
  0
LINE
  8
0
  6
CONTINUOUS
 62
     7
  5
3A7
 10
-1.145577
 20
-0.240778
 30
0.0
 11
-1.147241
 21
-0.237801
 31
0.0
  0
LINE
  8
0
  6
CONTINUOUS
 62
     7
  5
3A8
 10
-1.147241
 20
-0.237801
 30
0.0
 11
-1.148787
 21
-0.234761
 31
0.0
  0
LINE
  8
0
  6
CONTINUOUS
 62
     7
  5
3A9
 10
-1.148787
 20
-0.234761
 30
0.0
 11
-1.150213
 21
-0.231662
 31
0.0
  0
LINE
  8
0
  6
CONTINUOUS
 62
     7
  5
3AA
 10
-1.150213
 20
-0.231662
 30
0.0
 11
-1.151516
 21
-0.22851
 31
0.0
  0
LINE
  8
0
  6
CONTINUOUS
 62
     7
  5
3AB
 10
-1.151516
 20
-0.22851
 30
0.0
 11
-1.152694
 21
-0.22531
 31
0.0
  0
LINE
  8
0
  6
CONTINUOUS
 62
     7
  5
3AC
 10
-1.152694
 20
-0.22531
 30
0.0
 11
-1.153746
 21
-0.222065
 31
0.0
  0
LINE
  8
0
  6
CONTINUOUS
 62
     7
  5
3AD
 10
-1.153746
 20
-0.222065
 30
0.0
 11
-1.154671
 21
-0.218782
 31
0.0
  0
LINE
  8
0
  6
CONTINUOUS
 62
     7
  5
3AE
 10
-1.154671
 20
-0.218782
 30
0.0
 11
-1.155466
 21
-0.215466
 31
0.0
  0
LINE
  8
0
  6
CONTINUOUS
 62
     7
  5
3AF
 10
-1.155466
 20
-0.215466
 30
0.0
 11
-1.15613
 21
-0.21212
 31
0.0
  0
LINE
  8
0
  6
CONTINUOUS
 62
     7
  5
3B0
 10
-1.15613
 20
-0.21212
 30
0.0
 11
-1.156663
 21
-0.208751
 31
0.0
  0
LINE
  8
0
  6
CONTINUOUS
 62
     7
  5
3B1
 10
-1.156663
 20
-0.208751
 30
0.0
 11
-1.157063
 21
-0.205364
 31
0.0
  0
LINE
  8
0
  6
CONTINUOUS
 62
     7
  5
3B2
 10
-1.157063
 20
-0.205364
 30
0.0
 11
-1.15733
 21
-0.201964
 31
0.0
  0
LINE
  8
0
  6
CONTINUOUS
 62
     7
  5
3B3
 10
-1.15733
 20
-0.201964
 30
0.0
 11
-1.157464
 21
-0.198556
 31
0.0
  0
LINE
  8
0
  6
CONTINUOUS
 62
     7
  5
3B4
 10
-1.157464
 20
-0.198556
 30
0.0
 11
-1.157464
 21
-0.195145
 31
0.0
  0
LINE
  8
0
  6
CONTINUOUS
 62
     7
  5
3B5
 10
-1.157464
 20
-0.195145
 30
0.0
 11
-1.15733
 21
-0.191737
 31
0.0
  0
LINE
  8
0
  6
CONTINUOUS
 62
     7
  5
3B6
 10
-1.15733
 20
-0.191737
 30
0.0
 11
-1.157063
 21
-0.188337
 31
0.0
  0
LINE
  8
0
  6
CONTINUOUS
 62
     7
  5
3B7
 10
-1.157063
 20
-0.188337
 30
0.0
 11
-1.156663
 21
-0.18495
 31
0.0
  0
LINE
  8
0
  6
CONTINUOUS
 62
     7
  5
3B8
 10
-1.156663
 20
-0.18495
 30
0.0
 11
-1.15613
 21
-0.181581
 31
0.0
  0
LINE
  8
0
  6
CONTINUOUS
 62
     7
  5
3B9
 10
-1.15613
 20
-0.181581
 30
0.0
 11
-1.155466
 21
-0.178235
 31
0.0
  0
LINE
  8
0
  6
CONTINUOUS
 62
     7
  5
3BA
 10
-1.155466
 20
-0.178235
 30
0.0
 11
-1.154671
 21
-0.174918
 31
0.0
  0
LINE
  8
0
  6
CONTINUOUS
 62
     7
  5
3BB
 10
-1.154671
 20
-0.174918
 30
0.0
 11
-1.153746
 21
-0.171635
 31
0.0
  0
LINE
  8
0
  6
CONTINUOUS
 62
     7
  5
3BC
 10
-1.153746
 20
-0.171635
 30
0.0
 11
-1.152694
 21
-0.168391
 31
0.0
  0
LINE
  8
0
  6
CONTINUOUS
 62
     7
  5
3BD
 10
-1.152694
 20
-0.168391
 30
0.0
 11
-1.151516
 21
-0.16519
 31
0.0
  0
LINE
  8
0
  6
CONTINUOUS
 62
     7
  5
3BE
 10
-1.151516
 20
-0.16519
 30
0.0
 11
-1.150213
 21
-0.162038
 31
0.0
  0
LINE
  8
0
  6
CONTINUOUS
 62
     7
  5
3BF
 10
-1.150213
 20
-0.162038
 30
0.0
 11
-1.148787
 21
-0.15894
 31
0.0
  0
LINE
  8
0
  6
CONTINUOUS
 62
     7
  5
3C0
 10
-1.148787
 20
-0.15894
 30
0.0
 11
-1.147241
 21
-0.1559
 31
0.0
  0
LINE
  8
0
  6
CONTINUOUS
 62
     7
  5
3C1
 10
-1.147241
 20
-0.1559
 30
0.0
 11
-1.145577
 21
-0.152922
 31
0.0
  0
LINE
  8
0
  6
CONTINUOUS
 62
     7
  5
3C2
 10
-1.145577
 20
-0.152922
 30
0.0
 11
-1.143798
 21
-0.150013
 31
0.0
  0
LINE
  8
0
  6
CONTINUOUS
 62
     7
  5
3C3
 10
-1.143798
 20
-0.150013
 30
0.0
 11
-1.141906
 21
-0.147175
 31
0.0
  0
LINE
  8
0
  6
CONTINUOUS
 62
     7
  5
3C4
 10
-1.141906
 20
-0.147175
 30
0.0
 11
-1.139904
 21
-0.144413
 31
0.0
  0
LINE
  8
0
  6
CONTINUOUS
 62
     7
  5
3C5
 10
-1.139904
 20
-0.144413
 30
0.0
 11
-1.137795
 21
-0.141732
 31
0.0
  0
LINE
  8
0
  6
CONTINUOUS
 62
     7
  5
3C6
 10
-1.137795
 20
-0.141732
 30
0.0
 11
-1.137795
 21
-0.251969
 31
0.0
  0
LINE
  8
0
  6
CONTINUOUS
 62
     7
  5
3C7
 10
-1.137795
 20
-0.141732
 30
0.0
 11
-0.88189
 21
-0.141732
 31
0.0
  0
LINE
  8
0
  6
CONTINUOUS
 62
     7
  5
3C8
 10
-0.854331
 20
-0.251969
 30
0.0
 11
-1.137795
 21
-0.251969
 31
0.0
  0
LINE
  8
0
  6
CONTINUOUS
 62
     7
  5
3C9
 10
-1.03937
 20
-0.220472
 30
0.0
 11
-1.094488
 21
-0.220472
 31
0.0
  0
ARC
  8
0
  6
CONTINUOUS
 62
     7
  5
3CA
 10
-1.094488
 20
-0.19685
 30
0.0
 40
0.023622
 50
90.0
 51
270.0
  0
LINE
  8
0
  6
CONTINUOUS
 62
     7
  5
3CB
 10
-1.094488
 20
-0.173228
 30
0.0
 11
-1.03937
 21
-0.173228
 31
0.0
  0
ARC
  8
0
  6
CONTINUOUS
 62
     7
  5
3CC
 10
-1.03937
 20
-0.19685
 30
0.0
 40
0.023622
 50
270.0
 51
90.0
  0
LINE
  8
0
  6
CONTINUOUS
 62
     7
  5
3CD
 10
-0.88189
 20
-0.19685
 30
0.0
 11
-0.88189
 21
-0.216535
 31
0.0
  0
LINE
  8
0
  6
CONTINUOUS
 62
     7
  5
3CE
 10
-0.88189
 20
0.188976
 30
0.0
 11
-0.88189
 21
-0.19685
 31
0.0
  0
LINE
  8
0
  6
CONTINUOUS
 62
     7
  5
3CF
 10
-0.88189
 20
0.224409
 30
0.0
 11
-0.88189
 21
0.188976
 31
0.0
  0
LINE
  8
0
  6
CONTINUOUS
 62
     7
  5
3D0
 10
-0.88189
 20
-0.055118
 30
0.0
 11
-1.137795
 21
-0.055118
 31
0.0
  0
LINE
  8
0
  6
CONTINUOUS
 62
     7
  5
3D1
 10
-1.03937
 20
-0.023622
 30
0.0
 11
-1.094488
 21
-0.023622
 31
0.0
  0
ARC
  8
0
  6
CONTINUOUS
 62
     7
  5
3D2
 10
-1.094488
 20
0.0
 30
0.0
 40
0.023622
 50
90.0
 51
270.0
  0
LINE
  8
0
  6
CONTINUOUS
 62
     7
  5
3D3
 10
-1.094488
 20
0.023622
 30
0.0
 11
-1.03937
 21
0.023622
 31
0.0
  0
ARC
  8
0
  6
CONTINUOUS
 62
     7
  5
3D4
 10
-1.03937
 20
0.0
 30
0.0
 40
0.023622
 50
270.0
 51
90.0
  0
LINE
  8
0
  6
CONTINUOUS
 62
     7
  5
3D5
 10
-1.137795
 20
0.055118
 30
0.0
 11
-0.88189
 21
0.055118
 31
0.0
  0
LINE
  8
0
  6
CONTINUOUS
 62
     7
  5
3D6
 10
-1.137795
 20
0.055118
 30
0.0
 11
-1.137795
 21
-0.055118
 31
0.0
  0
LINE
  8
0
  6
CONTINUOUS
 62
     7
  5
3D7
 10
-1.137795
 20
-0.055118
 30
0.0
 11
-1.139904
 21
-0.052437
 31
0.0
  0
LINE
  8
0
  6
CONTINUOUS
 62
     7
  5
3D8
 10
-1.139904
 20
-0.052437
 30
0.0
 11
-1.141906
 21
-0.049676
 31
0.0
  0
LINE
  8
0
  6
CONTINUOUS
 62
     7
  5
3D9
 10
-1.141906
 20
-0.049676
 30
0.0
 11
-1.143798
 21
-0.046838
 31
0.0
  0
LINE
  8
0
  6
CONTINUOUS
 62
     7
  5
3DA
 10
-1.143798
 20
-0.046838
 30
0.0
 11
-1.145577
 21
-0.043928
 31
0.0
  0
LINE
  8
0
  6
CONTINUOUS
 62
     7
  5
3DB
 10
-1.145577
 20
-0.043928
 30
0.0
 11
-1.147241
 21
-0.040951
 31
0.0
  0
LINE
  8
0
  6
CONTINUOUS
 62
     7
  5
3DC
 10
-1.147241
 20
-0.040951
 30
0.0
 11
-1.148787
 21
-0.037911
 31
0.0
  0
LINE
  8
0
  6
CONTINUOUS
 62
     7
  5
3DD
 10
-1.148787
 20
-0.037911
 30
0.0
 11
-1.150213
 21
-0.034812
 31
0.0
  0
LINE
  8
0
  6
CONTINUOUS
 62
     7
  5
3DE
 10
-1.150213
 20
-0.034812
 30
0.0
 11
-1.151516
 21
-0.03166
 31
0.0
  0
LINE
  8
0
  6
CONTINUOUS
 62
     7
  5
3DF
 10
-1.151516
 20
-0.03166
 30
0.0
 11
-1.152694
 21
-0.028459
 31
0.0
  0
LINE
  8
0
  6
CONTINUOUS
 62
     7
  5
3E0
 10
-1.152694
 20
-0.028459
 30
0.0
 11
-1.153746
 21
-0.025215
 31
0.0
  0
LINE
  8
0
  6
CONTINUOUS
 62
     7
  5
3E1
 10
-1.153746
 20
-0.025215
 30
0.0
 11
-1.154671
 21
-0.021932
 31
0.0
  0
LINE
  8
0
  6
CONTINUOUS
 62
     7
  5
3E2
 10
-1.154671
 20
-0.021932
 30
0.0
 11
-1.155466
 21
-0.018615
 31
0.0
  0
LINE
  8
0
  6
CONTINUOUS
 62
     7
  5
3E3
 10
-1.155466
 20
-0.018615
 30
0.0
 11
-1.15613
 21
-0.01527
 31
0.0
  0
LINE
  8
0
  6
CONTINUOUS
 62
     7
  5
3E4
 10
-1.15613
 20
-0.01527
 30
0.0
 11
-1.156663
 21
-0.011901
 31
0.0
  0
LINE
  8
0
  6
CONTINUOUS
 62
     7
  5
3E5
 10
-1.156663
 20
-0.011901
 30
0.0
 11
-1.157063
 21
-0.008514
 31
0.0
  0
LINE
  8
0
  6
CONTINUOUS
 62
     7
  5
3E6
 10
-1.157063
 20
-0.008514
 30
0.0
 11
-1.15733
 21
-0.005113
 31
0.0
  0
LINE
  8
0
  6
CONTINUOUS
 62
     7
  5
3E7
 10
-1.15733
 20
-0.005113
 30
0.0
 11
-1.157464
 21
-0.001705
 31
0.0
  0
LINE
  8
0
  6
CONTINUOUS
 62
     7
  5
3E8
 10
-1.157464
 20
-0.001705
 30
0.0
 11
-1.157464
 21
0.001705
 31
0.0
  0
LINE
  8
0
  6
CONTINUOUS
 62
     7
  5
3E9
 10
-1.157464
 20
0.001705
 30
0.0
 11
-1.15733
 21
0.005113
 31
0.0
  0
LINE
  8
0
  6
CONTINUOUS
 62
     7
  5
3EA
 10
-1.15733
 20
0.005113
 30
0.0
 11
-1.157063
 21
0.008514
 31
0.0
  0
LINE
  8
0
  6
CONTINUOUS
 62
     7
  5
3EB
 10
-1.157063
 20
0.008514
 30
0.0
 11
-1.156663
 21
0.011901
 31
0.0
  0
LINE
  8
0
  6
CONTINUOUS
 62
     7
  5
3EC
 10
-1.156663
 20
0.011901
 30
0.0
 11
-1.15613
 21
0.01527
 31
0.0
  0
LINE
  8
0
  6
CONTINUOUS
 62
     7
  5
3ED
 10
-1.15613
 20
0.01527
 30
0.0
 11
-1.155466
 21
0.018615
 31
0.0
  0
LINE
  8
0
  6
CONTINUOUS
 62
     7
  5
3EE
 10
-1.155466
 20
0.018615
 30
0.0
 11
-1.154671
 21
0.021932
 31
0.0
  0
LINE
  8
0
  6
CONTINUOUS
 62
     7
  5
3EF
 10
-1.154671
 20
0.021932
 30
0.0
 11
-1.153746
 21
0.025215
 31
0.0
  0
LINE
  8
0
  6
CONTINUOUS
 62
     7
  5
3F0
 10
-1.153746
 20
0.025215
 30
0.0
 11
-1.152694
 21
0.028459
 31
0.0
  0
LINE
  8
0
  6
CONTINUOUS
 62
     7
  5
3F1
 10
-1.152694
 20
0.028459
 30
0.0
 11
-1.151516
 21
0.03166
 31
0.0
  0
LINE
  8
0
  6
CONTINUOUS
 62
     7
  5
3F2
 10
-1.151516
 20
0.03166
 30
0.0
 11
-1.150213
 21
0.034812
 31
0.0
  0
LINE
  8
0
  6
CONTINUOUS
 62
     7
  5
3F3
 10
-1.150213
 20
0.034812
 30
0.0
 11
-1.148787
 21
0.037911
 31
0.0
  0
LINE
  8
0
  6
CONTINUOUS
 62
     7
  5
3F4
 10
-1.148787
 20
0.037911
 30
0.0
 11
-1.147241
 21
0.040951
 31
0.0
  0
LINE
  8
0
  6
CONTINUOUS
 62
     7
  5
3F5
 10
-1.147241
 20
0.040951
 30
0.0
 11
-1.145577
 21
0.043928
 31
0.0
  0
LINE
  8
0
  6
CONTINUOUS
 62
     7
  5
3F6
 10
-1.145577
 20
0.043928
 30
0.0
 11
-1.143798
 21
0.046838
 31
0.0
  0
LINE
  8
0
  6
CONTINUOUS
 62
     7
  5
3F7
 10
-1.143798
 20
0.046838
 30
0.0
 11
-1.141906
 21
0.049676
 31
0.0
  0
LINE
  8
0
  6
CONTINUOUS
 62
     7
  5
3F8
 10
-1.141906
 20
0.049676
 30
0.0
 11
-1.139904
 21
0.052437
 31
0.0
  0
LINE
  8
0
  6
CONTINUOUS
 62
     7
  5
3F9
 10
-1.139904
 20
0.052437
 30
0.0
 11
-1.137795
 21
0.055118
 31
0.0
  0
LINE
  8
0
  6
CONTINUOUS
 62
     7
  5
3FA
 10
-0.88189
 20
0.141732
 30
0.0
 11
-1.137795
 21
0.141732
 31
0.0
  0
LINE
  8
0
  6
CONTINUOUS
 62
     7
  5
3FB
 10
-1.03937
 20
0.173228
 30
0.0
 11
-1.094488
 21
0.173228
 31
0.0
  0
ARC
  8
0
  6
CONTINUOUS
 62
     7
  5
3FC
 10
-1.094488
 20
0.19685
 30
0.0
 40
0.023622
 50
90.0
 51
270.0
  0
LINE
  8
0
  6
CONTINUOUS
 62
     7
  5
3FD
 10
-1.094488
 20
0.220472
 30
0.0
 11
-1.03937
 21
0.220472
 31
0.0
  0
ARC
  8
0
  6
CONTINUOUS
 62
     7
  5
3FE
 10
-1.03937
 20
0.19685
 30
0.0
 40
0.023622
 50
270.0
 51
90.0
  0
LINE
  8
0
  6
CONTINUOUS
 62
     7
  5
3FF
 10
-0.854331
 20
0.251969
 30
0.0
 11
-0.854331
 21
0.224409
 31
0.0
  0
LINE
  8
0
  6
CONTINUOUS
 62
     7
  5
400
 10
-1.137795
 20
0.251969
 30
0.0
 11
-0.854331
 21
0.251969
 31
0.0
  0
LINE
  8
0
  6
CONTINUOUS
 62
     7
  5
401
 10
-1.137795
 20
0.251969
 30
0.0
 11
-1.137795
 21
0.141732
 31
0.0
  0
LINE
  8
0
  6
CONTINUOUS
 62
     7
  5
402
 10
-1.137795
 20
0.141732
 30
0.0
 11
-1.139904
 21
0.144413
 31
0.0
  0
LINE
  8
0
  6
CONTINUOUS
 62
     7
  5
403
 10
-1.139904
 20
0.144413
 30
0.0
 11
-1.141906
 21
0.147175
 31
0.0
  0
LINE
  8
0
  6
CONTINUOUS
 62
     7
  5
404
 10
-1.141906
 20
0.147175
 30
0.0
 11
-1.143798
 21
0.150013
 31
0.0
  0
LINE
  8
0
  6
CONTINUOUS
 62
     7
  5
405
 10
-1.143798
 20
0.150013
 30
0.0
 11
-1.145577
 21
0.152922
 31
0.0
  0
LINE
  8
0
  6
CONTINUOUS
 62
     7
  5
406
 10
-1.145577
 20
0.152922
 30
0.0
 11
-1.147241
 21
0.1559
 31
0.0
  0
LINE
  8
0
  6
CONTINUOUS
 62
     7
  5
407
 10
-1.147241
 20
0.1559
 30
0.0
 11
-1.148787
 21
0.15894
 31
0.0
  0
LINE
  8
0
  6
CONTINUOUS
 62
     7
  5
408
 10
-1.148787
 20
0.15894
 30
0.0
 11
-1.150213
 21
0.162038
 31
0.0
  0
LINE
  8
0
  6
CONTINUOUS
 62
     7
  5
409
 10
-1.150213
 20
0.162038
 30
0.0
 11
-1.151516
 21
0.16519
 31
0.0
  0
LINE
  8
0
  6
CONTINUOUS
 62
     7
  5
40A
 10
-1.151516
 20
0.16519
 30
0.0
 11
-1.152694
 21
0.168391
 31
0.0
  0
LINE
  8
0
  6
CONTINUOUS
 62
     7
  5
40B
 10
-1.152694
 20
0.168391
 30
0.0
 11
-1.153746
 21
0.171635
 31
0.0
  0
LINE
  8
0
  6
CONTINUOUS
 62
     7
  5
40C
 10
-1.153746
 20
0.171635
 30
0.0
 11
-1.154671
 21
0.174918
 31
0.0
  0
LINE
  8
0
  6
CONTINUOUS
 62
     7
  5
40D
 10
-1.154671
 20
0.174918
 30
0.0
 11
-1.155466
 21
0.178235
 31
0.0
  0
LINE
  8
0
  6
CONTINUOUS
 62
     7
  5
40E
 10
-1.155466
 20
0.178235
 30
0.0
 11
-1.15613
 21
0.181581
 31
0.0
  0
LINE
  8
0
  6
CONTINUOUS
 62
     7
  5
40F
 10
-1.15613
 20
0.181581
 30
0.0
 11
-1.156663
 21
0.18495
 31
0.0
  0
LINE
  8
0
  6
CONTINUOUS
 62
     7
  5
410
 10
-1.156663
 20
0.18495
 30
0.0
 11
-1.157063
 21
0.188337
 31
0.0
  0
LINE
  8
0
  6
CONTINUOUS
 62
     7
  5
411
 10
-1.157063
 20
0.188337
 30
0.0
 11
-1.15733
 21
0.191737
 31
0.0
  0
LINE
  8
0
  6
CONTINUOUS
 62
     7
  5
412
 10
-1.15733
 20
0.191737
 30
0.0
 11
-1.157464
 21
0.195145
 31
0.0
  0
LINE
  8
0
  6
CONTINUOUS
 62
     7
  5
413
 10
-1.157464
 20
0.195145
 30
0.0
 11
-1.157464
 21
0.198556
 31
0.0
  0
LINE
  8
0
  6
CONTINUOUS
 62
     7
  5
414
 10
-1.157464
 20
0.198556
 30
0.0
 11
-1.15733
 21
0.201964
 31
0.0
  0
LINE
  8
0
  6
CONTINUOUS
 62
     7
  5
415
 10
-1.15733
 20
0.201964
 30
0.0
 11
-1.157063
 21
0.205364
 31
0.0
  0
LINE
  8
0
  6
CONTINUOUS
 62
     7
  5
416
 10
-1.157063
 20
0.205364
 30
0.0
 11
-1.156663
 21
0.208751
 31
0.0
  0
LINE
  8
0
  6
CONTINUOUS
 62
     7
  5
417
 10
-1.156663
 20
0.208751
 30
0.0
 11
-1.15613
 21
0.21212
 31
0.0
  0
LINE
  8
0
  6
CONTINUOUS
 62
     7
  5
418
 10
-1.15613
 20
0.21212
 30
0.0
 11
-1.155466
 21
0.215466
 31
0.0
  0
LINE
  8
0
  6
CONTINUOUS
 62
     7
  5
419
 10
-1.155466
 20
0.215466
 30
0.0
 11
-1.154671
 21
0.218782
 31
0.0
  0
LINE
  8
0
  6
CONTINUOUS
 62
     7
  5
41A
 10
-1.154671
 20
0.218782
 30
0.0
 11
-1.153746
 21
0.222065
 31
0.0
  0
LINE
  8
0
  6
CONTINUOUS
 62
     7
  5
41B
 10
-1.153746
 20
0.222065
 30
0.0
 11
-1.152694
 21
0.22531
 31
0.0
  0
LINE
  8
0
  6
CONTINUOUS
 62
     7
  5
41C
 10
-1.152694
 20
0.22531
 30
0.0
 11
-1.151516
 21
0.22851
 31
0.0
  0
LINE
  8
0
  6
CONTINUOUS
 62
     7
  5
41D
 10
-1.151516
 20
0.22851
 30
0.0
 11
-1.150213
 21
0.231662
 31
0.0
  0
LINE
  8
0
  6
CONTINUOUS
 62
     7
  5
41E
 10
-1.150213
 20
0.231662
 30
0.0
 11
-1.148787
 21
0.234761
 31
0.0
  0
LINE
  8
0
  6
CONTINUOUS
 62
     7
  5
41F
 10
-1.148787
 20
0.234761
 30
0.0
 11
-1.147241
 21
0.237801
 31
0.0
  0
LINE
  8
0
  6
CONTINUOUS
 62
     7
  5
420
 10
-1.147241
 20
0.237801
 30
0.0
 11
-1.145577
 21
0.240778
 31
0.0
  0
LINE
  8
0
  6
CONTINUOUS
 62
     7
  5
421
 10
-1.145577
 20
0.240778
 30
0.0
 11
-1.143798
 21
0.243688
 31
0.0
  0
LINE
  8
0
  6
CONTINUOUS
 62
     7
  5
422
 10
-1.143798
 20
0.243688
 30
0.0
 11
-1.141906
 21
0.246526
 31
0.0
  0
LINE
  8
0
  6
CONTINUOUS
 62
     7
  5
423
 10
-1.141906
 20
0.246526
 30
0.0
 11
-1.139904
 21
0.249288
 31
0.0
  0
LINE
  8
0
  6
CONTINUOUS
 62
     7
  5
424
 10
-1.139904
 20
0.249288
 30
0.0
 11
-1.137795
 21
0.251969
 31
0.0
  0
LINE
  8
0
  6
CONTINUOUS
 62
     7
  5
425
 10
-0.84252
 20
0.224409
 30
0.0
 11
-0.88189
 21
0.224409
 31
0.0
  0
LINE
  8
0
  6
CONTINUOUS
 62
     7
  5
426
 10
-0.84252
 20
-0.19685
 30
0.0
 11
-0.88189
 21
-0.19685
 31
0.0
  0
LINE
  8
0
  6
CONTINUOUS
 62
     7
  5
427
 10
-0.84252
 20
0.188976
 30
0.0
 11
-0.88189
 21
0.188976
 31
0.0
  0
LINE
  8
0
  6
CONTINUOUS
 62
     7
  5
428
 10
-0.84252
 20
-0.216535
 30
0.0
 11
-0.88189
 21
-0.216535
 31
0.0
  0
LINE
  8
0
  6
CONTINUOUS
 62
     7
  5
429
 10
-0.84252
 20
-0.098425
 30
0.0
 11
-0.84252
 21
0.098425
 31
0.0
  0
LINE
  8
0
  6
CONTINUOUS
 62
     7
  5
42A
 10
-0.645669
 20
-0.098425
 30
0.0
 11
-0.84252
 21
-0.098425
 31
0.0
  0
LINE
  8
0
  6
CONTINUOUS
 62
     7
  5
42B
 10
-0.645669
 20
0.098425
 30
0.0
 11
-0.645669
 21
-0.098425
 31
0.0
  0
LINE
  8
0
  6
CONTINUOUS
 62
     7
  5
42C
 10
-0.84252
 20
0.098425
 30
0.0
 11
-0.645669
 21
0.098425
 31
0.0
  0
LINE
  8
0
  6
CONTINUOUS
 62
     7
  5
42D
 10
-0.84252
 20
-0.291339
 30
0.0
 11
-0.84252
 21
-0.098425
 31
0.0
  0
LINE
  8
0
  6
CONTINUOUS
 62
     7
  5
42E
 10
-0.84252
 20
0.098425
 30
0.0
 11
-0.84252
 21
0.291339
 31
0.0
  0
LINE
  8
0
  6
CONTINUOUS
 62
     7
  5
42F
 10
0.0
 20
-0.34252
 30
0.0
 11
0.023622
 21
-0.34252
 31
0.0
  0
LINE
  8
0
  6
CONTINUOUS
 62
     7
  5
430
 10
0.023622
 20
0.34252
 30
0.0
 11
0.0
 21
0.34252
 31
0.0
  0
LINE
  8
0
  6
CONTINUOUS
 62
     7
  5
431
 10
-0.275591
 20
-0.352362
 30
0.0
 11
-0.165354
 21
-0.352362
 31
0.0
  0
LINE
  8
0
  6
CONTINUOUS
 62
     7
  5
432
 10
-0.165354
 20
0.352362
 30
0.0
 11
-0.275591
 21
0.352362
 31
0.0
  0
LINE
  8
0
  6
CONTINUOUS
 62
     7
  5
433
 10
-0.84252
 20
-0.291339
 30
0.0
 11
-0.448819
 21
-0.291339
 31
0.0
  0
LINE
  8
0
  6
CONTINUOUS
 62
     7
  5
434
 10
-0.448819
 20
0.291339
 30
0.0
 11
-0.84252
 21
0.291339
 31
0.0
  0
LINE
  8
0
  6
CONTINUOUS
 62
     3
  5
435
 10
-0.84252
 20
0.0
 30
0.0
 11
0.401575
 21
0.0
 31
0.0
  0
LINE
  8
0
  6
CONTINUOUS
 62
     3
  5
436
 10
-1.094488
 20
-0.220472
 30
0.0
 11
-1.094488
 21
-0.173228
 31
0.0
  0
LINE
  8
0
  6
CONTINUOUS
 62
     3
  5
437
 10
-1.11811
 20
-0.19685
 30
0.0
 11
-1.070866
 21
-0.19685
 31
0.0
  0
LINE
  8
0
  6
CONTINUOUS
 62
     3
  5
438
 10
-1.03937
 20
-0.220472
 30
0.0
 11
-1.03937
 21
-0.173228
 31
0.0
  0
LINE
  8
0
  6
CONTINUOUS
 62
     3
  5
439
 10
-1.062992
 20
-0.19685
 30
0.0
 11
-1.015748
 21
-0.19685
 31
0.0
  0
LINE
  8
0
  6
CONTINUOUS
 62
     3
  5
43A
 10
-1.094488
 20
-0.023622
 30
0.0
 11
-1.094488
 21
0.023622
 31
0.0
  0
LINE
  8
0
  6
CONTINUOUS
 62
     3
  5
43B
 10
-1.11811
 20
0.0
 30
0.0
 11
-1.070866
 21
0.0
 31
0.0
  0
LINE
  8
0
  6
CONTINUOUS
 62
     3
  5
43C
 10
-1.03937
 20
-0.023622
 30
0.0
 11
-1.03937
 21
0.023622
 31
0.0
  0
LINE
  8
0
  6
CONTINUOUS
 62
     3
  5
43D
 10
-1.062992
 20
0.0
 30
0.0
 11
-1.015748
 21
0.0
 31
0.0
  0
LINE
  8
0
  6
CONTINUOUS
 62
     3
  5
43E
 10
-1.094488
 20
0.173228
 30
0.0
 11
-1.094488
 21
0.220472
 31
0.0
  0
LINE
  8
0
  6
CONTINUOUS
 62
     3
  5
43F
 10
-1.11811
 20
0.19685
 30
0.0
 11
-1.070866
 21
0.19685
 31
0.0
  0
LINE
  8
0
  6
CONTINUOUS
 62
     3
  5
440
 10
-1.03937
 20
0.173228
 30
0.0
 11
-1.03937
 21
0.220472
 31
0.0
  0
LINE
  8
0
  6
CONTINUOUS
 62
     3
  5
441
 10
-1.062992
 20
0.19685
 30
0.0
 11
-1.015748
 21
0.19685
 31
0.0
  0
ENDSEC
  0
EOF
