999
DXF file: C:\Users\sesa63760\Dev\_Creo\CAD\MCADID0002455_3D-CAD\drw0001_5.dxf
999
Pro/ENGINEER 2019471 by Parametric Technology Corporation
  0
SECTION
  2
HEADER
  9
$ACADVER
  1
AC1024
  9
$DWGCODEPAGE
  3
ANSI_1252
  9
$EXTMAX
 10
51.1476772078
 20
72.3374291939
 30
0.0
  9
$EXTMIN
 10
0.0
 20
0.0
 30
0.0
  9
$LIMMIN
 10
0.0
 20
0.0
  9
$LIMMAX
 10
51.1476772078
 20
72.3374291939
  9
$VIEWCTR
 10
25.5738386039
 20
36.1687145969
  9
$VIEWSIZE
 40
72.3374291939
  9
$CLAYER
  8
0
  9
$LTSCALE
 40
4.7153287178
  9
$CELTYPE
  6
BYLAYER
  9
$DIMSCALE
 40
1.0
  9
$DIMASZ
 40
0.6089009191
  9
$DIMEXO
 40
1.0
  9
$DIMDLI
 40
3.2578634778
  9
$DIMEXE
 40
1.0
  9
$DIMCEN
 40
0.7715992447
  9
$DIMLFAC
 40
1.0
  9
$DIMBLK
  1
_FILLED
  9
$DIMALT
 70
0
  9
$DIMALTF
 40
0.0393700787
  9
$DIMTXT
 40
0.8524612868
  9
$DIMTOL
 70
1
  9
$DIMLIM
 70
0
  9
$DIMTFAC
 40
1.0
  9
$DIMTP
 40
0.01
  9
$DIMTM
 40
0.01
  9
$DIMGAP
 40
0.625
  9
$DIMDSEP
 70
46
  9
$AUNITS
 70
0
  9
$PDMODE
 70
3
  9
$PDSIZE
 40
0.3125
  9
$HANDSEED
  5
238
  9
$TILEMODE
 70
1
  9
$MEASUREMENT
 70
1
  9
$INSUNITS
 70
4
  0
ENDSEC
  0
SECTION
  2
CLASSES
  0
CLASS
  1
ACDBDICTIONARYWDFLT
  2
AcDbDictionaryWithDefault
  3
AutoCAD 2000
 90
0
 91
1
280
0
281
0
  0
CLASS
  1
ACDBPLACEHOLDER
  2
AcDbPlaceHolder
  3
AutoCAD 2000
 90
0
 91
1
280
0
281
0
  0
CLASS
  1
LAYOUT
  2
AcDbLayout
  3
AutoCAD 2000
 90
0
 91
0
280
0
281
0
  0
ENDSEC
  0
SECTION
  2
TABLES
  0
TABLE
  2
VPORT
  5
8
100
AcDbSymbolTable
 70
2
  0
VPORT
  5
1F4
100
AcDbSymbolTableRecord
100
AcDbViewportTableRecord
  2
*ACTIVE
 70
0
 10
0.0
 20
0.0
 11
1.0
 21
1.0
 12
25.5738386039
 22
36.1687145969
 13
0.0
 23
0.0
 14
1.0
 24
1.0
 15
0.0
 25
0.0
 16
0.0
 26
0.0
 36
1.0
 17
0.0
 27
0.0
 37
0.0
 40
72.3374291939
 41
0.7070707071
 42
50.0
 43
0.0
 44
0.0
 50
0.0
 51
0.0
 71
0
 72
100
 73
1
 74
1
 75
0
 76
0
 77
0
 78
0
  0
ENDTAB
  0
TABLE
  2
LTYPE
  5
5
100
AcDbSymbolTable
 70
6
  0
LTYPE
  5
14
100
AcDbSymbolTableRecord
100
AcDbLinetypeTableRecord
  2
BYBLOCK
 70
0
  3

 72
65
 73
0
 40
0.0
  0
LTYPE
  5
15
100
AcDbSymbolTableRecord
100
AcDbLinetypeTableRecord
  2
BYLAYER
 70
0
  3

 72
65
 73
0
 40
0.0
  0
LTYPE
  5
16
100
AcDbSymbolTableRecord
100
AcDbLinetypeTableRecord
  2
CONTINUOUS
 70
64
  3
Solid line
 72
65
 73
0
 40
0.0
  0
LTYPE
  5
1F5
100
AcDbSymbolTableRecord
100
AcDbLinetypeTableRecord
  2
CENTER
 70
64
  3
____ _ ____ _ ____ _ ____ _ ____ _ ____ _ ____
 72
65
 73
4
 40
0.6
 49
0.375
 74
0
 49
-0.075
 74
0
 49
0.075
 74
0
 49
-0.075
 74
0
  0
LTYPE
  5
1F6
100
AcDbSymbolTableRecord
100
AcDbLinetypeTableRecord
  2
HIDDEN
 70
64
  3
- - - - - - - - - - - - - - - - - - - -
 72
65
 73
2
 40
0.2
 49
0.1
 74
0
 49
-0.1
 74
0
  0
LTYPE
  5
1F7
100
AcDbSymbolTableRecord
100
AcDbLinetypeTableRecord
  2
PHANTOM
 70
64
  3
_____ _ _ _____ _ _ _____ _ _ _____
 72
65
 73
6
 40
0.8
 49
0.45
 74
0
 49
-0.05
 74
0
 49
0.1
 74
0
 49
-0.05
 74
0
 49
0.1
 74
0
 49
-0.05
 74
0
  0
LTYPE
  5
1F8
100
AcDbSymbolTableRecord
100
AcDbLinetypeTableRecord
  2
DOT
 70
64
  3
. . . . . . . . . . . . . . . . . . . .
 72
65
 73
2
 40
0.2
 49
0.1
 74
0
 49
-0.1
 74
0
  0
LTYPE
  5
1F9
100
AcDbSymbolTableRecord
100
AcDbLinetypeTableRecord
  2
DASHED
 70
64
  3
- - - - - - - - - - - - - - - - - - - -
 72
65
 73
2
 40
0.2
 49
0.1
 74
0
 49
-0.1
 74
0
  0
ENDTAB
  0
TABLE
  2
LAYER
  5
2
100
AcDbSymbolTable
 70
36
  0
LAYER
  5
10
100
AcDbSymbolTableRecord
100
AcDbLayerTableRecord
  2
0
 70
0
 62
7
  6
CONTINUOUS
370
-3
390
F
  0
LAYER
  5
1FA
100
AcDbSymbolTableRecord
100
AcDbLayerTableRecord
  2
DEFAULT_1
 70
0
 62
7
  6
CENTER
370
-3
390
F
  0
LAYER
  5
1FB
100
AcDbSymbolTableRecord
100
AcDbLayerTableRecord
  2
DEFAULT_2
 70
0
 62
8
  6
HIDDEN
370
-3
390
F
  0
LAYER
  5
1FC
100
AcDbSymbolTableRecord
100
AcDbLayerTableRecord
  2
DEFAULT_3
 70
0
 62
7
  6
PHANTOM
370
-3
390
F
  0
LAYER
  5
1FD
100
AcDbSymbolTableRecord
100
AcDbLayerTableRecord
  2
00_COMPONENTS
 70
0
 62
7
  6
CONTINUOUS
370
-3
390
F
  0
LAYER
  5
1FE
100
AcDbSymbolTableRecord
100
AcDbLayerTableRecord
  2
01_1_DEFAULT_DATUMS
 70
0
 62
7
  6
CONTINUOUS
370
-3
390
F
  0
LAYER
  5
1FF
100
AcDbSymbolTableRecord
100
AcDbLayerTableRecord
  2
01_PLANES
 70
0
 62
7
  6
CONTINUOUS
370
-3
390
F
  0
LAYER
  5
200
100
AcDbSymbolTableRecord
100
AcDbLayerTableRecord
  2
02_COORD_SYS
 70
0
 62
7
  6
CONTINUOUS
370
-3
390
F
  0
LAYER
  5
201
100
AcDbSymbolTableRecord
100
AcDbLayerTableRecord
  2
03_AXES
 70
0
 62
7
  6
CONTINUOUS
370
-3
390
F
  0
LAYER
  5
202
100
AcDbSymbolTableRecord
100
AcDbLayerTableRecord
  2
04_POINTS
 70
0
 62
7
  6
CONTINUOUS
370
-3
390
F
  0
LAYER
  5
203
100
AcDbSymbolTableRecord
100
AcDbLayerTableRecord
  2
05_CURVES
 70
0
 62
7
  6
CONTINUOUS
370
-3
390
F
  0
LAYER
  5
204
100
AcDbSymbolTableRecord
100
AcDbLayerTableRecord
  2
06_SURFS
 70
0
 62
7
  6
CONTINUOUS
370
-3
390
F
  0
LAYER
  5
205
100
AcDbSymbolTableRecord
100
AcDbLayerTableRecord
  2
07_COSMETICS
 70
0
 62
7
  6
CONTINUOUS
370
-3
390
F
  0
LAYER
  5
206
100
AcDbSymbolTableRecord
100
AcDbLayerTableRecord
  2
10_NOTES
 70
0
 62
7
  6
CONTINUOUS
370
-3
390
F
  0
LAYER
  5
207
100
AcDbSymbolTableRecord
100
AcDbLayerTableRecord
  2
11_NOTES_PUB
 70
0
 62
7
  6
CONTINUOUS
370
-3
390
F
  0
LAYER
  5
208
100
AcDbSymbolTableRecord
100
AcDbLayerTableRecord
  2
13_REF_GTOL
 70
0
 62
7
  6
CONTINUOUS
370
-3
390
F
  0
LAYER
  5
209
100
AcDbSymbolTableRecord
100
AcDbLayerTableRecord
  2
16_MISC
 70
0
 62
7
  6
CONTINUOUS
370
-3
390
F
  0
LAYER
  5
20A
100
AcDbSymbolTableRecord
100
AcDbLayerTableRecord
  2
17_NO_PRINT
 70
0
 62
7
  6
CONTINUOUS
370
-3
390
F
  0
LAYER
  5
20B
100
AcDbSymbolTableRecord
100
AcDbLayerTableRecord
  2
18_DATUM_CAMS_JOINTS
 70
0
 62
7
  6
CONTINUOUS
370
-3
390
F
  0
LAYER
  5
20C
100
AcDbSymbolTableRecord
100
AcDbLayerTableRecord
  2
19_DATUM_FUNCTIONAL
 70
0
 62
7
  6
CONTINUOUS
370
-3
390
F
  0
LAYER
  5
20D
100
AcDbSymbolTableRecord
100
AcDbLayerTableRecord
  2
20_DATUM_KINEMATIC_SCHEME
 70
0
 62
7
  6
CONTINUOUS
370
-3
390
F
  0
LAYER
  5
20E
100
AcDbSymbolTableRecord
100
AcDbLayerTableRecord
  2
_1
 70
0
 62
7
  6
CONTINUOUS
370
-3
390
F
  0
ENDTAB
  0
TABLE
  2
STYLE
  5
3
100
AcDbSymbolTable
 70
1
  0
STYLE
  5
11
100
AcDbSymbolTableRecord
100
AcDbTextStyleTableRecord
  2
STANDARD
 70
0
 40
0.0
 41
0.8
 50
0.0
 71
0
 42
0.2
  3
txt
  4

  0
STYLE
  5
20F
100
AcDbSymbolTableRecord
100
AcDbTextStyleTableRecord
  2
TEXTSTYLE_1
 70
0
 40
0.0
 41
0.8
 50
0.0
 71
0
 42
0.2
  3
gdt
  4

  0
ENDTAB
  0
TABLE
  2
VIEW
  5
6
100
AcDbSymbolTable
 70
0
  0
ENDTAB
  0
TABLE
  2
UCS
  5
7
100
AcDbSymbolTable
 70
0
  0
ENDTAB
  0
TABLE
  2
APPID
  5
9
100
AcDbSymbolTable
 70
1
  0
APPID
  5
210
100
AcDbSymbolTableRecord
100
AcDbRegAppTableRecord
  2
ACAD
 70
0
  0
ENDTAB
  0
TABLE
  2
BLOCK_RECORD
  5
1
100
AcDbSymbolTable
 70
0
  0
BLOCK_RECORD
  5
211
100
AcDbSymbolTableRecord
100
AcDbBlockTableRecord
  2
*Model_Space
  0
BLOCK_RECORD
  5
212
100
AcDbSymbolTableRecord
100
AcDbBlockTableRecord
  2
*Paper_Space
  0
BLOCK_RECORD
  5
213
100
AcDbSymbolTableRecord
100
AcDbBlockTableRecord
  2
_FILLED
  0
ENDTAB
  0
TABLE
  2
DIMSTYLE
  5
A
100
AcDbSymbolTable
 70
1
100
AcDbDimStyleTable
 71
0
  0
DIMSTYLE
105
214
100
AcDbSymbolTableRecord
100
AcDbDimStyleTableRecord
  2
STANDARD
 70
0
  3

  4

 40
1.0
 41
0.6089009191
 42
1.0
 43
0.38
 44
1.0
 45
0.0
 46
0.0
 47
0.01
 48
0.01
140
0.8524612868
141
0.09
142
0.0
143
25.4
144
1.0
145
0.0
146
1.0
147
0.625
 71
1
 72
0
 73
0
 74
0
 75
0
 76
0
 77
1
 78
8
 79
2
170
0
171
1
172
0
173
0
174
0
175
0
176
0
177
0
178
0
270
2
179
2
271
2
272
2
273
2
274
2
275
0
280
0
281
0
282
0
283
1
284
8
285
0
286
0
287
3
288
0
340
11
278
46
341
213
342
213
343
213
344
213
  0
ENDTAB
  0
ENDSEC
  0
SECTION
  2
BLOCKS
  0
BLOCK
  5
20
100
AcDbEntity
  8
0
100
AcDbBlockBegin
  2
*Model_Space
 70
0
 10
0.0
 20
0.0
 30
0.0
  3
*Model_Space
  1

  0
ENDBLK
  5
21
100
AcDbEntity
  8
0
100
AcDbBlockEnd
  0
BLOCK
  5
1C
100
AcDbEntity
  8
0
100
AcDbBlockBegin
  2
*Paper_Space
 70
0
 10
0.0
 20
0.0
 30
0.0
  3
*Paper_Space
  1

  0
ENDBLK
  5
1D
100
AcDbEntity
  8
0
100
AcDbBlockEnd
  0
BLOCK
  5
215
100
AcDbEntity
  8
0
100
AcDbBlockBegin
  2
_FILLED
 70
64
 10
0.0
 20
0.0
  3
_FILLED
  1

  0
SOLID
  5
216
100
AcDbEntity
  8
0
  6
BYBLOCK
 62
0
100
AcDbTrace
 10
0.0
 20
0.0
 11
-1.0
 21
0.25
 12
-1.0
 22
-0.25
 13
-1.0
 23
-0.25
  0
ENDBLK
  5
217
100
AcDbEntity
  8
0
  6
BYBLOCK
 62
0
100
AcDbBlockEnd
  0
ENDSEC
  0
SECTION
  2
ENTITIES
  0
LINE
  5
218
100
AcDbEntity
  8
0
100
AcDbLine
 62
7
  6
CONTINUOUS
 10
8.0093723398
 20
54.8974016805
 11
7.4678112529
 21
53.9700832119
  0
LINE
  5
219
100
AcDbEntity
  8
0
100
AcDbLine
 62
7
  6
CONTINUOUS
 10
9.9431690587
 20
55.9850913226
 11
8.0093723398
 21
54.8974016805
  0
LINE
  5
21A
100
AcDbEntity
  8
0
100
AcDbLine
 62
7
  6
CONTINUOUS
 10
6.9057781125
 20
52.9903760207
 11
6.5605990447
 21
50.2217466949
  0
LINE
  5
21B
100
AcDbEntity
  8
0
100
AcDbLine
 62
7
  6
CONTINUOUS
 10
5.962161044
 20
15.9372554709
 11
6.5605974217
 21
50.2216525864
  0
LINE
  5
21C
100
AcDbEntity
  8
0
100
AcDbLine
 62
7
  6
CONTINUOUS
 10
5.962161044
 20
15.9372554709
 11
46.602161044
 21
15.9372554709
  0
LINE
  5
21D
100
AcDbEntity
  8
0
100
AcDbLine
 62
7
  6
CONTINUOUS
 10
46.0037230546
 20
50.2217461417
 11
46.602161044
 21
15.9372554709
  0
LINE
  5
21E
100
AcDbEntity
  8
0
100
AcDbLine
 62
7
  6
CONTINUOUS
 10
12.4433690077
 20
56.4137525999
 11
12.4435537078
 21
56.4137677024
  0
LINE
  5
21F
100
AcDbEntity
  8
0
100
AcDbLine
 62
7
  6
CONTINUOUS
 10
13.9796121694
 20
56.5108785721
 11
12.4433690077
 21
56.4137525999
  0
LINE
  5
220
100
AcDbEntity
  8
0
100
AcDbLine
 62
7
  6
CONTINUOUS
 10
15.7324857013
 20
56.5641592171
 11
13.9689837402
 21
56.5103884405
  0
LINE
  5
221
100
AcDbEntity
  8
0
100
AcDbLine
 62
7
  6
CONTINUOUS
 10
17.4544775887
 20
56.5772612558
 11
15.7216431052
 21
56.5639723402
  0
LINE
  5
222
100
AcDbEntity
  8
0
100
AcDbLine
 62
7
  6
CONTINUOUS
 10
35.3278504996
 20
55.8285542046
 11
17.2364715884
 21
55.8285542046
  0
LINE
  5
223
100
AcDbEntity
  8
0
100
AcDbLine
 62
7
  6
CONTINUOUS
 10
17.4544792339
 20
56.5772554709
 11
35.1098428541
 21
56.5772554709
  0
LINE
  5
224
100
AcDbEntity
  8
0
100
AcDbLine
 62
7
  6
CONTINUOUS
 10
36.8426255334
 20
56.5639745669
 11
35.1098449022
 21
56.5772613895
  0
LINE
  5
225
100
AcDbEntity
  8
0
100
AcDbLine
 62
7
  6
CONTINUOUS
 10
38.5897307746
 20
56.5105613524
 11
36.8318899444
 21
56.564156944
  0
LINE
  5
226
100
AcDbEntity
  8
0
100
AcDbLine
 62
7
  6
CONTINUOUS
 10
40.1209531262
 20
56.4137524417
 11
38.584762528
 21
56.5108754613
  0
LINE
  5
227
100
AcDbEntity
  8
0
100
AcDbLine
 62
7
  6
CONTINUOUS
 10
40.1209531262
 20
56.4137524417
 11
40.1207744927
 21
56.4137670517
  0
LWPOLYLINE
  5
228
100
AcDbEntity
  8
0
100
AcDbPolyline
 62
7
  6
CONTINUOUS
 90
5
 70
0
 10
46.0037230546
 20
50.2217461417
 10
45.6557569563
 20
53.0125275776
 10
44.5547741669
 20
54.8975499758
 10
42.6215122741
 20
55.984981564
 10
40.1207939614
 20
56.4135201085
  0
LWPOLYLINE
  5
229
100
AcDbEntity
  8
0
100
AcDbPolyline
 62
7
  6
CONTINUOUS
 90
5
 70
0
 10
12.4434792982
 20
56.4135167351
 10
9.9157672025
 20
55.9765187301
 10
7.9874524898
 20
54.8758950228
 10
6.8977833401
 20
52.9764399456
 10
6.560598581
 20
50.2217224696
  0
LINE
  5
22A
100
AcDbEntity
  8
0
100
AcDbLine
 62
7
  6
CONTINUOUS
 10
12.443534331
 20
56.4135204142
 11
9.9431690587
 21
55.9850913226
  0
LWPOLYLINE
  5
22B
100
AcDbEntity
  8
0
100
AcDbPolyline
 62
7
  6
CONTINUOUS
 90
3
 70
0
 10
45.6584959753
 20
52.9905599103
 10
44.5767983216
 20
54.8759700522
 10
44.5626690357
 20
54.8840329576
  0
SPLINE
  5
22C
100
AcDbEntity
  8
0
100
AcDbSpline
 62
7
  6
CONTINUOUS
 70
0
 71
3
 72
23
 73
19
 74
0
 42
0.0000001
 43
0.0000001
 44
0.0000000001
 40
0.0
 40
0.0
 40
0.0
 40
0.0
 40
0.0694427006
 40
0.1357825696
 40
0.1988954566
 40
0.2588167645
 40
0.3158174032
 40
0.3704402588
 40
0.4235217651
 40
0.4762058248
 40
0.529786668
 40
0.5854848148
 40
0.6443586832
 40
0.7071304941
 40
0.7741588856
 40
0.8454669285
 40
0.9208556204
 40
1.0
 40
1.0
 40
1.0
 40
1.0
 10
46.0037246449
 20
50.2216561876
 30
0.0
 10
46.0000726954
 20
50.4308700023
 30
0.0
 10
45.986993193
 20
50.8399010968
 30
0.0
 10
45.9423288342
 20
51.4377875398
 30
0.0
 10
45.8669641423
 20
52.0038354057
 30
0.0
 10
45.7544520019
 20
52.535202574
 30
0.0
 10
45.5990105894
 20
53.0291911446
 30
0.0
 10
45.3956230006
 20
53.4833245038
 30
0.0
 10
45.1389813544
 20
53.8948881888
 30
0.0
 10
44.8241354641
 20
54.2599621124
 30
0.0
 10
44.4515657607
 20
54.5779255527
 30
0.0
 10
44.0221015557
 20
54.8497159382
 30
0.0
 10
43.5365903461
 20
55.0758937342
 30
0.0
 10
42.9978938604
 20
55.2602373743
 30
0.0
 10
42.4094149417
 20
55.4071810185
 30
0.0
 10
41.7752982916
 20
55.5215986472
 30
0.0
 10
41.1001180037
 20
55.6082858067
 30
0.0
 10
40.6362269683
 20
55.6497296297
 30
0.0
 10
40.398420913
 20
55.6676314027
 30
0.0
  0
SPLINE
  5
22D
100
AcDbEntity
  8
0
100
AcDbSpline
 62
7
  6
CONTINUOUS
 70
0
 71
3
 72
8
 73
4
 74
0
 42
0.0000001
 43
0.0000001
 44
0.0000000001
 40
0.0
 40
0.0
 40
0.0
 40
0.0
 40
1.0
 40
1.0
 40
1.0
 40
1.0
 10
40.3984246586
 20
55.6676315702
 30
0.0
 10
40.6868498633
 20
42.4241788062
 30
0.0
 10
40.9750123556
 20
29.1807203176
 30
0.0
 10
41.262886938
 20
15.9372555732
 30
0.0
  0
SPLINE
  5
22E
100
AcDbEntity
  8
0
100
AcDbSpline
 62
7
  6
CONTINUOUS
 70
0
 71
3
 72
18
 73
14
 74
0
 42
0.0000001
 43
0.0000001
 44
0.0000000001
 40
0.0
 40
0.0
 40
0.0
 40
0.0
 40
0.1806311678
 40
0.3559277656
 40
0.5160188048
 40
0.6560413269
 40
0.7759281657
 40
0.827753234
 40
0.8733374546
 40
0.9125139009
 40
0.9458033084
 40
0.9743337504
 40
1.0
 40
1.0
 40
1.0
 40
1.0
 10
35.32784721
 20
55.8285539992
 30
0.0
 10
35.3276045371
 20
55.8777141003
 30
0.0
 10
35.3244670171
 20
55.9745939453
 30
0.0
 10
35.3118094899
 20
56.1145410881
 30
0.0
 10
35.2919876814
 20
56.2425157443
 30
0.0
 10
35.2658805758
 20
56.3539137193
 30
0.0
 10
35.2384560712
 20
56.4344678255
 30
0.0
 10
35.2129980868
 20
56.4879225485
 30
0.0
 10
35.1937970382
 20
56.5198444379
 30
0.0
 10
35.1737269278
 20
56.5450809828
 30
0.0
 10
35.1530008571
 20
56.5634299327
 30
0.0
 10
35.131674521
 20
56.5746461246
 30
0.0
 10
35.1168423021
 20
56.577259688
 30
0.0
 10
35.1098569585
 20
56.5772613877
 30
0.0
  0
SPLINE
  5
22F
100
AcDbEntity
  8
0
100
AcDbSpline
 62
7
  6
CONTINUOUS
 70
0
 71
3
 72
15
 73
11
 74
0
 42
0.0000001
 43
0.0000001
 44
0.0000000001
 40
0.0
 40
0.0
 40
0.0
 40
0.0
 40
0.1649696921
 40
0.3275319748
 40
0.4801818173
 40
0.6160022858
 40
0.733685254
 40
0.8355084857
 40
0.9230480644
 40
1.0
 40
1.0
 40
1.0
 40
1.0
 10
40.3984214063
 20
55.6676314663
 30
0.0
 10
40.4011559762
 20
55.714511713
 30
0.0
 10
40.4027695531
 20
55.8078597269
 30
0.0
 10
40.3933012157
 20
55.9444040921
 30
0.0
 10
40.3719119818
 20
56.0712412561
 30
0.0
 10
40.3398493645
 20
56.1826285574
 30
0.0
 10
40.2983280491
 20
56.2753355258
 30
0.0
 10
40.2479368586
 20
56.347576107
 30
0.0
 10
40.18891753
 20
56.3971607347
 30
0.0
 10
40.1427841368
 20
56.4119537955
 30
0.0
 10
40.1209531262
 20
56.4137524417
 30
0.0
  0
SPLINE
  5
230
100
AcDbEntity
  8
0
100
AcDbSpline
 62
7
  6
CONTINUOUS
 70
0
 71
3
 72
15
 73
11
 74
0
 42
0.0000001
 43
0.0000001
 44
0.0000000001
 40
0.0
 40
0.0
 40
0.0
 40
0.0
 40
0.1284891075
 40
0.2560922133
 40
0.5084068598
 40
0.6330107234
 40
0.7565100883
 40
0.878855931
 40
0.9395812683
 40
1.0
 40
1.0
 40
1.0
 40
1.0
 10
17.2364715884
 20
55.8285542046
 30
0.0
 10
17.0191355704
 20
55.8291319455
 30
0.0
 10
16.5859560307
 20
55.8279699274
 30
0.0
 10
15.7260261903
 20
55.8206982856
 30
0.0
 10
14.8727417021
 20
55.8047892807
 30
0.0
 10
14.0267317514
 20
55.7771118793
 30
0.0
 10
13.4007454252
 20
55.7488361992
 30
0.0
 10
12.8830450081
 20
55.7187391329
 30
0.0
 10
12.4721379326
 20
55.6907389064
 30
0.0
 10
12.2677796757
 20
55.6756426908
 30
0.0
 10
12.1658970595
 20
55.6676315845
 30
0.0
  0
SPLINE
  5
231
100
AcDbEntity
  8
0
100
AcDbSpline
 62
7
  6
CONTINUOUS
 70
0
 71
3
 72
13
 73
9
 74
0
 42
0.0000001
 43
0.0000001
 44
0.0000000001
 40
0.0
 40
0.0
 40
0.0
 40
0.0
 40
0.1211484214
 40
0.2434941962
 40
0.4915931711
 40
0.743907898
 40
0.8715110121
 40
1.0
 40
1.0
 40
1.0
 40
1.0
 10
40.3984250284
 20
55.6676315845
 30
0.0
 10
40.1941411195
 20
55.6837642709
 30
0.0
 10
39.7833675946
 20
55.7139668907
 30
0.0
 10
38.9531690721
 20
55.7613318325
 30
0.0
 10
37.9004344849
 20
55.801034699
 30
0.0
 10
36.8382931517
 20
55.8205067774
 30
0.0
 10
35.9783650809
 20
55.8280521857
 30
0.0
 10
35.5451861791
 20
55.8290910414
 30
0.0
 10
35.3278504996
 20
55.8285542046
 30
0.0
  0
SPLINE
  5
232
100
AcDbEntity
  8
0
100
AcDbSpline
 62
7
  6
CONTINUOUS
 70
0
 71
3
 72
17
 73
13
 74
0
 42
0.0000001
 43
0.0000001
 44
0.0000000001
 40
0.0
 40
0.0
 40
0.0
 40
0.0
 40
0.1645059848
 40
0.3269556935
 40
0.479836466
 40
0.6161553953
 40
0.7335430668
 40
0.8346188633
 40
0.8800503431
 40
0.9223132457
 40
0.9619220369
 40
1.0
 40
1.0
 40
1.0
 40
1.0
 10
12.1659032278
 20
55.6676305412
 30
0.0
 10
12.16317485
 20
55.7144064429
 30
0.0
 10
12.1617335248
 20
55.8076452492
 30
0.0
 10
12.1710237129
 20
55.9441783822
 30
0.0
 10
12.1923908613
 20
56.0712720841
 30
0.0
 10
12.224541678
 20
56.1828645196
 30
0.0
 10
12.2660868563
 20
56.2753747408
 30
0.0
 10
12.3094352564
 20
56.3376925531
 30
0.0
 10
12.3487374999
 20
56.374652695
 30
0.0
 10
12.3789213374
 20
56.3950931874
 30
0.0
 10
12.4106052816
 20
56.4084847479
 30
0.0
 10
12.4325406224
 20
56.4126347229
 30
0.0
 10
12.4433510856
 20
56.4135064504
 30
0.0
  0
SPLINE
  5
233
100
AcDbEntity
  8
0
100
AcDbSpline
 62
7
  6
CONTINUOUS
 70
0
 71
3
 72
24
 73
20
 74
0
 42
0.0000001
 43
0.0000001
 44
0.0000000001
 40
0.0
 40
0.0
 40
0.0
 40
0.0
 40
0.0791479396
 40
0.1545376066
 40
0.2258390465
 40
0.2928508839
 40
0.3556113223
 40
0.4144719572
 40
0.4701746679
 40
0.5237624811
 40
0.5501569955
 40
0.5764888359
 40
0.6295732193
 40
0.6841915732
 40
0.7411971082
 40
0.8011284299
 40
0.8642375999
 40
0.9305649929
 40
1.0
 40
1.0
 40
1.0
 40
1.0
 10
12.1659023932
 20
55.6676304784
 30
0.0
 10
11.928079816
 20
55.6497293976
 30
0.0
 10
11.4641624378
 20
55.6083016344
 30
0.0
 10
10.7889687721
 20
55.5216479762
 30
0.0
 10
10.1548940689
 20
55.4072671223
 30
0.0
 10
9.5665316052
 20
55.2602435482
 30
0.0
 10
9.0279185735
 20
55.0759731904
 30
0.0
 10
8.542614578
 20
54.8494430035
 30
0.0
 10
8.1131006933
 20
54.5778424832
 30
0.0
 10
7.800732594
 20
54.3115233864
 30
0.0
 10
7.5821886649
 20
54.0769021282
 30
0.0
 10
7.3833546856
 20
53.8272925416
 30
0.0
 10
7.1685283762
 20
53.4834460066
 30
0.0
 10
6.9649222958
 20
53.0293909503
 30
0.0
 10
6.81013418
 20
52.5351223733
 30
0.0
 10
6.698075332
 20
52.0036371809
 30
0.0
 10
6.6224922683
 20
51.4376321019
 30
0.0
 10
6.5774732594
 20
50.8398289813
 30
0.0
 10
6.5642489264
 20
50.4308507881
 30
0.0
 10
6.5605973951
 20
50.2216551537
 30
0.0
  0
SPLINE
  5
234
100
AcDbEntity
  8
0
100
AcDbSpline
 62
7
  6
CONTINUOUS
 70
0
 71
3
 72
8
 73
4
 74
0
 42
0.0000001
 43
0.0000001
 44
0.0000000001
 40
0.0
 40
0.0
 40
0.0
 40
0.0
 40
1.0
 40
1.0
 40
1.0
 40
1.0
 10
12.165897427
 20
55.6676315702
 30
0.0
 10
11.8774720789
 20
42.4241788094
 30
0.0
 10
11.5893096385
 20
29.1807203197
 30
0.0
 10
11.3014351349
 20
15.9372555737
 30
0.0
  0
SPLINE
  5
235
100
AcDbEntity
  8
0
100
AcDbSpline
 62
7
  6
CONTINUOUS
 70
0
 71
3
 72
18
 73
14
 74
0
 42
0.0000001
 43
0.0000001
 44
0.0000000001
 40
0.0
 40
0.0
 40
0.0
 40
0.0
 40
0.1806313077
 40
0.3559280248
 40
0.5160191349
 40
0.6560416777
 40
0.7759284842
 40
0.8277535089
 40
0.8733376655
 40
0.9125140391
 40
0.9458033751
 40
0.974333765
 40
1.0
 40
1.0
 40
1.0
 40
1.0
 10
17.2364749566
 20
55.8285540001
 30
0.0
 10
17.2367176323
 20
55.8777141569
 30
0.0
 10
17.2398551634
 20
55.974594107
 30
0.0
 10
17.2525127243
 20
56.1145413877
 30
0.0
 10
17.2723345816
 20
56.2425161418
 30
0.0
 10
17.298441746
 20
56.3539141621
 30
0.0
 10
17.3258663136
 20
56.434468265
 30
0.0
 10
17.3513243542
 20
56.4879229432
 30
0.0
 10
17.3705254404
 20
56.5198447691
 30
0.0
 10
17.3905955858
 20
56.5450812302
 30
0.0
 10
17.4113216928
 20
56.5634300768
 30
0.0
 10
17.4326480653
 20
56.5746461441
 30
0.0
 10
17.4474802914
 20
56.5772596037
 30
0.0
 10
17.4544656334
 20
56.5772612541
 30
0.0
  0
ENDSEC
  0
SECTION
  2
OBJECTS
  0
DICTIONARY
  5
C
100
AcDbDictionary
280
0
281
1
  3
ACAD_GROUP
350
D
  3
ACAD_MLINESTYLE
350
17
  3
ACAD_LAYOUT
350
1A
  3
ACAD_PLOTSETTINGS
350
19
  3
ACAD_PLOTSTYLENAME
350
E
  0
DICTIONARY
  5
D
102
{ACAD_REACTORS
330
C
102
}
100
AcDbDictionary
280
0
281
1
  0
ACDBDICTIONARYWDFLT
  5
E
102
{ACAD_REACTORS
330
C
102
}
100
AcDbDictionary
281
1
  3
Normal
350
F
100
AcDbDictionaryWithDefault
340
F
  0
DICTIONARY
  5
17
102
{ACAD_REACTORS
330
C
102
}
100
AcDbDictionary
280
0
281
1
  3
Standard
350
18
  0
DICTIONARY
  5
19
102
{ACAD_REACTORS
330
C
102
}
100
AcDbDictionary
281
1
  0
DICTIONARY
  5
1A
102
{ACAD_REACTORS
330
C
102
}
100
AcDbDictionary
281
1
  3
Model
350
236
  3
Layout1
350
237
  0
ACDBPLACEHOLDER
  5
F
102
{ACAD_REACTORS
330
E
102
}
  0
MLINESTYLE
  5
18
102
{ACAD_REACTORS
330
17
102
}
100
AcDbMlineStyle
  2
STANDARD
 70
0
  3

 62
256
 51
90.0
 52
90.0
 71
2
 49
0.5
 62
256
  6
BYLAYER
 49
-0.5
 62
256
  6
BYLAYER
  0
LAYOUT
  5
236
102
{ACAD_REACTORS
330
1A
102
}
100
AcDbPlotSettings
  1

  2
none_device
  4

  6

 40
0.0
 41
0.0
 42
0.0
 43
0.0
 44
210.0
 45
297.0
 46
0.0
 47
0.0
 48
0.0
 49
0.0
140
0.0
141
0.0
142
1.0
143
1.0
 70
1024
 72
1
 73
0
 74
0
  7

 75
0
147
1.0
148
0.0
149
0.0
100
AcDbLayout
  1
Model
 70
0
 71
0
 10
0.0
 20
0.0
 11
210.0
 21
297.0
 12
0.0
 22
0.0
 32
0.0
 14
0.0
 24
0.0
 34
0.0
 15
0.0
 25
0.0
 35
0.0
146
0.0
 13
0.0
 23
0.0
 33
0.0
 16
1.0
 26
0.0
 36
0.0
 17
0.0
 27
1.0
 37
0.0
 76
0
330
211
345
0
346
0
  0
LAYOUT
  5
237
102
{ACAD_REACTORS
330
1A
102
}
100
AcDbPlotSettings
  1

  2
none_device
  4

  6

 40
0.0
 41
0.0
 42
0.0
 43
0.0
 44
210.0
 45
297.0
 46
0.0
 47
0.0
 48
0.0
 49
0.0
140
0.0
141
0.0
142
1.0
143
1.0
 70
0
 72
1
 73
0
 74
0
  7

 75
0
147
1.0
148
0.0
149
0.0
100
AcDbLayout
  1
Layout1
 70
0
 71
1
 10
0.0
 20
0.0
 11
210.0
 21
297.0
 12
0.0
 22
0.0
 32
0.0
 14
0.0
 24
0.0
 34
0.0
 15
0.0
 25
0.0
 35
0.0
146
0.0
 13
0.0
 23
0.0
 33
0.0
 16
1.0
 26
0.0
 36
0.0
 17
0.0
 27
1.0
 37
0.0
 76
0
330
212
345
0
346
0
  0
ENDSEC
  0
EOF
