999
DXF file: C:\Users\sesa63760\Dev\_Creo\CAD\MCADPP0003086_3D-CAD\drw0001_7.dxf
999
Pro/ENGINEER 2019471 by Parametric Technology Corporation
  0
SECTION
  2
HEADER
  9
$ACADVER
  1
AC1024
  9
$DWGCODEPAGE
  3
ANSI_1252
  9
$EXTMAX
 10
187.8271135866
 20
265.6412035011
 30
0.0
  9
$EXTMIN
 10
0.0
 20
0.0
 30
0.0
  9
$LIMMIN
 10
0.0
 20
0.0
  9
$LIMMAX
 10
187.8271135866
 20
265.6412035011
  9
$VIEWCTR
 10
93.9135567933
 20
132.8206017505
  9
$VIEWSIZE
 40
265.6412035011
  9
$CLAYER
  8
0
  9
$LTSCALE
 40
17.315871043
  9
$CELTYPE
  6
BYLAYER
  9
$DIMSCALE
 40
1.0
  9
$DIMASZ
 40
2.2360370665
  9
$DIMEXO
 40
1.0
  9
$DIMDLI
 40
11.9636927206
  9
$DIMEXE
 40
1.0
  9
$DIMCEN
 40
2.8335061707
  9
$DIMLFAC
 40
1.0
  9
$DIMBLK
  1
_FILLED
  9
$DIMALT
 70
0
  9
$DIMALTF
 40
0.0393700787
  9
$DIMTXT
 40
3.1304518931
  9
$DIMTOL
 70
1
  9
$DIMLIM
 70
0
  9
$DIMTFAC
 40
1.0
  9
$DIMTP
 40
0.01
  9
$DIMTM
 40
0.01
  9
$DIMGAP
 40
0.625
  9
$DIMDSEP
 70
46
  9
$AUNITS
 70
0
  9
$PDMODE
 70
3
  9
$PDSIZE
 40
0.3125
  9
$HANDSEED
  5
34F
  9
$TILEMODE
 70
1
  9
$MEASUREMENT
 70
1
  9
$INSUNITS
 70
4
  0
ENDSEC
  0
SECTION
  2
CLASSES
  0
CLASS
  1
ACDBDICTIONARYWDFLT
  2
AcDbDictionaryWithDefault
  3
AutoCAD 2000
 90
0
 91
1
280
0
281
0
  0
CLASS
  1
ACDBPLACEHOLDER
  2
AcDbPlaceHolder
  3
AutoCAD 2000
 90
0
 91
1
280
0
281
0
  0
CLASS
  1
LAYOUT
  2
AcDbLayout
  3
AutoCAD 2000
 90
0
 91
0
280
0
281
0
  0
ENDSEC
  0
SECTION
  2
TABLES
  0
TABLE
  2
VPORT
  5
8
100
AcDbSymbolTable
 70
2
  0
VPORT
  5
1F4
100
AcDbSymbolTableRecord
100
AcDbViewportTableRecord
  2
*ACTIVE
 70
0
 10
0.0
 20
0.0
 11
1.0
 21
1.0
 12
93.9135567933
 22
132.8206017505
 13
0.0
 23
0.0
 14
1.0
 24
1.0
 15
0.0
 25
0.0
 16
0.0
 26
0.0
 36
1.0
 17
0.0
 27
0.0
 37
0.0
 40
265.6412035011
 41
0.7070707071
 42
50.0
 43
0.0
 44
0.0
 50
0.0
 51
0.0
 71
0
 72
100
 73
1
 74
1
 75
0
 76
0
 77
0
 78
0
  0
ENDTAB
  0
TABLE
  2
LTYPE
  5
5
100
AcDbSymbolTable
 70
6
  0
LTYPE
  5
14
100
AcDbSymbolTableRecord
100
AcDbLinetypeTableRecord
  2
BYBLOCK
 70
0
  3

 72
65
 73
0
 40
0.0
  0
LTYPE
  5
15
100
AcDbSymbolTableRecord
100
AcDbLinetypeTableRecord
  2
BYLAYER
 70
0
  3

 72
65
 73
0
 40
0.0
  0
LTYPE
  5
16
100
AcDbSymbolTableRecord
100
AcDbLinetypeTableRecord
  2
CONTINUOUS
 70
64
  3
Solid line
 72
65
 73
0
 40
0.0
  0
LTYPE
  5
1F5
100
AcDbSymbolTableRecord
100
AcDbLinetypeTableRecord
  2
CENTER
 70
64
  3
____ _ ____ _ ____ _ ____ _ ____ _ ____ _ ____
 72
65
 73
4
 40
0.6
 49
0.375
 74
0
 49
-0.075
 74
0
 49
0.075
 74
0
 49
-0.075
 74
0
  0
LTYPE
  5
1F6
100
AcDbSymbolTableRecord
100
AcDbLinetypeTableRecord
  2
HIDDEN
 70
64
  3
- - - - - - - - - - - - - - - - - - - -
 72
65
 73
2
 40
0.2
 49
0.1
 74
0
 49
-0.1
 74
0
  0
LTYPE
  5
1F7
100
AcDbSymbolTableRecord
100
AcDbLinetypeTableRecord
  2
PHANTOM
 70
64
  3
_____ _ _ _____ _ _ _____ _ _ _____
 72
65
 73
6
 40
0.8
 49
0.45
 74
0
 49
-0.05
 74
0
 49
0.1
 74
0
 49
-0.05
 74
0
 49
0.1
 74
0
 49
-0.05
 74
0
  0
LTYPE
  5
1F8
100
AcDbSymbolTableRecord
100
AcDbLinetypeTableRecord
  2
DOT
 70
64
  3
. . . . . . . . . . . . . . . . . . . .
 72
65
 73
2
 40
0.2
 49
0.1
 74
0
 49
-0.1
 74
0
  0
LTYPE
  5
1F9
100
AcDbSymbolTableRecord
100
AcDbLinetypeTableRecord
  2
DASHED
 70
64
  3
- - - - - - - - - - - - - - - - - - - -
 72
65
 73
2
 40
0.2
 49
0.1
 74
0
 49
-0.1
 74
0
  0
ENDTAB
  0
TABLE
  2
LAYER
  5
2
100
AcDbSymbolTable
 70
36
  0
LAYER
  5
10
100
AcDbSymbolTableRecord
100
AcDbLayerTableRecord
  2
0
 70
0
 62
7
  6
CONTINUOUS
370
-3
390
F
  0
LAYER
  5
1FA
100
AcDbSymbolTableRecord
100
AcDbLayerTableRecord
  2
DEFAULT_1
 70
0
 62
7
  6
CENTER
370
-3
390
F
  0
LAYER
  5
1FB
100
AcDbSymbolTableRecord
100
AcDbLayerTableRecord
  2
DEFAULT_2
 70
0
 62
8
  6
HIDDEN
370
-3
390
F
  0
LAYER
  5
1FC
100
AcDbSymbolTableRecord
100
AcDbLayerTableRecord
  2
DEFAULT_3
 70
0
 62
7
  6
PHANTOM
370
-3
390
F
  0
LAYER
  5
1FD
100
AcDbSymbolTableRecord
100
AcDbLayerTableRecord
  2
00_COMPONENTS
 70
0
 62
7
  6
CONTINUOUS
370
-3
390
F
  0
LAYER
  5
1FE
100
AcDbSymbolTableRecord
100
AcDbLayerTableRecord
  2
01_1_DEFAULT_DATUMS
 70
0
 62
7
  6
CONTINUOUS
370
-3
390
F
  0
LAYER
  5
1FF
100
AcDbSymbolTableRecord
100
AcDbLayerTableRecord
  2
01_PLANES
 70
0
 62
7
  6
CONTINUOUS
370
-3
390
F
  0
LAYER
  5
200
100
AcDbSymbolTableRecord
100
AcDbLayerTableRecord
  2
02_COORD_SYS
 70
0
 62
7
  6
CONTINUOUS
370
-3
390
F
  0
LAYER
  5
201
100
AcDbSymbolTableRecord
100
AcDbLayerTableRecord
  2
03_AXES
 70
0
 62
7
  6
CONTINUOUS
370
-3
390
F
  0
LAYER
  5
202
100
AcDbSymbolTableRecord
100
AcDbLayerTableRecord
  2
04_POINTS
 70
0
 62
7
  6
CONTINUOUS
370
-3
390
F
  0
LAYER
  5
203
100
AcDbSymbolTableRecord
100
AcDbLayerTableRecord
  2
05_CURVES
 70
0
 62
7
  6
CONTINUOUS
370
-3
390
F
  0
LAYER
  5
204
100
AcDbSymbolTableRecord
100
AcDbLayerTableRecord
  2
06_SURFS
 70
0
 62
7
  6
CONTINUOUS
370
-3
390
F
  0
LAYER
  5
205
100
AcDbSymbolTableRecord
100
AcDbLayerTableRecord
  2
07_COSMETICS
 70
0
 62
7
  6
CONTINUOUS
370
-3
390
F
  0
LAYER
  5
206
100
AcDbSymbolTableRecord
100
AcDbLayerTableRecord
  2
10_NOTES
 70
0
 62
7
  6
CONTINUOUS
370
-3
390
F
  0
LAYER
  5
207
100
AcDbSymbolTableRecord
100
AcDbLayerTableRecord
  2
11_NOTES_PUB
 70
0
 62
7
  6
CONTINUOUS
370
-3
390
F
  0
LAYER
  5
208
100
AcDbSymbolTableRecord
100
AcDbLayerTableRecord
  2
13_REF_GTOL
 70
0
 62
7
  6
CONTINUOUS
370
-3
390
F
  0
LAYER
  5
209
100
AcDbSymbolTableRecord
100
AcDbLayerTableRecord
  2
16_MISC
 70
0
 62
7
  6
CONTINUOUS
370
-3
390
F
  0
LAYER
  5
20A
100
AcDbSymbolTableRecord
100
AcDbLayerTableRecord
  2
17_NO_PRINT
 70
0
 62
7
  6
CONTINUOUS
370
-3
390
F
  0
LAYER
  5
20B
100
AcDbSymbolTableRecord
100
AcDbLayerTableRecord
  2
18_DATUM_CAMS_JOINTS
 70
0
 62
7
  6
CONTINUOUS
370
-3
390
F
  0
LAYER
  5
20C
100
AcDbSymbolTableRecord
100
AcDbLayerTableRecord
  2
19_DATUM_FUNCTIONAL
 70
0
 62
7
  6
CONTINUOUS
370
-3
390
F
  0
LAYER
  5
20D
100
AcDbSymbolTableRecord
100
AcDbLayerTableRecord
  2
20_DATUM_KINEMATIC_SCHEME
 70
0
 62
7
  6
CONTINUOUS
370
-3
390
F
  0
LAYER
  5
20E
100
AcDbSymbolTableRecord
100
AcDbLayerTableRecord
  2
SHELL3
 70
0
 62
7
  6
CONTINUOUS
370
-3
390
F
  0
ENDTAB
  0
TABLE
  2
STYLE
  5
3
100
AcDbSymbolTable
 70
1
  0
STYLE
  5
11
100
AcDbSymbolTableRecord
100
AcDbTextStyleTableRecord
  2
STANDARD
 70
0
 40
0.0
 41
0.8
 50
0.0
 71
0
 42
0.2
  3
txt
  4

  0
STYLE
  5
20F
100
AcDbSymbolTableRecord
100
AcDbTextStyleTableRecord
  2
TEXTSTYLE_1
 70
0
 40
0.0
 41
0.8
 50
0.0
 71
0
 42
0.2
  3
gdt
  4

  0
ENDTAB
  0
TABLE
  2
VIEW
  5
6
100
AcDbSymbolTable
 70
0
  0
ENDTAB
  0
TABLE
  2
UCS
  5
7
100
AcDbSymbolTable
 70
0
  0
ENDTAB
  0
TABLE
  2
APPID
  5
9
100
AcDbSymbolTable
 70
1
  0
APPID
  5
210
100
AcDbSymbolTableRecord
100
AcDbRegAppTableRecord
  2
ACAD
 70
0
  0
ENDTAB
  0
TABLE
  2
BLOCK_RECORD
  5
1
100
AcDbSymbolTable
 70
0
  0
BLOCK_RECORD
  5
211
100
AcDbSymbolTableRecord
100
AcDbBlockTableRecord
  2
*Model_Space
  0
BLOCK_RECORD
  5
212
100
AcDbSymbolTableRecord
100
AcDbBlockTableRecord
  2
*Paper_Space
  0
BLOCK_RECORD
  5
213
100
AcDbSymbolTableRecord
100
AcDbBlockTableRecord
  2
_FILLED
  0
ENDTAB
  0
TABLE
  2
DIMSTYLE
  5
A
100
AcDbSymbolTable
 70
1
100
AcDbDimStyleTable
 71
0
  0
DIMSTYLE
105
214
100
AcDbSymbolTableRecord
100
AcDbDimStyleTableRecord
  2
STANDARD
 70
0
  3

  4

 40
1.0
 41
2.2360370665
 42
1.0
 43
0.38
 44
1.0
 45
0.0
 46
0.0
 47
0.01
 48
0.01
140
3.1304518931
141
0.09
142
0.0
143
25.4
144
1.0
145
0.0
146
1.0
147
0.625
 71
1
 72
0
 73
0
 74
0
 75
0
 76
0
 77
1
 78
8
 79
2
170
0
171
1
172
0
173
0
174
0
175
0
176
0
177
0
178
0
270
2
179
2
271
2
272
2
273
2
274
2
275
0
280
0
281
0
282
0
283
1
284
8
285
0
286
0
287
3
288
0
340
11
278
46
341
213
342
213
343
213
344
213
  0
ENDTAB
  0
ENDSEC
  0
SECTION
  2
BLOCKS
  0
BLOCK
  5
20
100
AcDbEntity
  8
0
100
AcDbBlockBegin
  2
*Model_Space
 70
0
 10
0.0
 20
0.0
 30
0.0
  3
*Model_Space
  1

  0
ENDBLK
  5
21
100
AcDbEntity
  8
0
100
AcDbBlockEnd
  0
BLOCK
  5
1C
100
AcDbEntity
  8
0
100
AcDbBlockBegin
  2
*Paper_Space
 70
0
 10
0.0
 20
0.0
 30
0.0
  3
*Paper_Space
  1

  0
ENDBLK
  5
1D
100
AcDbEntity
  8
0
100
AcDbBlockEnd
  0
BLOCK
  5
215
100
AcDbEntity
  8
0
100
AcDbBlockBegin
  2
_FILLED
 70
64
 10
0.0
 20
0.0
  3
_FILLED
  1

  0
SOLID
  5
216
100
AcDbEntity
  8
0
  6
BYBLOCK
 62
0
100
AcDbTrace
 10
0.0
 20
0.0
 11
-1.0
 21
0.25
 12
-1.0
 22
-0.25
 13
-1.0
 23
-0.25
  0
ENDBLK
  5
217
100
AcDbEntity
  8
0
  6
BYBLOCK
 62
0
100
AcDbBlockEnd
  0
ENDSEC
  0
SECTION
  2
ENTITIES
  0
LINE
  5
218
100
AcDbEntity
  8
SHELL3
100
AcDbLine
 62
7
  6
CONTINUOUS
 10
19.9436990253
 20
203.3208862119
 11
19.9436990253
 21
63.620886217
  0
LINE
  5
219
100
AcDbEntity
  8
SHELL3
100
AcDbLine
 62
7
  6
CONTINUOUS
 10
19.9690990253
 20
185.8583862119
 11
19.9690990253
 21
81.083386217
  0
LINE
  5
21A
100
AcDbEntity
  8
SHELL3
100
AcDbLine
 62
7
  6
CONTINUOUS
 10
34.6412695848
 20
171.6502612144
 11
33.4955901444
 21
169.6658862144
  0
LINE
  5
21B
100
AcDbEntity
  8
SHELL3
100
AcDbLine
 62
7
  6
CONTINUOUS
 10
168.5336990253
 20
63.620886217
 11
19.9436990253
 21
63.6208862144
  0
LINE
  5
21C
100
AcDbEntity
  8
SHELL3
100
AcDbLine
 62
7
  6
CONTINUOUS
 10
28.5796990253
 20
203.3208862144
 11
28.5796990253
 21
182.3930176973
  0
LINE
  5
21D
100
AcDbEntity
  8
SHELL3
100
AcDbLine
 62
7
  6
CONTINUOUS
 10
28.5796990253
 20
173.4487547316
 11
28.5796990253
 21
137.9430176973
  0
LINE
  5
21E
100
AcDbEntity
  8
SHELL3
100
AcDbLine
 62
7
  6
CONTINUOUS
 10
28.5796990253
 20
128.9987547316
 11
28.5796990253
 21
93.4930176973
  0
LINE
  5
21F
100
AcDbEntity
  8
SHELL3
100
AcDbLine
 62
7
  6
CONTINUOUS
 10
28.5796990253
 20
84.5487547316
 11
28.5796990253
 21
63.6208862144
  0
LINE
  5
220
100
AcDbEntity
  8
SHELL3
100
AcDbLine
 62
7
  6
CONTINUOUS
 10
31.1196990253
 20
177.9208862144
 11
31.1196990253
 21
89.0208862144
  0
LINE
  5
221
100
AcDbEntity
  8
SHELL3
100
AcDbLine
 62
7
  6
CONTINUOUS
 10
31.6911990253
 20
177.9208862144
 11
31.6911990253
 21
144.9262862144
  0
LINE
  5
222
100
AcDbEntity
  8
SHELL3
100
AcDbLine
 62
7
  6
CONTINUOUS
 10
38.0783079061
 20
169.6658862144
 11
36.9326284657
 21
167.6815112144
  0
LINE
  5
223
100
AcDbEntity
  8
SHELL3
100
AcDbLine
 62
7
  6
CONTINUOUS
 10
34.6412695848
 20
155.1402612144
 11
33.4955901444
 21
153.1558862144
  0
LINE
  5
224
100
AcDbEntity
  8
SHELL3
100
AcDbLine
 62
7
  6
CONTINUOUS
 10
44.3567695848
 20
171.6502612144
 11
43.2110901444
 21
169.6658862144
  0
LINE
  5
225
100
AcDbEntity
  8
SHELL3
100
AcDbLine
 62
7
  6
CONTINUOUS
 10
39.8826990253
 20
177.9208862144
 11
39.8826990253
 21
144.9262862144
  0
LINE
  5
226
100
AcDbEntity
  8
SHELL3
100
AcDbLine
 62
7
  6
CONTINUOUS
 10
38.0783079061
 20
153.1558862144
 11
36.9326284657
 21
151.1715112144
  0
LINE
  5
227
100
AcDbEntity
  8
SHELL3
100
AcDbLine
 62
7
  6
CONTINUOUS
 10
47.7938079061
 20
169.6658862144
 11
46.6481284657
 21
167.6815112144
  0
LINE
  5
228
100
AcDbEntity
  8
SHELL3
100
AcDbLine
 62
7
  6
CONTINUOUS
 10
44.3567695848
 20
155.1402612144
 11
43.2110901444
 21
153.1558862144
  0
LINE
  5
229
100
AcDbEntity
  8
SHELL3
100
AcDbLine
 62
7
  6
CONTINUOUS
 10
54.0722695848
 20
171.6502612144
 11
52.9265901444
 21
169.6658862144
  0
LINE
  5
22A
100
AcDbEntity
  8
SHELL3
100
AcDbLine
 62
7
  6
CONTINUOUS
 10
19.9436990253
 20
76.3208862144
 11
28.5796990253
 21
76.3208862144
  0
LINE
  5
22B
100
AcDbEntity
  8
SHELL3
100
AcDbLine
 62
7
  6
CONTINUOUS
 10
91.5716990253
 20
76.3208862144
 11
96.9056990253
 21
76.3208862144
  0
LINE
  5
22C
100
AcDbEntity
  8
SHELL3
100
AcDbLine
 62
7
  6
CONTINUOUS
 10
159.8976990253
 20
76.3208862144
 11
168.5336990253
 21
76.3208862144
  0
LINE
  5
22D
100
AcDbEntity
  8
SHELL3
100
AcDbLine
 62
7
  6
CONTINUOUS
 10
41.4066990253
 20
177.9208862144
 11
41.4066990253
 21
144.9262862144
  0
LINE
  5
22E
100
AcDbEntity
  8
SHELL3
100
AcDbLine
 62
7
  6
CONTINUOUS
 10
47.7938079061
 20
153.1558862144
 11
46.6481284657
 21
151.1715112144
  0
LINE
  5
22F
100
AcDbEntity
  8
SHELL3
100
AcDbLine
 62
7
  6
CONTINUOUS
 10
57.5093079061
 20
169.6658862144
 11
56.3636284657
 21
167.6815112144
  0
LINE
  5
230
100
AcDbEntity
  8
SHELL3
100
AcDbLine
 62
7
  6
CONTINUOUS
 10
19.9690990253
 20
81.083386217
 11
19.9436990253
 21
81.083386217
  0
LINE
  5
231
100
AcDbEntity
  8
SHELL3
100
AcDbLine
 62
7
  6
CONTINUOUS
 10
54.5764377112
 20
105.5308862144
 11
57.3260683682
 21
100.7683862144
  0
LINE
  5
232
100
AcDbEntity
  8
SHELL3
100
AcDbLine
 62
7
  6
CONTINUOUS
 10
49.5981990253
 20
177.9208862144
 11
49.5981990253
 21
144.9262862144
  0
LINE
  5
233
100
AcDbEntity
  8
SHELL3
100
AcDbLine
 62
7
  6
CONTINUOUS
 10
49.7442490253
 20
89.0208862144
 11
49.7442490253
 21
122.0154862144
  0
LINE
  5
234
100
AcDbEntity
  8
SHELL3
100
AcDbLine
 62
7
  6
CONTINUOUS
 10
51.1221990253
 20
177.9208862144
 11
51.1221990253
 21
144.9262862144
  0
LINE
  5
235
100
AcDbEntity
  8
SHELL3
100
AcDbLine
 62
7
  6
CONTINUOUS
 10
54.0722695848
 20
155.1402612144
 11
52.9265901444
 21
153.1558862144
  0
LINE
  5
236
100
AcDbEntity
  8
SHELL3
100
AcDbLine
 62
7
  6
CONTINUOUS
 10
63.7877695848
 20
171.6502612144
 11
62.6420901444
 21
169.6658862144
  0
LINE
  5
237
100
AcDbEntity
  8
SHELL3
100
AcDbLine
 62
7
  6
CONTINUOUS
 10
57.5093079061
 20
153.1558862144
 11
56.3636284657
 21
151.1715112144
  0
LINE
  5
238
100
AcDbEntity
  8
SHELL3
100
AcDbLine
 62
7
  6
CONTINUOUS
 10
67.2248079061
 20
169.6658862144
 11
66.0791284657
 21
167.6815112144
  0
LINE
  5
239
100
AcDbEntity
  8
SHELL3
100
AcDbLine
 62
7
  6
CONTINUOUS
 10
157.3576990253
 20
89.0208862144
 11
99.4456990253
 21
89.0208862144
  0
LINE
  5
23A
100
AcDbEntity
  8
SHELL3
100
AcDbLine
 62
7
  6
CONTINUOUS
 10
89.0316990253
 20
89.0208862144
 11
31.1196990253
 21
89.0208862144
  0
LINE
  5
23B
100
AcDbEntity
  8
SHELL3
100
AcDbLine
 62
7
  6
CONTINUOUS
 10
19.9690990253
 20
89.9733862144
 11
19.9436990253
 21
89.9733862144
  0
LINE
  5
23C
100
AcDbEntity
  8
SHELL3
100
AcDbLine
 62
7
  6
CONTINUOUS
 10
33.4955901444
 20
153.1558862144
 11
34.6412695848
 21
151.1715112144
  0
LINE
  5
23D
100
AcDbEntity
  8
SHELL3
100
AcDbLine
 62
7
  6
CONTINUOUS
 10
59.3136990253
 20
177.9208862144
 11
59.3136990253
 21
144.9262862144
  0
LINE
  5
23E
100
AcDbEntity
  8
SHELL3
100
AcDbLine
 62
7
  6
CONTINUOUS
 10
60.8376990253
 20
177.9208862144
 11
60.8376990253
 21
144.9262862144
  0
LINE
  5
23F
100
AcDbEntity
  8
SHELL3
100
AcDbLine
 62
7
  6
CONTINUOUS
 10
63.7877695848
 20
155.1402612144
 11
62.6420901444
 21
153.1558862144
  0
LINE
  5
240
100
AcDbEntity
  8
SHELL3
100
AcDbLine
 62
7
  6
CONTINUOUS
 10
73.5032695848
 20
171.6502612144
 11
72.3575901444
 21
169.6658862144
  0
LINE
  5
241
100
AcDbEntity
  8
SHELL3
100
AcDbLine
 62
7
  6
CONTINUOUS
 10
67.2248079061
 20
153.1558862144
 11
66.0791284657
 21
151.1715112144
  0
LINE
  5
242
100
AcDbEntity
  8
SHELL3
100
AcDbLine
 62
7
  6
CONTINUOUS
 10
157.3576990253
 20
95.3708862144
 11
99.4456990253
 21
95.3708862144
  0
LINE
  5
243
100
AcDbEntity
  8
SHELL3
100
AcDbLine
 62
7
  6
CONTINUOUS
 10
89.0316990253
 20
95.3708862144
 11
31.1196990253
 21
95.3708862144
  0
LINE
  5
244
100
AcDbEntity
  8
SHELL3
100
AcDbLine
 62
7
  6
CONTINUOUS
 10
36.9326284657
 20
155.1402612144
 11
38.0783079061
 21
153.1558862144
  0
LINE
  5
245
100
AcDbEntity
  8
SHELL3
100
AcDbLine
 62
7
  6
CONTINUOUS
 10
62.8253296823
 20
110.2933862144
 11
65.5749603393
 21
105.5308862144
  0
LINE
  5
246
100
AcDbEntity
  8
SHELL3
100
AcDbLine
 62
7
  6
CONTINUOUS
 10
33.4955901444
 20
169.6658862144
 11
34.6412695848
 21
167.6815112144
  0
LINE
  5
247
100
AcDbEntity
  8
SHELL3
100
AcDbLine
 62
7
  6
CONTINUOUS
 10
43.2110901444
 20
153.1558862144
 11
44.3567695848
 21
151.1715112144
  0
LINE
  5
248
100
AcDbEntity
  8
SHELL3
100
AcDbLine
 62
7
  6
CONTINUOUS
 10
76.9403079061
 20
169.6658862144
 11
75.7946284657
 21
167.6815112144
  0
LINE
  5
249
100
AcDbEntity
  8
SHELL3
100
AcDbLine
 62
7
  6
CONTINUOUS
 10
73.5032695848
 20
155.1402612144
 11
72.3575901444
 21
153.1558862144
  0
LINE
  5
24A
100
AcDbEntity
  8
SHELL3
100
AcDbLine
 62
7
  6
CONTINUOUS
 10
83.2187695848
 20
171.6502612144
 11
82.0730901444
 21
169.6658862144
  0
LINE
  5
24B
100
AcDbEntity
  8
SHELL3
100
AcDbLine
 62
7
  6
CONTINUOUS
 10
131.1513296823
 20
100.7683862144
 11
125.6520683682
 21
100.7683862144
  0
LINE
  5
24C
100
AcDbEntity
  8
SHELL3
100
AcDbLine
 62
7
  6
CONTINUOUS
 10
62.8253296823
 20
100.7683862144
 11
57.3260683682
 21
100.7683862144
  0
LINE
  5
24D
100
AcDbEntity
  8
SHELL3
100
AcDbLine
 62
7
  6
CONTINUOUS
 10
36.9326284657
 20
171.6502612144
 11
38.0783079061
 21
169.6658862144
  0
LINE
  5
24E
100
AcDbEntity
  8
SHELL3
100
AcDbLine
 62
7
  6
CONTINUOUS
 10
46.6481284657
 20
155.1402612144
 11
47.7938079061
 21
153.1558862144
  0
LINE
  5
24F
100
AcDbEntity
  8
SHELL3
100
AcDbLine
 62
7
  6
CONTINUOUS
 10
69.0291990253
 20
177.9208862144
 11
69.0291990253
 21
144.9262862144
  0
LINE
  5
250
100
AcDbEntity
  8
SHELL3
100
AcDbLine
 62
7
  6
CONTINUOUS
 10
70.4071490253
 20
89.0208862144
 11
70.4071490253
 21
122.0154862144
  0
LINE
  5
251
100
AcDbEntity
  8
SHELL3
100
AcDbLine
 62
7
  6
CONTINUOUS
 10
70.5531990253
 20
177.9208862144
 11
70.5531990253
 21
144.9262862144
  0
LINE
  5
252
100
AcDbEntity
  8
SHELL3
100
AcDbLine
 62
7
  6
CONTINUOUS
 10
76.9403079061
 20
153.1558862144
 11
75.7946284657
 21
151.1715112144
  0
LINE
  5
253
100
AcDbEntity
  8
SHELL3
100
AcDbLine
 62
7
  6
CONTINUOUS
 10
86.6558079061
 20
169.6658862144
 11
85.5101284657
 21
167.6815112144
  0
LINE
  5
254
100
AcDbEntity
  8
SHELL3
100
AcDbLine
 62
7
  6
CONTINUOUS
 10
57.3260683682
 20
110.2933862144
 11
54.5764377112
 21
105.5308862144
  0
LINE
  5
255
100
AcDbEntity
  8
SHELL3
100
AcDbLine
 62
7
  6
CONTINUOUS
 10
83.2187695848
 20
155.1402612144
 11
82.0730901444
 21
153.1558862144
  0
LINE
  5
256
100
AcDbEntity
  8
SHELL3
100
AcDbLine
 62
7
  6
CONTINUOUS
 10
131.1513296823
 20
110.2933862144
 11
125.6520683682
 21
110.2933862144
  0
LINE
  5
257
100
AcDbEntity
  8
SHELL3
100
AcDbLine
 62
7
  6
CONTINUOUS
 10
62.8253296823
 20
110.2933862144
 11
57.3260683682
 21
110.2933862144
  0
LINE
  5
258
100
AcDbEntity
  8
SHELL3
100
AcDbLine
 62
7
  6
CONTINUOUS
 10
43.2110901444
 20
169.6658862144
 11
44.3567695848
 21
167.6815112144
  0
LINE
  5
259
100
AcDbEntity
  8
SHELL3
100
AcDbLine
 62
7
  6
CONTINUOUS
 10
52.9265901444
 20
153.1558862144
 11
54.0722695848
 21
151.1715112144
  0
LINE
  5
25A
100
AcDbEntity
  8
SHELL3
100
AcDbLine
 62
7
  6
CONTINUOUS
 10
46.6481284657
 20
171.6502612144
 11
47.7938079061
 21
169.6658862144
  0
LINE
  5
25B
100
AcDbEntity
  8
SHELL3
100
AcDbLine
 62
7
  6
CONTINUOUS
 10
56.3636284657
 20
155.1402612144
 11
57.5093079061
 21
153.1558862144
  0
LINE
  5
25C
100
AcDbEntity
  8
SHELL3
100
AcDbLine
 62
7
  6
CONTINUOUS
 10
78.7446990253
 20
177.9208862144
 11
78.7446990253
 21
144.9262862144
  0
LINE
  5
25D
100
AcDbEntity
  8
SHELL3
100
AcDbLine
 62
7
  6
CONTINUOUS
 10
80.2686990253
 20
177.9208862144
 11
80.2686990253
 21
144.9262862144
  0
LINE
  5
25E
100
AcDbEntity
  8
SHELL3
100
AcDbLine
 62
7
  6
CONTINUOUS
 10
86.6558079061
 20
153.1558862144
 11
85.5101284657
 21
151.1715112144
  0
LINE
  5
25F
100
AcDbEntity
  8
SHELL3
100
AcDbLine
 62
7
  6
CONTINUOUS
 10
52.9265901444
 20
169.6658862144
 11
54.0722695848
 21
167.6815112144
  0
LINE
  5
260
100
AcDbEntity
  8
SHELL3
100
AcDbLine
 62
7
  6
CONTINUOUS
 10
62.6420901444
 20
153.1558862144
 11
63.7877695848
 21
151.1715112144
  0
LINE
  5
261
100
AcDbEntity
  8
SHELL3
100
AcDbLine
 62
7
  6
CONTINUOUS
 10
56.3636284657
 20
171.6502612144
 11
57.5093079061
 21
169.6658862144
  0
LINE
  5
262
100
AcDbEntity
  8
SHELL3
100
AcDbLine
 62
7
  6
CONTINUOUS
 10
66.0791284657
 20
155.1402612144
 11
67.2248079061
 21
153.1558862144
  0
LINE
  5
263
100
AcDbEntity
  8
SHELL3
100
AcDbLine
 62
7
  6
CONTINUOUS
 10
102.9672695848
 20
171.6502612144
 11
101.8215901444
 21
169.6658862144
  0
LINE
  5
264
100
AcDbEntity
  8
SHELL3
100
AcDbLine
 62
7
  6
CONTINUOUS
 10
65.5749603393
 20
105.5308862144
 11
62.8253296823
 21
100.7683862144
  0
LINE
  5
265
100
AcDbEntity
  8
SHELL3
100
AcDbLine
 62
7
  6
CONTINUOUS
 10
106.4043079061
 20
169.6658862144
 11
105.2586284657
 21
167.6815112144
  0
LINE
  5
266
100
AcDbEntity
  8
SHELL3
100
AcDbLine
 62
7
  6
CONTINUOUS
 10
138.7331490253
 20
122.0154862144
 11
118.0702490253
 21
122.0154862144
  0
LINE
  5
267
100
AcDbEntity
  8
SHELL3
100
AcDbLine
 62
7
  6
CONTINUOUS
 10
70.4071490253
 20
122.0154862144
 11
49.7442490253
 21
122.0154862144
  0
LINE
  5
268
100
AcDbEntity
  8
SHELL3
100
AcDbLine
 62
7
  6
CONTINUOUS
 10
157.3576990253
 20
122.0408862144
 11
99.4456990253
 21
122.0408862144
  0
LINE
  5
269
100
AcDbEntity
  8
SHELL3
100
AcDbLine
 62
7
  6
CONTINUOUS
 10
89.0316990253
 20
122.0408862144
 11
31.1196990253
 21
122.0408862144
  0
LINE
  5
26A
100
AcDbEntity
  8
SHELL3
100
AcDbLine
 62
7
  6
CONTINUOUS
 10
62.6420901444
 20
169.6658862144
 11
63.7877695848
 21
167.6815112144
  0
LINE
  5
26B
100
AcDbEntity
  8
SHELL3
100
AcDbLine
 62
7
  6
CONTINUOUS
 10
72.3575901444
 20
153.1558862144
 11
73.5032695848
 21
151.1715112144
  0
LINE
  5
26C
100
AcDbEntity
  8
SHELL3
100
AcDbLine
 62
7
  6
CONTINUOUS
 10
88.4601990253
 20
177.9208862144
 11
88.4601990253
 21
144.9262862144
  0
LINE
  5
26D
100
AcDbEntity
  8
SHELL3
100
AcDbLine
 62
7
  6
CONTINUOUS
 10
89.0316990253
 20
177.9208862144
 11
89.0316990253
 21
89.0208862144
  0
LINE
  5
26E
100
AcDbEntity
  8
SHELL3
100
AcDbLine
 62
7
  6
CONTINUOUS
 10
91.5716990253
 20
203.3208862119
 11
91.5716990253
 21
182.3930176973
  0
LINE
  5
26F
100
AcDbEntity
  8
SHELL3
100
AcDbLine
 62
7
  6
CONTINUOUS
 10
91.5716990253
 20
173.4487547316
 11
91.5716990253
 21
137.9430176973
  0
LINE
  5
270
100
AcDbEntity
  8
SHELL3
100
AcDbLine
 62
7
  6
CONTINUOUS
 10
91.5716990253
 20
128.9987547316
 11
91.5716990253
 21
93.4930176973
  0
LINE
  5
271
100
AcDbEntity
  8
SHELL3
100
AcDbLine
 62
7
  6
CONTINUOUS
 10
91.5716990253
 20
84.5487547316
 11
91.5716990253
 21
63.6208862144
  0
LINE
  5
272
100
AcDbEntity
  8
SHELL3
100
AcDbLine
 62
7
  6
CONTINUOUS
 10
102.9672695848
 20
155.1402612144
 11
101.8215901444
 21
153.1558862144
  0
LINE
  5
273
100
AcDbEntity
  8
SHELL3
100
AcDbLine
 62
7
  6
CONTINUOUS
 10
112.6827695848
 20
171.6502612144
 11
111.5370901444
 21
169.6658862144
  0
LINE
  5
274
100
AcDbEntity
  8
SHELL3
100
AcDbLine
 62
7
  6
CONTINUOUS
 10
106.4043079061
 20
153.1558862144
 11
105.2586284657
 21
151.1715112144
  0
LINE
  5
275
100
AcDbEntity
  8
SHELL3
100
AcDbLine
 62
7
  6
CONTINUOUS
 10
116.1198079061
 20
169.6658862144
 11
114.9741284657
 21
167.6815112144
  0
LINE
  5
276
100
AcDbEntity
  8
SHELL3
100
AcDbLine
 62
7
  6
CONTINUOUS
 10
66.0791284657
 20
171.6502612144
 11
67.2248079061
 21
169.6658862144
  0
LINE
  5
277
100
AcDbEntity
  8
SHELL3
100
AcDbLine
 62
7
  6
CONTINUOUS
 10
75.7946284657
 20
155.1402612144
 11
76.9403079061
 21
153.1558862144
  0
LINE
  5
278
100
AcDbEntity
  8
SHELL3
100
AcDbLine
 62
7
  6
CONTINUOUS
 10
72.3575901444
 20
169.6658862144
 11
73.5032695848
 21
167.6815112144
  0
LINE
  5
279
100
AcDbEntity
  8
SHELL3
100
AcDbLine
 62
7
  6
CONTINUOUS
 10
82.0730901444
 20
153.1558862144
 11
83.2187695848
 21
151.1715112144
  0
LINE
  5
27A
100
AcDbEntity
  8
SHELL3
100
AcDbLine
 62
7
  6
CONTINUOUS
 10
96.9056990253
 20
203.3208862144
 11
96.9056990253
 21
182.3930176973
  0
LINE
  5
27B
100
AcDbEntity
  8
SHELL3
100
AcDbLine
 62
7
  6
CONTINUOUS
 10
96.9056990253
 20
173.4487547316
 11
96.9056990253
 21
137.9430176973
  0
LINE
  5
27C
100
AcDbEntity
  8
SHELL3
100
AcDbLine
 62
7
  6
CONTINUOUS
 10
96.9056990253
 20
128.9987547316
 11
96.9056990253
 21
93.4930176973
  0
LINE
  5
27D
100
AcDbEntity
  8
SHELL3
100
AcDbLine
 62
7
  6
CONTINUOUS
 10
96.9056990253
 20
84.5487547316
 11
96.9056990253
 21
63.6208862144
  0
LINE
  5
27E
100
AcDbEntity
  8
SHELL3
100
AcDbLine
 62
7
  6
CONTINUOUS
 10
99.4456990253
 20
177.9208862144
 11
99.4456990253
 21
89.0208862144
  0
LINE
  5
27F
100
AcDbEntity
  8
SHELL3
100
AcDbLine
 62
7
  6
CONTINUOUS
 10
100.0171990253
 20
177.9208862144
 11
100.0171990253
 21
144.9262862144
  0
LINE
  5
280
100
AcDbEntity
  8
SHELL3
100
AcDbLine
 62
7
  6
CONTINUOUS
 10
112.6827695848
 20
155.1402612144
 11
111.5370901444
 21
153.1558862144
  0
LINE
  5
281
100
AcDbEntity
  8
SHELL3
100
AcDbLine
 62
7
  6
CONTINUOUS
 10
122.3982695848
 20
171.6502612144
 11
121.2525901444
 21
169.6658862144
  0
LINE
  5
282
100
AcDbEntity
  8
SHELL3
100
AcDbLine
 62
7
  6
CONTINUOUS
 10
75.7946284657
 20
171.6502612144
 11
76.9403079061
 21
169.6658862144
  0
LINE
  5
283
100
AcDbEntity
  8
SHELL3
100
AcDbLine
 62
7
  6
CONTINUOUS
 10
85.5101284657
 20
155.1402612144
 11
86.6558079061
 21
153.1558862144
  0
LINE
  5
284
100
AcDbEntity
  8
SHELL3
100
AcDbLine
 62
7
  6
CONTINUOUS
 10
82.0730901444
 20
169.6658862144
 11
83.2187695848
 21
167.6815112144
  0
LINE
  5
285
100
AcDbEntity
  8
SHELL3
100
AcDbLine
 62
7
  6
CONTINUOUS
 10
108.2086990253
 20
177.9208862144
 11
108.2086990253
 21
144.9262862144
  0
LINE
  5
286
100
AcDbEntity
  8
SHELL3
100
AcDbLine
 62
7
  6
CONTINUOUS
 10
116.1198079061
 20
153.1558862144
 11
114.9741284657
 21
151.1715112144
  0
LINE
  5
287
100
AcDbEntity
  8
SHELL3
100
AcDbLine
 62
7
  6
CONTINUOUS
 10
125.8353079061
 20
169.6658862144
 11
124.6896284657
 21
167.6815112144
  0
LINE
  5
288
100
AcDbEntity
  8
SHELL3
100
AcDbLine
 62
7
  6
CONTINUOUS
 10
122.3982695848
 20
155.1402612144
 11
121.2525901444
 21
153.1558862144
  0
LINE
  5
289
100
AcDbEntity
  8
SHELL3
100
AcDbLine
 62
7
  6
CONTINUOUS
 10
132.1137695848
 20
171.6502612144
 11
130.9680901444
 21
169.6658862144
  0
LINE
  5
28A
100
AcDbEntity
  8
SHELL3
100
AcDbLine
 62
7
  6
CONTINUOUS
 10
157.3576990253
 20
144.9008862144
 11
99.4456990253
 21
144.9008862144
  0
LINE
  5
28B
100
AcDbEntity
  8
SHELL3
100
AcDbLine
 62
7
  6
CONTINUOUS
 10
89.0316990253
 20
144.9008862144
 11
31.1196990253
 21
144.9008862144
  0
LINE
  5
28C
100
AcDbEntity
  8
SHELL3
100
AcDbLine
 62
7
  6
CONTINUOUS
 10
156.7861990253
 20
144.9262862144
 11
148.5946990253
 21
144.9262862144
  0
LINE
  5
28D
100
AcDbEntity
  8
SHELL3
100
AcDbLine
 62
7
  6
CONTINUOUS
 10
147.0706990253
 20
144.9262862144
 11
138.8791990253
 21
144.9262862144
  0
LINE
  5
28E
100
AcDbEntity
  8
SHELL3
100
AcDbLine
 62
7
  6
CONTINUOUS
 10
137.3551990253
 20
144.9262862144
 11
129.1636990253
 21
144.9262862144
  0
LINE
  5
28F
100
AcDbEntity
  8
SHELL3
100
AcDbLine
 62
7
  6
CONTINUOUS
 10
127.6396990253
 20
144.9262862144
 11
119.4481990253
 21
144.9262862144
  0
LINE
  5
290
100
AcDbEntity
  8
SHELL3
100
AcDbLine
 62
7
  6
CONTINUOUS
 10
117.9241990253
 20
144.9262862144
 11
109.7326990253
 21
144.9262862144
  0
LINE
  5
291
100
AcDbEntity
  8
SHELL3
100
AcDbLine
 62
7
  6
CONTINUOUS
 10
108.2086990253
 20
144.9262862144
 11
100.0171990253
 21
144.9262862144
  0
LINE
  5
292
100
AcDbEntity
  8
SHELL3
100
AcDbLine
 62
7
  6
CONTINUOUS
 10
88.4601990253
 20
144.9262862144
 11
80.2686990253
 21
144.9262862144
  0
LINE
  5
293
100
AcDbEntity
  8
SHELL3
100
AcDbLine
 62
7
  6
CONTINUOUS
 10
78.7446990253
 20
144.9262862144
 11
70.5531990253
 21
144.9262862144
  0
LINE
  5
294
100
AcDbEntity
  8
SHELL3
100
AcDbLine
 62
7
  6
CONTINUOUS
 10
69.0291990253
 20
144.9262862144
 11
60.8376990253
 21
144.9262862144
  0
LINE
  5
295
100
AcDbEntity
  8
SHELL3
100
AcDbLine
 62
7
  6
CONTINUOUS
 10
59.3136990253
 20
144.9262862144
 11
51.1221990253
 21
144.9262862144
  0
LINE
  5
296
100
AcDbEntity
  8
SHELL3
100
AcDbLine
 62
7
  6
CONTINUOUS
 10
49.5981990253
 20
144.9262862144
 11
41.4066990253
 21
144.9262862144
  0
LINE
  5
297
100
AcDbEntity
  8
SHELL3
100
AcDbLine
 62
7
  6
CONTINUOUS
 10
39.8826990253
 20
144.9262862144
 11
31.6911990253
 21
144.9262862144
  0
LINE
  5
298
100
AcDbEntity
  8
SHELL3
100
AcDbLine
 62
7
  6
CONTINUOUS
 10
125.6520683682
 20
100.7683862144
 11
122.9024377112
 21
105.5308862144
  0
LINE
  5
299
100
AcDbEntity
  8
SHELL3
100
AcDbLine
 62
7
  6
CONTINUOUS
 10
85.5101284657
 20
171.6502612144
 11
86.6558079061
 21
169.6658862144
  0
LINE
  5
29A
100
AcDbEntity
  8
SHELL3
100
AcDbLine
 62
7
  6
CONTINUOUS
 10
109.7326990253
 20
177.9208862144
 11
109.7326990253
 21
144.9262862144
  0
LINE
  5
29B
100
AcDbEntity
  8
SHELL3
100
AcDbLine
 62
7
  6
CONTINUOUS
 10
125.8353079061
 20
153.1558862144
 11
124.6896284657
 21
151.1715112144
  0
LINE
  5
29C
100
AcDbEntity
  8
SHELL3
100
AcDbLine
 62
7
  6
CONTINUOUS
 10
135.5508079061
 20
169.6658862144
 11
134.4051284657
 21
167.6815112144
  0
LINE
  5
29D
100
AcDbEntity
  8
SHELL3
100
AcDbLine
 62
7
  6
CONTINUOUS
 10
153.8361284657
 20
151.1715112144
 11
151.5447695848
 21
151.1715112144
  0
LINE
  5
29E
100
AcDbEntity
  8
SHELL3
100
AcDbLine
 62
7
  6
CONTINUOUS
 10
144.1206284657
 20
151.1715112144
 11
141.8292695848
 21
151.1715112144
  0
LINE
  5
29F
100
AcDbEntity
  8
SHELL3
100
AcDbLine
 62
7
  6
CONTINUOUS
 10
134.4051284657
 20
151.1715112144
 11
132.1137695848
 21
151.1715112144
  0
LINE
  5
2A0
100
AcDbEntity
  8
SHELL3
100
AcDbLine
 62
7
  6
CONTINUOUS
 10
124.6896284657
 20
151.1715112144
 11
122.3982695848
 21
151.1715112144
  0
LINE
  5
2A1
100
AcDbEntity
  8
SHELL3
100
AcDbLine
 62
7
  6
CONTINUOUS
 10
114.9741284657
 20
151.1715112144
 11
112.6827695848
 21
151.1715112144
  0
LINE
  5
2A2
100
AcDbEntity
  8
SHELL3
100
AcDbLine
 62
7
  6
CONTINUOUS
 10
105.2586284657
 20
151.1715112144
 11
102.9672695848
 21
151.1715112144
  0
LINE
  5
2A3
100
AcDbEntity
  8
SHELL3
100
AcDbLine
 62
7
  6
CONTINUOUS
 10
85.5101284657
 20
151.1715112144
 11
83.2187695848
 21
151.1715112144
  0
LINE
  5
2A4
100
AcDbEntity
  8
SHELL3
100
AcDbLine
 62
7
  6
CONTINUOUS
 10
75.7946284657
 20
151.1715112144
 11
73.5032695848
 21
151.1715112144
  0
LINE
  5
2A5
100
AcDbEntity
  8
SHELL3
100
AcDbLine
 62
7
  6
CONTINUOUS
 10
66.0791284657
 20
151.1715112144
 11
63.7877695848
 21
151.1715112144
  0
LINE
  5
2A6
100
AcDbEntity
  8
SHELL3
100
AcDbLine
 62
7
  6
CONTINUOUS
 10
56.3636284657
 20
151.1715112144
 11
54.0722695848
 21
151.1715112144
  0
LINE
  5
2A7
100
AcDbEntity
  8
SHELL3
100
AcDbLine
 62
7
  6
CONTINUOUS
 10
46.6481284657
 20
151.1715112144
 11
44.3567695848
 21
151.1715112144
  0
LINE
  5
2A8
100
AcDbEntity
  8
SHELL3
100
AcDbLine
 62
7
  6
CONTINUOUS
 10
36.9326284657
 20
151.1715112144
 11
34.6412695848
 21
151.1715112144
  0
LINE
  5
2A9
100
AcDbEntity
  8
SHELL3
100
AcDbLine
 62
7
  6
CONTINUOUS
 10
101.8215901444
 20
153.1558862144
 11
102.9672695848
 21
151.1715112144
  0
LINE
  5
2AA
100
AcDbEntity
  8
SHELL3
100
AcDbLine
 62
7
  6
CONTINUOUS
 10
105.2586284657
 20
155.1402612144
 11
106.4043079061
 21
153.1558862144
  0
LINE
  5
2AB
100
AcDbEntity
  8
SHELL3
100
AcDbLine
 62
7
  6
CONTINUOUS
 10
133.9009603393
 20
105.5308862144
 11
131.1513296823
 21
110.2933862144
  0
LINE
  5
2AC
100
AcDbEntity
  8
SHELL3
100
AcDbLine
 62
7
  6
CONTINUOUS
 10
117.9241990253
 20
177.9208862144
 11
117.9241990253
 21
144.9262862144
  0
LINE
  5
2AD
100
AcDbEntity
  8
SHELL3
100
AcDbLine
 62
7
  6
CONTINUOUS
 10
118.0702490253
 20
89.0208862144
 11
118.0702490253
 21
122.0154862144
  0
LINE
  5
2AE
100
AcDbEntity
  8
SHELL3
100
AcDbLine
 62
7
  6
CONTINUOUS
 10
119.4481990253
 20
177.9208862144
 11
119.4481990253
 21
144.9262862144
  0
LINE
  5
2AF
100
AcDbEntity
  8
SHELL3
100
AcDbLine
 62
7
  6
CONTINUOUS
 10
132.1137695848
 20
155.1402612144
 11
130.9680901444
 21
153.1558862144
  0
LINE
  5
2B0
100
AcDbEntity
  8
SHELL3
100
AcDbLine
 62
7
  6
CONTINUOUS
 10
141.8292695848
 20
171.6502612144
 11
140.6835901444
 21
169.6658862144
  0
LINE
  5
2B1
100
AcDbEntity
  8
SHELL3
100
AcDbLine
 62
7
  6
CONTINUOUS
 10
135.5508079061
 20
153.1558862144
 11
134.4051284657
 21
151.1715112144
  0
LINE
  5
2B2
100
AcDbEntity
  8
SHELL3
100
AcDbLine
 62
7
  6
CONTINUOUS
 10
145.2663079061
 20
169.6658862144
 11
144.1206284657
 21
167.6815112144
  0
LINE
  5
2B3
100
AcDbEntity
  8
SHELL3
100
AcDbLine
 62
7
  6
CONTINUOUS
 10
153.8361284657
 20
155.1402612144
 11
151.5447695848
 21
155.1402612144
  0
LINE
  5
2B4
100
AcDbEntity
  8
SHELL3
100
AcDbLine
 62
7
  6
CONTINUOUS
 10
144.1206284657
 20
155.1402612144
 11
141.8292695848
 21
155.1402612144
  0
LINE
  5
2B5
100
AcDbEntity
  8
SHELL3
100
AcDbLine
 62
7
  6
CONTINUOUS
 10
134.4051284657
 20
155.1402612144
 11
132.1137695848
 21
155.1402612144
  0
LINE
  5
2B6
100
AcDbEntity
  8
SHELL3
100
AcDbLine
 62
7
  6
CONTINUOUS
 10
124.6896284657
 20
155.1402612144
 11
122.3982695848
 21
155.1402612144
  0
LINE
  5
2B7
100
AcDbEntity
  8
SHELL3
100
AcDbLine
 62
7
  6
CONTINUOUS
 10
114.9741284657
 20
155.1402612144
 11
112.6827695848
 21
155.1402612144
  0
LINE
  5
2B8
100
AcDbEntity
  8
SHELL3
100
AcDbLine
 62
7
  6
CONTINUOUS
 10
105.2586284657
 20
155.1402612144
 11
102.9672695848
 21
155.1402612144
  0
LINE
  5
2B9
100
AcDbEntity
  8
SHELL3
100
AcDbLine
 62
7
  6
CONTINUOUS
 10
85.5101284657
 20
155.1402612144
 11
83.2187695848
 21
155.1402612144
  0
LINE
  5
2BA
100
AcDbEntity
  8
SHELL3
100
AcDbLine
 62
7
  6
CONTINUOUS
 10
75.7946284657
 20
155.1402612144
 11
73.5032695848
 21
155.1402612144
  0
LINE
  5
2BB
100
AcDbEntity
  8
SHELL3
100
AcDbLine
 62
7
  6
CONTINUOUS
 10
66.0791284657
 20
155.1402612144
 11
63.7877695848
 21
155.1402612144
  0
LINE
  5
2BC
100
AcDbEntity
  8
SHELL3
100
AcDbLine
 62
7
  6
CONTINUOUS
 10
56.3636284657
 20
155.1402612144
 11
54.0722695848
 21
155.1402612144
  0
LINE
  5
2BD
100
AcDbEntity
  8
SHELL3
100
AcDbLine
 62
7
  6
CONTINUOUS
 10
46.6481284657
 20
155.1402612144
 11
44.3567695848
 21
155.1402612144
  0
LINE
  5
2BE
100
AcDbEntity
  8
SHELL3
100
AcDbLine
 62
7
  6
CONTINUOUS
 10
36.9326284657
 20
155.1402612144
 11
34.6412695848
 21
155.1402612144
  0
LINE
  5
2BF
100
AcDbEntity
  8
SHELL3
100
AcDbLine
 62
7
  6
CONTINUOUS
 10
157.3576990253
 20
161.4108862144
 11
99.4456990253
 21
161.4108862144
  0
LINE
  5
2C0
100
AcDbEntity
  8
SHELL3
100
AcDbLine
 62
7
  6
CONTINUOUS
 10
89.0316990253
 20
161.4108862144
 11
31.1196990253
 21
161.4108862144
  0
LINE
  5
2C1
100
AcDbEntity
  8
SHELL3
100
AcDbLine
 62
7
  6
CONTINUOUS
 10
156.7861990253
 20
161.4362862144
 11
148.5946990253
 21
161.4362862144
  0
LINE
  5
2C2
100
AcDbEntity
  8
SHELL3
100
AcDbLine
 62
7
  6
CONTINUOUS
 10
147.0706990253
 20
161.4362862144
 11
138.8791990253
 21
161.4362862144
  0
LINE
  5
2C3
100
AcDbEntity
  8
SHELL3
100
AcDbLine
 62
7
  6
CONTINUOUS
 10
137.3551990253
 20
161.4362862144
 11
129.1636990253
 21
161.4362862144
  0
LINE
  5
2C4
100
AcDbEntity
  8
SHELL3
100
AcDbLine
 62
7
  6
CONTINUOUS
 10
127.6396990253
 20
161.4362862144
 11
119.4481990253
 21
161.4362862144
  0
LINE
  5
2C5
100
AcDbEntity
  8
SHELL3
100
AcDbLine
 62
7
  6
CONTINUOUS
 10
117.9241990253
 20
161.4362862144
 11
109.7326990253
 21
161.4362862144
  0
LINE
  5
2C6
100
AcDbEntity
  8
SHELL3
100
AcDbLine
 62
7
  6
CONTINUOUS
 10
108.2086990253
 20
161.4362862144
 11
100.0171990253
 21
161.4362862144
  0
LINE
  5
2C7
100
AcDbEntity
  8
SHELL3
100
AcDbLine
 62
7
  6
CONTINUOUS
 10
88.4601990253
 20
161.4362862144
 11
80.2686990253
 21
161.4362862144
  0
LINE
  5
2C8
100
AcDbEntity
  8
SHELL3
100
AcDbLine
 62
7
  6
CONTINUOUS
 10
78.7446990253
 20
161.4362862144
 11
70.5531990253
 21
161.4362862144
  0
LINE
  5
2C9
100
AcDbEntity
  8
SHELL3
100
AcDbLine
 62
7
  6
CONTINUOUS
 10
69.0291990253
 20
161.4362862144
 11
60.8376990253
 21
161.4362862144
  0
LINE
  5
2CA
100
AcDbEntity
  8
SHELL3
100
AcDbLine
 62
7
  6
CONTINUOUS
 10
59.3136990253
 20
161.4362862144
 11
51.1221990253
 21
161.4362862144
  0
LINE
  5
2CB
100
AcDbEntity
  8
SHELL3
100
AcDbLine
 62
7
  6
CONTINUOUS
 10
49.5981990253
 20
161.4362862144
 11
41.4066990253
 21
161.4362862144
  0
LINE
  5
2CC
100
AcDbEntity
  8
SHELL3
100
AcDbLine
 62
7
  6
CONTINUOUS
 10
39.8826990253
 20
161.4362862144
 11
31.6911990253
 21
161.4362862144
  0
LINE
  5
2CD
100
AcDbEntity
  8
SHELL3
100
AcDbLine
 62
7
  6
CONTINUOUS
 10
101.8215901444
 20
169.6658862144
 11
102.9672695848
 21
167.6815112144
  0
LINE
  5
2CE
100
AcDbEntity
  8
SHELL3
100
AcDbLine
 62
7
  6
CONTINUOUS
 10
111.5370901444
 20
153.1558862144
 11
112.6827695848
 21
151.1715112144
  0
LINE
  5
2CF
100
AcDbEntity
  8
SHELL3
100
AcDbLine
 62
7
  6
CONTINUOUS
 10
127.6396990253
 20
177.9208862144
 11
127.6396990253
 21
144.9262862144
  0
LINE
  5
2D0
100
AcDbEntity
  8
SHELL3
100
AcDbLine
 62
7
  6
CONTINUOUS
 10
141.8292695848
 20
155.1402612144
 11
140.6835901444
 21
153.1558862144
  0
LINE
  5
2D1
100
AcDbEntity
  8
SHELL3
100
AcDbLine
 62
7
  6
CONTINUOUS
 10
151.5447695848
 20
171.6502612144
 11
150.3990901444
 21
169.6658862144
  0
LINE
  5
2D2
100
AcDbEntity
  8
SHELL3
100
AcDbLine
 62
7
  6
CONTINUOUS
 10
145.2663079061
 20
153.1558862144
 11
144.1206284657
 21
151.1715112144
  0
LINE
  5
2D3
100
AcDbEntity
  8
SHELL3
100
AcDbLine
 62
7
  6
CONTINUOUS
 10
154.9818079061
 20
169.6658862144
 11
153.8361284657
 21
167.6815112144
  0
LINE
  5
2D4
100
AcDbEntity
  8
SHELL3
100
AcDbLine
 62
7
  6
CONTINUOUS
 10
153.8361284657
 20
167.6815112144
 11
151.5447695848
 21
167.6815112144
  0
LINE
  5
2D5
100
AcDbEntity
  8
SHELL3
100
AcDbLine
 62
7
  6
CONTINUOUS
 10
144.1206284657
 20
167.6815112144
 11
141.8292695848
 21
167.6815112144
  0
LINE
  5
2D6
100
AcDbEntity
  8
SHELL3
100
AcDbLine
 62
7
  6
CONTINUOUS
 10
134.4051284657
 20
167.6815112144
 11
132.1137695848
 21
167.6815112144
  0
LINE
  5
2D7
100
AcDbEntity
  8
SHELL3
100
AcDbLine
 62
7
  6
CONTINUOUS
 10
124.6896284657
 20
167.6815112144
 11
122.3982695848
 21
167.6815112144
  0
LINE
  5
2D8
100
AcDbEntity
  8
SHELL3
100
AcDbLine
 62
7
  6
CONTINUOUS
 10
114.9741284657
 20
167.6815112144
 11
112.6827695848
 21
167.6815112144
  0
LINE
  5
2D9
100
AcDbEntity
  8
SHELL3
100
AcDbLine
 62
7
  6
CONTINUOUS
 10
105.2586284657
 20
167.6815112144
 11
102.9672695848
 21
167.6815112144
  0
LINE
  5
2DA
100
AcDbEntity
  8
SHELL3
100
AcDbLine
 62
7
  6
CONTINUOUS
 10
85.5101284657
 20
167.6815112144
 11
83.2187695848
 21
167.6815112144
  0
LINE
  5
2DB
100
AcDbEntity
  8
SHELL3
100
AcDbLine
 62
7
  6
CONTINUOUS
 10
75.7946284657
 20
167.6815112144
 11
73.5032695848
 21
167.6815112144
  0
LINE
  5
2DC
100
AcDbEntity
  8
SHELL3
100
AcDbLine
 62
7
  6
CONTINUOUS
 10
66.0791284657
 20
167.6815112144
 11
63.7877695848
 21
167.6815112144
  0
LINE
  5
2DD
100
AcDbEntity
  8
SHELL3
100
AcDbLine
 62
7
  6
CONTINUOUS
 10
56.3636284657
 20
167.6815112144
 11
54.0722695848
 21
167.6815112144
  0
LINE
  5
2DE
100
AcDbEntity
  8
SHELL3
100
AcDbLine
 62
7
  6
CONTINUOUS
 10
46.6481284657
 20
167.6815112144
 11
44.3567695848
 21
167.6815112144
  0
LINE
  5
2DF
100
AcDbEntity
  8
SHELL3
100
AcDbLine
 62
7
  6
CONTINUOUS
 10
36.9326284657
 20
167.6815112144
 11
34.6412695848
 21
167.6815112144
  0
LINE
  5
2E0
100
AcDbEntity
  8
SHELL3
100
AcDbLine
 62
7
  6
CONTINUOUS
 10
105.2586284657
 20
171.6502612144
 11
106.4043079061
 21
169.6658862144
  0
LINE
  5
2E1
100
AcDbEntity
  8
SHELL3
100
AcDbLine
 62
7
  6
CONTINUOUS
 10
114.9741284657
 20
155.1402612144
 11
116.1198079061
 21
153.1558862144
  0
LINE
  5
2E2
100
AcDbEntity
  8
SHELL3
100
AcDbLine
 62
7
  6
CONTINUOUS
 10
111.5370901444
 20
169.6658862144
 11
112.6827695848
 21
167.6815112144
  0
LINE
  5
2E3
100
AcDbEntity
  8
SHELL3
100
AcDbLine
 62
7
  6
CONTINUOUS
 10
121.2525901444
 20
153.1558862144
 11
122.3982695848
 21
151.1715112144
  0
LINE
  5
2E4
100
AcDbEntity
  8
SHELL3
100
AcDbLine
 62
7
  6
CONTINUOUS
 10
129.1636990253
 20
177.9208862144
 11
129.1636990253
 21
144.9262862144
  0
LINE
  5
2E5
100
AcDbEntity
  8
SHELL3
100
AcDbLine
 62
7
  6
CONTINUOUS
 10
125.6520683682
 20
110.2933862144
 11
122.9024377112
 21
105.5308862144
  0
LINE
  5
2E6
100
AcDbEntity
  8
SHELL3
100
AcDbLine
 62
7
  6
CONTINUOUS
 10
151.5447695848
 20
155.1402612144
 11
150.3990901444
 21
153.1558862144
  0
LINE
  5
2E7
100
AcDbEntity
  8
SHELL3
100
AcDbLine
 62
7
  6
CONTINUOUS
 10
157.3576990253
 20
171.5708862144
 11
99.4456990253
 21
171.5708862144
  0
LINE
  5
2E8
100
AcDbEntity
  8
SHELL3
100
AcDbLine
 62
7
  6
CONTINUOUS
 10
89.0316990253
 20
171.5708862144
 11
31.1196990253
 21
171.5708862144
  0
LINE
  5
2E9
100
AcDbEntity
  8
SHELL3
100
AcDbLine
 62
7
  6
CONTINUOUS
 10
153.8361284657
 20
171.6502612144
 11
151.5447695848
 21
171.6502612144
  0
LINE
  5
2EA
100
AcDbEntity
  8
SHELL3
100
AcDbLine
 62
7
  6
CONTINUOUS
 10
144.1206284657
 20
171.6502612144
 11
141.8292695848
 21
171.6502612144
  0
LINE
  5
2EB
100
AcDbEntity
  8
SHELL3
100
AcDbLine
 62
7
  6
CONTINUOUS
 10
134.4051284657
 20
171.6502612144
 11
132.1137695848
 21
171.6502612144
  0
LINE
  5
2EC
100
AcDbEntity
  8
SHELL3
100
AcDbLine
 62
7
  6
CONTINUOUS
 10
124.6896284657
 20
171.6502612144
 11
122.3982695848
 21
171.6502612144
  0
LINE
  5
2ED
100
AcDbEntity
  8
SHELL3
100
AcDbLine
 62
7
  6
CONTINUOUS
 10
114.9741284657
 20
171.6502612144
 11
112.6827695848
 21
171.6502612144
  0
LINE
  5
2EE
100
AcDbEntity
  8
SHELL3
100
AcDbLine
 62
7
  6
CONTINUOUS
 10
105.2586284657
 20
171.6502612144
 11
102.9672695848
 21
171.6502612144
  0
LINE
  5
2EF
100
AcDbEntity
  8
SHELL3
100
AcDbLine
 62
7
  6
CONTINUOUS
 10
85.5101284657
 20
171.6502612144
 11
83.2187695848
 21
171.6502612144
  0
LINE
  5
2F0
100
AcDbEntity
  8
SHELL3
100
AcDbLine
 62
7
  6
CONTINUOUS
 10
75.7946284657
 20
171.6502612144
 11
73.5032695848
 21
171.6502612144
  0
LINE
  5
2F1
100
AcDbEntity
  8
SHELL3
100
AcDbLine
 62
7
  6
CONTINUOUS
 10
66.0791284657
 20
171.6502612144
 11
63.7877695848
 21
171.6502612144
  0
LINE
  5
2F2
100
AcDbEntity
  8
SHELL3
100
AcDbLine
 62
7
  6
CONTINUOUS
 10
56.3636284657
 20
171.6502612144
 11
54.0722695848
 21
171.6502612144
  0
LINE
  5
2F3
100
AcDbEntity
  8
SHELL3
100
AcDbLine
 62
7
  6
CONTINUOUS
 10
46.6481284657
 20
171.6502612144
 11
44.3567695848
 21
171.6502612144
  0
LINE
  5
2F4
100
AcDbEntity
  8
SHELL3
100
AcDbLine
 62
7
  6
CONTINUOUS
 10
36.9326284657
 20
171.6502612144
 11
34.6412695848
 21
171.6502612144
  0
LINE
  5
2F5
100
AcDbEntity
  8
SHELL3
100
AcDbLine
 62
7
  6
CONTINUOUS
 10
114.9741284657
 20
171.6502612144
 11
116.1198079061
 21
169.6658862144
  0
LINE
  5
2F6
100
AcDbEntity
  8
SHELL3
100
AcDbLine
 62
7
  6
CONTINUOUS
 10
124.6896284657
 20
155.1402612144
 11
125.8353079061
 21
153.1558862144
  0
LINE
  5
2F7
100
AcDbEntity
  8
SHELL3
100
AcDbLine
 62
7
  6
CONTINUOUS
 10
121.2525901444
 20
169.6658862144
 11
122.3982695848
 21
167.6815112144
  0
LINE
  5
2F8
100
AcDbEntity
  8
SHELL3
100
AcDbLine
 62
7
  6
CONTINUOUS
 10
130.9680901444
 20
153.1558862144
 11
132.1137695848
 21
151.1715112144
  0
LINE
  5
2F9
100
AcDbEntity
  8
SHELL3
100
AcDbLine
 62
7
  6
CONTINUOUS
 10
137.3551990253
 20
177.9208862144
 11
137.3551990253
 21
144.9262862144
  0
LINE
  5
2FA
100
AcDbEntity
  8
SHELL3
100
AcDbLine
 62
7
  6
CONTINUOUS
 10
138.7331490253
 20
89.0208862144
 11
138.7331490253
 21
122.0154862144
  0
LINE
  5
2FB
100
AcDbEntity
  8
SHELL3
100
AcDbLine
 62
7
  6
CONTINUOUS
 10
138.8791990253
 20
177.9208862144
 11
138.8791990253
 21
144.9262862144
  0
LINE
  5
2FC
100
AcDbEntity
  8
SHELL3
100
AcDbLine
 62
7
  6
CONTINUOUS
 10
154.9818079061
 20
153.1558862144
 11
153.8361284657
 21
151.1715112144
  0
LINE
  5
2FD
100
AcDbEntity
  8
SHELL3
100
AcDbLine
 62
7
  6
CONTINUOUS
 10
133.9009603393
 20
105.5308862144
 11
131.1513296823
 21
100.7683862144
  0
LINE
  5
2FE
100
AcDbEntity
  8
SHELL3
100
AcDbLine
 62
7
  6
CONTINUOUS
 10
19.9690990253
 20
176.9683862144
 11
19.9436990253
 21
176.9683862144
  0
LINE
  5
2FF
100
AcDbEntity
  8
SHELL3
100
AcDbLine
 62
7
  6
CONTINUOUS
 10
157.3576990253
 20
177.9208862144
 11
99.4456990253
 21
177.9208862144
  0
LINE
  5
300
100
AcDbEntity
  8
SHELL3
100
AcDbLine
 62
7
  6
CONTINUOUS
 10
89.0316990253
 20
177.9208862144
 11
31.1196990253
 21
177.9208862144
  0
LINE
  5
301
100
AcDbEntity
  8
SHELL3
100
AcDbLine
 62
7
  6
CONTINUOUS
 10
124.6896284657
 20
171.6502612144
 11
125.8353079061
 21
169.6658862144
  0
LINE
  5
302
100
AcDbEntity
  8
SHELL3
100
AcDbLine
 62
7
  6
CONTINUOUS
 10
134.4051284657
 20
155.1402612144
 11
135.5508079061
 21
153.1558862144
  0
LINE
  5
303
100
AcDbEntity
  8
SHELL3
100
AcDbLine
 62
7
  6
CONTINUOUS
 10
147.0706990253
 20
177.9208862144
 11
147.0706990253
 21
144.9262862144
  0
LINE
  5
304
100
AcDbEntity
  8
SHELL3
100
AcDbLine
 62
7
  6
CONTINUOUS
 10
148.5946990253
 20
177.9208862144
 11
148.5946990253
 21
144.9262862144
  0
LINE
  5
305
100
AcDbEntity
  8
SHELL3
100
AcDbLine
 62
7
  6
CONTINUOUS
 10
19.9690990253
 20
185.8583862119
 11
19.9436990253
 21
185.8583862119
  0
LINE
  5
306
100
AcDbEntity
  8
SHELL3
100
AcDbLine
 62
7
  6
CONTINUOUS
 10
130.9680901444
 20
169.6658862144
 11
132.1137695848
 21
167.6815112144
  0
LINE
  5
307
100
AcDbEntity
  8
SHELL3
100
AcDbLine
 62
7
  6
CONTINUOUS
 10
140.6835901444
 20
153.1558862144
 11
141.8292695848
 21
151.1715112144
  0
LINE
  5
308
100
AcDbEntity
  8
SHELL3
100
AcDbLine
 62
7
  6
CONTINUOUS
 10
134.4051284657
 20
171.6502612144
 11
135.5508079061
 21
169.6658862144
  0
LINE
  5
309
100
AcDbEntity
  8
SHELL3
100
AcDbLine
 62
7
  6
CONTINUOUS
 10
144.1206284657
 20
155.1402612144
 11
145.2663079061
 21
153.1558862144
  0
LINE
  5
30A
100
AcDbEntity
  8
SHELL3
100
AcDbLine
 62
7
  6
CONTINUOUS
 10
168.5336990253
 20
190.6208862144
 11
159.8976990253
 21
190.6208862144
  0
LINE
  5
30B
100
AcDbEntity
  8
SHELL3
100
AcDbLine
 62
7
  6
CONTINUOUS
 10
96.9056990253
 20
190.6208862144
 11
91.5716990253
 21
190.6208862144
  0
LINE
  5
30C
100
AcDbEntity
  8
SHELL3
100
AcDbLine
 62
7
  6
CONTINUOUS
 10
28.5796990253
 20
190.6208862144
 11
19.9436990253
 21
190.6208862144
  0
LINE
  5
30D
100
AcDbEntity
  8
SHELL3
100
AcDbLine
 62
7
  6
CONTINUOUS
 10
140.6835901444
 20
169.6658862144
 11
141.8292695848
 21
167.6815112144
  0
LINE
  5
30E
100
AcDbEntity
  8
SHELL3
100
AcDbLine
 62
7
  6
CONTINUOUS
 10
150.3990901444
 20
153.1558862144
 11
151.5447695848
 21
151.1715112144
  0
LINE
  5
30F
100
AcDbEntity
  8
SHELL3
100
AcDbLine
 62
7
  6
CONTINUOUS
 10
156.7861990253
 20
177.9208862144
 11
156.7861990253
 21
144.9262862144
  0
LINE
  5
310
100
AcDbEntity
  8
SHELL3
100
AcDbLine
 62
7
  6
CONTINUOUS
 10
157.3576990253
 20
177.9208862144
 11
157.3576990253
 21
89.0208862144
  0
LINE
  5
311
100
AcDbEntity
  8
SHELL3
100
AcDbLine
 62
7
  6
CONTINUOUS
 10
159.8976990253
 20
203.3208862144
 11
159.8976990253
 21
182.3930176973
  0
LINE
  5
312
100
AcDbEntity
  8
SHELL3
100
AcDbLine
 62
7
  6
CONTINUOUS
 10
159.8976990253
 20
173.4487547316
 11
159.8976990253
 21
137.9430176973
  0
LINE
  5
313
100
AcDbEntity
  8
SHELL3
100
AcDbLine
 62
7
  6
CONTINUOUS
 10
159.8976990253
 20
128.9987547316
 11
159.8976990253
 21
93.4930176973
  0
LINE
  5
314
100
AcDbEntity
  8
SHELL3
100
AcDbLine
 62
7
  6
CONTINUOUS
 10
159.8976990253
 20
84.5487547316
 11
159.8976990253
 21
63.6208862144
  0
LINE
  5
315
100
AcDbEntity
  8
SHELL3
100
AcDbLine
 62
7
  6
CONTINUOUS
 10
144.1206284657
 20
171.6502612144
 11
145.2663079061
 21
169.6658862144
  0
LINE
  5
316
100
AcDbEntity
  8
SHELL3
100
AcDbLine
 62
7
  6
CONTINUOUS
 10
153.8361284657
 20
155.1402612144
 11
154.9818079061
 21
153.1558862144
  0
LINE
  5
317
100
AcDbEntity
  8
SHELL3
100
AcDbLine
 62
7
  6
CONTINUOUS
 10
150.3990901444
 20
169.6658862144
 11
151.5447695848
 21
167.6815112144
  0
LINE
  5
318
100
AcDbEntity
  8
SHELL3
100
AcDbLine
 62
7
  6
CONTINUOUS
 10
168.5336990253
 20
203.3208862144
 11
168.5336990253
 21
63.6208862144
  0
LINE
  5
319
100
AcDbEntity
  8
SHELL3
100
AcDbLine
 62
7
  6
CONTINUOUS
 10
168.5336990253
 20
203.3208862144
 11
19.9436990253
 21
203.3208862144
  0
LINE
  5
31A
100
AcDbEntity
  8
SHELL3
100
AcDbLine
 62
7
  6
CONTINUOUS
 10
153.8361284657
 20
171.6502612144
 11
154.9818079061
 21
169.6658862144
  0
CIRCLE
  5
31B
100
AcDbEntity
  8
SHELL3
100
AcDbCircle
 62
7
  6
CONTINUOUS
 10
60.0756990253
 20
105.5308862144
 40
10.31875
  0
CIRCLE
  5
31C
100
AcDbEntity
  8
SHELL3
100
AcDbCircle
 62
7
  6
CONTINUOUS
 10
60.0756990253
 20
73.1458862144
 40
6.35
  0
ARC
  5
31D
100
AcDbEntity
  8
SHELL3
100
AcDbCircle
 62
7
  6
CONTINUOUS
 10
25.9126990253
 20
89.0208862144
 40
5.207
100
AcDbArc
 50
300.8101566431
 51
59.1898433569
  0
CIRCLE
  5
31E
100
AcDbEntity
  8
SHELL3
100
AcDbCircle
 62
7
  6
CONTINUOUS
 10
60.0756990253
 20
73.1458862144
 40
3.302
  0
ARC
  5
31F
100
AcDbEntity
  8
SHELL3
100
AcDbCircle
 62
7
  6
CONTINUOUS
 10
25.9126990253
 20
133.4708862144
 40
5.207
100
AcDbArc
 50
300.8101566431
 51
59.1898433569
  0
CIRCLE
  5
320
100
AcDbEntity
  8
SHELL3
100
AcDbCircle
 62
7
  6
CONTINUOUS
 10
45.5024490253
 20
153.1558862144
 40
3.96875
  0
CIRCLE
  5
321
100
AcDbEntity
  8
SHELL3
100
AcDbCircle
 62
7
  6
CONTINUOUS
 10
35.7869490253
 20
153.1558862144
 40
3.96875
  0
ARC
  5
322
100
AcDbEntity
  8
SHELL3
100
AcDbCircle
 62
7
  6
CONTINUOUS
 10
25.9126990253
 20
177.9208862144
 40
5.207
100
AcDbArc
 50
300.8101566431
 51
59.1898433569
  0
CIRCLE
  5
323
100
AcDbEntity
  8
SHELL3
100
AcDbCircle
 62
7
  6
CONTINUOUS
 10
45.5024490253
 20
169.6658862144
 40
3.96875
  0
CIRCLE
  5
324
100
AcDbEntity
  8
SHELL3
100
AcDbCircle
 62
7
  6
CONTINUOUS
 10
35.7869490253
 20
169.6658862144
 40
3.96875
  0
CIRCLE
  5
325
100
AcDbEntity
  8
SHELL3
100
AcDbCircle
 62
7
  6
CONTINUOUS
 10
60.0756990253
 20
133.4708862144
 40
6.35
  0
CIRCLE
  5
326
100
AcDbEntity
  8
SHELL3
100
AcDbCircle
 62
7
  6
CONTINUOUS
 10
84.3644490253
 20
153.1558862144
 40
3.96875
  0
CIRCLE
  5
327
100
AcDbEntity
  8
SHELL3
100
AcDbCircle
 62
7
  6
CONTINUOUS
 10
74.6489490253
 20
153.1558862144
 40
3.96875
  0
CIRCLE
  5
328
100
AcDbEntity
  8
SHELL3
100
AcDbCircle
 62
7
  6
CONTINUOUS
 10
64.9334490253
 20
153.1558862144
 40
3.96875
  0
CIRCLE
  5
329
100
AcDbEntity
  8
SHELL3
100
AcDbCircle
 62
7
  6
CONTINUOUS
 10
55.2179490253
 20
153.1558862144
 40
3.96875
  0
CIRCLE
  5
32A
100
AcDbEntity
  8
SHELL3
100
AcDbCircle
 62
7
  6
CONTINUOUS
 10
60.0756990253
 20
193.7958862144
 40
6.35
  0
CIRCLE
  5
32B
100
AcDbEntity
  8
SHELL3
100
AcDbCircle
 62
7
  6
CONTINUOUS
 10
84.3644490253
 20
169.6658862144
 40
3.96875
  0
CIRCLE
  5
32C
100
AcDbEntity
  8
SHELL3
100
AcDbCircle
 62
7
  6
CONTINUOUS
 10
74.6489490253
 20
169.6658862144
 40
3.96875
  0
CIRCLE
  5
32D
100
AcDbEntity
  8
SHELL3
100
AcDbCircle
 62
7
  6
CONTINUOUS
 10
64.9334490253
 20
169.6658862144
 40
3.96875
  0
CIRCLE
  5
32E
100
AcDbEntity
  8
SHELL3
100
AcDbCircle
 62
7
  6
CONTINUOUS
 10
55.2179490253
 20
169.6658862144
 40
3.96875
  0
CIRCLE
  5
32F
100
AcDbEntity
  8
SHELL3
100
AcDbCircle
 62
7
  6
CONTINUOUS
 10
60.0756990253
 20
193.7958862144
 40
3.302
  0
CIRCLE
  5
330
100
AcDbEntity
  8
SHELL3
100
AcDbCircle
 62
7
  6
CONTINUOUS
 10
128.4016990253
 20
105.5308862144
 40
10.31875
  0
CIRCLE
  5
331
100
AcDbEntity
  8
SHELL3
100
AcDbCircle
 62
7
  6
CONTINUOUS
 10
128.4016990253
 20
73.1458862144
 40
6.35
  0
ARC
  5
332
100
AcDbEntity
  8
SHELL3
100
AcDbCircle
 62
7
  6
CONTINUOUS
 10
162.5646990253
 20
89.0208862144
 40
5.207
100
AcDbArc
 50
120.8101566431
 51
239.1898433569
  0
ARC
  5
333
100
AcDbEntity
  8
SHELL3
100
AcDbCircle
 62
7
  6
CONTINUOUS
 10
94.2386990253
 20
89.0208862144
 40
5.207
100
AcDbArc
 50
120.8101566431
 51
239.1898433569
  0
ARC
  5
334
100
AcDbEntity
  8
SHELL3
100
AcDbCircle
 62
7
  6
CONTINUOUS
 10
94.2386990253
 20
89.0208862144
 40
5.207
100
AcDbArc
 50
300.8101566431
 51
59.1898433569
  0
CIRCLE
  5
335
100
AcDbEntity
  8
SHELL3
100
AcDbCircle
 62
7
  6
CONTINUOUS
 10
128.4016990253
 20
73.1458862144
 40
3.302
  0
ARC
  5
336
100
AcDbEntity
  8
SHELL3
100
AcDbCircle
 62
7
  6
CONTINUOUS
 10
94.2386990253
 20
133.4708862144
 40
5.207
100
AcDbArc
 50
120.8101566431
 51
239.1898433569
  0
ARC
  5
337
100
AcDbEntity
  8
SHELL3
100
AcDbCircle
 62
7
  6
CONTINUOUS
 10
94.2386990253
 20
133.4708862144
 40
5.207
100
AcDbArc
 50
300.8101566431
 51
59.1898433569
  0
CIRCLE
  5
338
100
AcDbEntity
  8
SHELL3
100
AcDbCircle
 62
7
  6
CONTINUOUS
 10
123.5439490253
 20
153.1558862144
 40
3.96875
  0
CIRCLE
  5
339
100
AcDbEntity
  8
SHELL3
100
AcDbCircle
 62
7
  6
CONTINUOUS
 10
113.8284490253
 20
153.1558862144
 40
3.96875
  0
CIRCLE
  5
33A
100
AcDbEntity
  8
SHELL3
100
AcDbCircle
 62
7
  6
CONTINUOUS
 10
104.1129490253
 20
153.1558862144
 40
3.96875
  0
ARC
  5
33B
100
AcDbEntity
  8
SHELL3
100
AcDbCircle
 62
7
  6
CONTINUOUS
 10
94.2386990253
 20
177.9208862144
 40
5.207
100
AcDbArc
 50
300.8101566431
 51
59.1898433569
  0
ARC
  5
33C
100
AcDbEntity
  8
SHELL3
100
AcDbCircle
 62
7
  6
CONTINUOUS
 10
94.2386990253
 20
177.9208862144
 40
5.207
100
AcDbArc
 50
120.8101566431
 51
239.1898433569
  0
CIRCLE
  5
33D
100
AcDbEntity
  8
SHELL3
100
AcDbCircle
 62
7
  6
CONTINUOUS
 10
104.1129490253
 20
169.6658862144
 40
3.96875
  0
CIRCLE
  5
33E
100
AcDbEntity
  8
SHELL3
100
AcDbCircle
 62
7
  6
CONTINUOUS
 10
123.5439490253
 20
169.6658862144
 40
3.96875
  0
CIRCLE
  5
33F
100
AcDbEntity
  8
SHELL3
100
AcDbCircle
 62
7
  6
CONTINUOUS
 10
113.8284490253
 20
169.6658862144
 40
3.96875
  0
CIRCLE
  5
340
100
AcDbEntity
  8
SHELL3
100
AcDbCircle
 62
7
  6
CONTINUOUS
 10
128.4016990253
 20
133.4708862144
 40
6.35
  0
ARC
  5
341
100
AcDbEntity
  8
SHELL3
100
AcDbCircle
 62
7
  6
CONTINUOUS
 10
162.5646990253
 20
133.4708862144
 40
5.207
100
AcDbArc
 50
120.8101566431
 51
239.1898433569
  0
CIRCLE
  5
342
100
AcDbEntity
  8
SHELL3
100
AcDbCircle
 62
7
  6
CONTINUOUS
 10
152.6904490253
 20
153.1558862144
 40
3.96875
  0
CIRCLE
  5
343
100
AcDbEntity
  8
SHELL3
100
AcDbCircle
 62
7
  6
CONTINUOUS
 10
142.9749490253
 20
153.1558862144
 40
3.96875
  0
CIRCLE
  5
344
100
AcDbEntity
  8
SHELL3
100
AcDbCircle
 62
7
  6
CONTINUOUS
 10
133.2594490253
 20
153.1558862144
 40
3.96875
  0
CIRCLE
  5
345
100
AcDbEntity
  8
SHELL3
100
AcDbCircle
 62
7
  6
CONTINUOUS
 10
128.4016990253
 20
193.7958862144
 40
6.35
  0
ARC
  5
346
100
AcDbEntity
  8
SHELL3
100
AcDbCircle
 62
7
  6
CONTINUOUS
 10
162.5646990253
 20
177.9208862144
 40
5.207
100
AcDbArc
 50
120.8101566431
 51
239.1898433569
  0
CIRCLE
  5
347
100
AcDbEntity
  8
SHELL3
100
AcDbCircle
 62
7
  6
CONTINUOUS
 10
152.6904490253
 20
169.6658862144
 40
3.96875
  0
CIRCLE
  5
348
100
AcDbEntity
  8
SHELL3
100
AcDbCircle
 62
7
  6
CONTINUOUS
 10
142.9749490253
 20
169.6658862144
 40
3.96875
  0
CIRCLE
  5
349
100
AcDbEntity
  8
SHELL3
100
AcDbCircle
 62
7
  6
CONTINUOUS
 10
133.2594490253
 20
169.6658862144
 40
3.96875
  0
CIRCLE
  5
34A
100
AcDbEntity
  8
SHELL3
100
AcDbCircle
 62
7
  6
CONTINUOUS
 10
128.4016990253
 20
193.7958862144
 40
3.302
  0
SPLINE
  5
34B
100
AcDbEntity
  8
SHELL3
100
AcDbSpline
 62
7
  6
CONTINUOUS
 70
0
 71
3
 72
11
 73
7
 74
0
 42
0.0000001
 43
0.0000001
 44
0.0000000001
 40
0.0
 40
0.0
 40
0.0
 40
0.0
 40
0.2499774886
 40
0.5
 40
0.7500225114
 40
1.0
 40
1.0
 40
1.0
 40
1.0
 10
157.3576990253
 20
177.9208862144
 30
0.0
 10
157.3595465432
 20
177.4739150805
 30
0.0
 10
157.4731860238
 20
176.5755732936
 30
0.0
 10
157.9868922609
 20
175.3208666877
 30
0.0
 10
158.8014031845
 20
174.2370056634
 30
0.0
 10
159.5147556126
 20
173.6792779421
 30
0.0
 10
159.8976990253
 20
173.4487547316
 30
0.0
  0
SPLINE
  5
34C
100
AcDbEntity
  8
SHELL3
100
AcDbSpline
 62
7
  6
CONTINUOUS
 70
0
 71
3
 72
11
 73
7
 74
0
 42
0.0000001
 43
0.0000001
 44
0.0000000001
 40
0.0
 40
0.0
 40
0.0
 40
0.0
 40
0.2499774886
 40
0.5
 40
0.7500225114
 40
1.0
 40
1.0
 40
1.0
 40
1.0
 10
159.8976990253
 20
182.3930176973
 30
0.0
 10
159.5147556126
 20
182.1624944867
 30
0.0
 10
158.8014031845
 20
181.6047667655
 30
0.0
 10
157.9868922609
 20
180.5209057412
 30
0.0
 10
157.4731860238
 20
179.2661991353
 30
0.0
 10
157.3595465432
 20
178.3678573484
 30
0.0
 10
157.3576990253
 20
177.9208862144
 30
0.0
  0
ENDSEC
  0
SECTION
  2
OBJECTS
  0
DICTIONARY
  5
C
100
AcDbDictionary
280
0
281
1
  3
ACAD_GROUP
350
D
  3
ACAD_MLINESTYLE
350
17
  3
ACAD_LAYOUT
350
1A
  3
ACAD_PLOTSETTINGS
350
19
  3
ACAD_PLOTSTYLENAME
350
E
  0
DICTIONARY
  5
D
102
{ACAD_REACTORS
330
C
102
}
100
AcDbDictionary
280
0
281
1
  0
ACDBDICTIONARYWDFLT
  5
E
102
{ACAD_REACTORS
330
C
102
}
100
AcDbDictionary
281
1
  3
Normal
350
F
100
AcDbDictionaryWithDefault
340
F
  0
DICTIONARY
  5
17
102
{ACAD_REACTORS
330
C
102
}
100
AcDbDictionary
280
0
281
1
  3
Standard
350
18
  0
DICTIONARY
  5
19
102
{ACAD_REACTORS
330
C
102
}
100
AcDbDictionary
281
1
  0
DICTIONARY
  5
1A
102
{ACAD_REACTORS
330
C
102
}
100
AcDbDictionary
281
1
  3
Model
350
34D
  3
Layout1
350
34E
  0
ACDBPLACEHOLDER
  5
F
102
{ACAD_REACTORS
330
E
102
}
  0
MLINESTYLE
  5
18
102
{ACAD_REACTORS
330
17
102
}
100
AcDbMlineStyle
  2
STANDARD
 70
0
  3

 62
256
 51
90.0
 52
90.0
 71
2
 49
0.5
 62
256
  6
BYLAYER
 49
-0.5
 62
256
  6
BYLAYER
  0
LAYOUT
  5
34D
102
{ACAD_REACTORS
330
1A
102
}
100
AcDbPlotSettings
  1

  2
none_device
  4

  6

 40
0.0
 41
0.0
 42
0.0
 43
0.0
 44
210.0
 45
297.0
 46
0.0
 47
0.0
 48
0.0
 49
0.0
140
0.0
141
0.0
142
1.0
143
1.0
 70
1024
 72
1
 73
0
 74
0
  7

 75
0
147
1.0
148
0.0
149
0.0
100
AcDbLayout
  1
Model
 70
0
 71
0
 10
0.0
 20
0.0
 11
210.0
 21
297.0
 12
0.0
 22
0.0
 32
0.0
 14
0.0
 24
0.0
 34
0.0
 15
0.0
 25
0.0
 35
0.0
146
0.0
 13
0.0
 23
0.0
 33
0.0
 16
1.0
 26
0.0
 36
0.0
 17
0.0
 27
1.0
 37
0.0
 76
0
330
211
345
0
346
0
  0
LAYOUT
  5
34E
102
{ACAD_REACTORS
330
1A
102
}
100
AcDbPlotSettings
  1

  2
none_device
  4

  6

 40
0.0
 41
0.0
 42
0.0
 43
0.0
 44
210.0
 45
297.0
 46
0.0
 47
0.0
 48
0.0
 49
0.0
140
0.0
141
0.0
142
1.0
143
1.0
 70
0
 72
1
 73
0
 74
0
  7

 75
0
147
1.0
148
0.0
149
0.0
100
AcDbLayout
  1
Layout1
 70
0
 71
1
 10
0.0
 20
0.0
 11
210.0
 21
297.0
 12
0.0
 22
0.0
 32
0.0
 14
0.0
 24
0.0
 34
0.0
 15
0.0
 25
0.0
 35
0.0
146
0.0
 13
0.0
 23
0.0
 33
0.0
 16
1.0
 26
0.0
 36
0.0
 17
0.0
 27
1.0
 37
0.0
 76
0
330
212
345
0
346
0
  0
ENDSEC
  0
EOF
