999
DXF file: C:\Users\sesa63760\Dev\_Creo\CAD\MCADPD0004508_3D-CAD\drw0001_7.dxf
999
Pro/ENGINEER 2019471 by Parametric Technology Corporation
  0
SECTION
  2
HEADER
  9
$ACADVER
  1
AC1024
  9
$DWGCODEPAGE
  3
ANSI_1252
  9
$EXTMAX
 10
206.6742921556
 20
292.2964989058
 30
0.0
  9
$EXTMIN
 10
0.0
 20
0.0
 30
0.0
  9
$LIMMIN
 10
0.0
 20
0.0
  9
$LIMMAX
 10
206.6742921556
 20
292.2964989058
  9
$VIEWCTR
 10
103.3371460778
 20
146.1482494529
  9
$VIEWSIZE
 40
292.2964989058
  9
$CLAYER
  8
0
  9
$LTSCALE
 40
19.0534014102
  9
$CELTYPE
  6
BYLAYER
  9
$DIMSCALE
 40
1.0
  9
$DIMASZ
 40
2.4604082399
  9
$DIMEXO
 40
1.0
  9
$DIMDLI
 40
13.164168247
  9
$DIMEXE
 40
1.0
  9
$DIMCEN
 40
3.1178293217
  9
$DIMLFAC
 40
1.0
  9
$DIMBLK
  1
_FILLED
  9
$DIMALT
 70
0
  9
$DIMALTF
 40
0.0393700787
  9
$DIMTXT
 40
3.4445715359
  9
$DIMTOL
 70
1
  9
$DIMLIM
 70
0
  9
$DIMTFAC
 40
1.0
  9
$DIMTP
 40
0.01
  9
$DIMTM
 40
0.01
  9
$DIMGAP
 40
0.625
  9
$DIMDSEP
 70
46
  9
$AUNITS
 70
0
  9
$PDMODE
 70
3
  9
$PDSIZE
 40
0.3125
  9
$HANDSEED
  5
2F7
  9
$TILEMODE
 70
1
  9
$MEASUREMENT
 70
1
  9
$INSUNITS
 70
4
  0
ENDSEC
  0
SECTION
  2
CLASSES
  0
CLASS
  1
ACDBDICTIONARYWDFLT
  2
AcDbDictionaryWithDefault
  3
AutoCAD 2000
 90
0
 91
1
280
0
281
0
  0
CLASS
  1
ACDBPLACEHOLDER
  2
AcDbPlaceHolder
  3
AutoCAD 2000
 90
0
 91
1
280
0
281
0
  0
CLASS
  1
LAYOUT
  2
AcDbLayout
  3
AutoCAD 2000
 90
0
 91
0
280
0
281
0
  0
ENDSEC
  0
SECTION
  2
TABLES
  0
TABLE
  2
VPORT
  5
8
100
AcDbSymbolTable
 70
2
  0
VPORT
  5
1F4
100
AcDbSymbolTableRecord
100
AcDbViewportTableRecord
  2
*ACTIVE
 70
0
 10
0.0
 20
0.0
 11
1.0
 21
1.0
 12
103.3371460778
 22
146.1482494529
 13
0.0
 23
0.0
 14
1.0
 24
1.0
 15
0.0
 25
0.0
 16
0.0
 26
0.0
 36
1.0
 17
0.0
 27
0.0
 37
0.0
 40
292.2964989058
 41
0.7070707071
 42
50.0
 43
0.0
 44
0.0
 50
0.0
 51
0.0
 71
0
 72
100
 73
1
 74
1
 75
0
 76
0
 77
0
 78
0
  0
ENDTAB
  0
TABLE
  2
LTYPE
  5
5
100
AcDbSymbolTable
 70
6
  0
LTYPE
  5
14
100
AcDbSymbolTableRecord
100
AcDbLinetypeTableRecord
  2
BYBLOCK
 70
0
  3

 72
65
 73
0
 40
0.0
  0
LTYPE
  5
15
100
AcDbSymbolTableRecord
100
AcDbLinetypeTableRecord
  2
BYLAYER
 70
0
  3

 72
65
 73
0
 40
0.0
  0
LTYPE
  5
16
100
AcDbSymbolTableRecord
100
AcDbLinetypeTableRecord
  2
CONTINUOUS
 70
64
  3
Solid line
 72
65
 73
0
 40
0.0
  0
LTYPE
  5
1F5
100
AcDbSymbolTableRecord
100
AcDbLinetypeTableRecord
  2
CENTER
 70
64
  3
____ _ ____ _ ____ _ ____ _ ____ _ ____ _ ____
 72
65
 73
4
 40
0.6
 49
0.375
 74
0
 49
-0.075
 74
0
 49
0.075
 74
0
 49
-0.075
 74
0
  0
LTYPE
  5
1F6
100
AcDbSymbolTableRecord
100
AcDbLinetypeTableRecord
  2
HIDDEN
 70
64
  3
- - - - - - - - - - - - - - - - - - - -
 72
65
 73
2
 40
0.2
 49
0.1
 74
0
 49
-0.1
 74
0
  0
LTYPE
  5
1F7
100
AcDbSymbolTableRecord
100
AcDbLinetypeTableRecord
  2
PHANTOM
 70
64
  3
_____ _ _ _____ _ _ _____ _ _ _____
 72
65
 73
6
 40
0.8
 49
0.45
 74
0
 49
-0.05
 74
0
 49
0.1
 74
0
 49
-0.05
 74
0
 49
0.1
 74
0
 49
-0.05
 74
0
  0
LTYPE
  5
1F8
100
AcDbSymbolTableRecord
100
AcDbLinetypeTableRecord
  2
DOT
 70
64
  3
. . . . . . . . . . . . . . . . . . . .
 72
65
 73
2
 40
0.2
 49
0.1
 74
0
 49
-0.1
 74
0
  0
LTYPE
  5
1F9
100
AcDbSymbolTableRecord
100
AcDbLinetypeTableRecord
  2
DASHED
 70
64
  3
- - - - - - - - - - - - - - - - - - - -
 72
65
 73
2
 40
0.2
 49
0.1
 74
0
 49
-0.1
 74
0
  0
ENDTAB
  0
TABLE
  2
LAYER
  5
2
100
AcDbSymbolTable
 70
36
  0
LAYER
  5
10
100
AcDbSymbolTableRecord
100
AcDbLayerTableRecord
  2
0
 70
0
 62
7
  6
CONTINUOUS
370
-3
390
F
  0
LAYER
  5
1FA
100
AcDbSymbolTableRecord
100
AcDbLayerTableRecord
  2
DEFAULT_1
 70
0
 62
7
  6
CENTER
370
-3
390
F
  0
LAYER
  5
1FB
100
AcDbSymbolTableRecord
100
AcDbLayerTableRecord
  2
DEFAULT_2
 70
0
 62
7
  6
HIDDEN
370
-3
390
F
  0
LAYER
  5
1FC
100
AcDbSymbolTableRecord
100
AcDbLayerTableRecord
  2
DEFAULT_3
 70
0
 62
7
  6
PHANTOM
370
-3
390
F
  0
LAYER
  5
1FD
100
AcDbSymbolTableRecord
100
AcDbLayerTableRecord
  2
00_COMPONENTS
 70
0
 62
7
  6
CONTINUOUS
370
-3
390
F
  0
LAYER
  5
1FE
100
AcDbSymbolTableRecord
100
AcDbLayerTableRecord
  2
01_1_DEFAULT_DATUMS
 70
0
 62
7
  6
CONTINUOUS
370
-3
390
F
  0
LAYER
  5
1FF
100
AcDbSymbolTableRecord
100
AcDbLayerTableRecord
  2
01_PLANES
 70
0
 62
7
  6
CONTINUOUS
370
-3
390
F
  0
LAYER
  5
200
100
AcDbSymbolTableRecord
100
AcDbLayerTableRecord
  2
02_COORD_SYS
 70
0
 62
7
  6
CONTINUOUS
370
-3
390
F
  0
LAYER
  5
201
100
AcDbSymbolTableRecord
100
AcDbLayerTableRecord
  2
03_AXES
 70
0
 62
7
  6
CONTINUOUS
370
-3
390
F
  0
LAYER
  5
202
100
AcDbSymbolTableRecord
100
AcDbLayerTableRecord
  2
04_POINTS
 70
0
 62
7
  6
CONTINUOUS
370
-3
390
F
  0
LAYER
  5
203
100
AcDbSymbolTableRecord
100
AcDbLayerTableRecord
  2
05_CURVES
 70
0
 62
7
  6
CONTINUOUS
370
-3
390
F
  0
LAYER
  5
204
100
AcDbSymbolTableRecord
100
AcDbLayerTableRecord
  2
06_SURFS
 70
0
 62
7
  6
CONTINUOUS
370
-3
390
F
  0
LAYER
  5
205
100
AcDbSymbolTableRecord
100
AcDbLayerTableRecord
  2
07_COSMETICS
 70
0
 62
7
  6
CONTINUOUS
370
-3
390
F
  0
LAYER
  5
206
100
AcDbSymbolTableRecord
100
AcDbLayerTableRecord
  2
10_NOTES
 70
0
 62
7
  6
CONTINUOUS
370
-3
390
F
  0
LAYER
  5
207
100
AcDbSymbolTableRecord
100
AcDbLayerTableRecord
  2
11_NOTES_PUB
 70
0
 62
7
  6
CONTINUOUS
370
-3
390
F
  0
LAYER
  5
208
100
AcDbSymbolTableRecord
100
AcDbLayerTableRecord
  2
13_REF_GTOL
 70
0
 62
7
  6
CONTINUOUS
370
-3
390
F
  0
LAYER
  5
209
100
AcDbSymbolTableRecord
100
AcDbLayerTableRecord
  2
16_MISC
 70
0
 62
7
  6
CONTINUOUS
370
-3
390
F
  0
LAYER
  5
20A
100
AcDbSymbolTableRecord
100
AcDbLayerTableRecord
  2
17_NO_PRINT
 70
0
 62
7
  6
CONTINUOUS
370
-3
390
F
  0
LAYER
  5
20B
100
AcDbSymbolTableRecord
100
AcDbLayerTableRecord
  2
18_DATUM_CAMS_JOINTS
 70
0
 62
7
  6
CONTINUOUS
370
-3
390
F
  0
LAYER
  5
20C
100
AcDbSymbolTableRecord
100
AcDbLayerTableRecord
  2
19_DATUM_FUNCTIONAL
 70
0
 62
7
  6
CONTINUOUS
370
-3
390
F
  0
LAYER
  5
20D
100
AcDbSymbolTableRecord
100
AcDbLayerTableRecord
  2
20_DATUM_KINEMATIC_SCHEME
 70
0
 62
7
  6
CONTINUOUS
370
-3
390
F
  0
ENDTAB
  0
TABLE
  2
STYLE
  5
3
100
AcDbSymbolTable
 70
1
  0
STYLE
  5
11
100
AcDbSymbolTableRecord
100
AcDbTextStyleTableRecord
  2
STANDARD
 70
0
 40
0.0
 41
1.0
 50
0.0
 71
0
 42
0.2
  3
ARIAL.TTF
  4

  0
STYLE
  5
20E
100
AcDbSymbolTableRecord
100
AcDbTextStyleTableRecord
  2
TEXTSTYLE_1
 70
0
 40
0.0
 41
0.8
 50
0.0
 71
0
 42
0.2
  3
gdt
  4

  0
ENDTAB
  0
TABLE
  2
VIEW
  5
6
100
AcDbSymbolTable
 70
0
  0
ENDTAB
  0
TABLE
  2
UCS
  5
7
100
AcDbSymbolTable
 70
0
  0
ENDTAB
  0
TABLE
  2
APPID
  5
9
100
AcDbSymbolTable
 70
1
  0
APPID
  5
20F
100
AcDbSymbolTableRecord
100
AcDbRegAppTableRecord
  2
ACAD
 70
0
  0
ENDTAB
  0
TABLE
  2
BLOCK_RECORD
  5
1
100
AcDbSymbolTable
 70
0
  0
BLOCK_RECORD
  5
210
100
AcDbSymbolTableRecord
100
AcDbBlockTableRecord
  2
*Model_Space
  0
BLOCK_RECORD
  5
211
100
AcDbSymbolTableRecord
100
AcDbBlockTableRecord
  2
*Paper_Space
  0
BLOCK_RECORD
  5
212
100
AcDbSymbolTableRecord
100
AcDbBlockTableRecord
  2
_FILLED
  0
ENDTAB
  0
TABLE
  2
DIMSTYLE
  5
A
100
AcDbSymbolTable
 70
1
100
AcDbDimStyleTable
 71
0
  0
DIMSTYLE
105
213
100
AcDbSymbolTableRecord
100
AcDbDimStyleTableRecord
  2
STANDARD
 70
0
  3

  4

 40
1.0
 41
2.4604082399
 42
1.0
 43
0.38
 44
1.0
 45
0.0
 46
0.0
 47
0.01
 48
0.01
140
3.4445715359
141
0.09
142
0.0
143
25.4
144
1.0
145
0.0
146
1.0
147
0.625
 71
1
 72
0
 73
0
 74
0
 75
0
 76
0
 77
1
 78
8
 79
2
170
0
171
1
172
0
173
0
174
0
175
0
176
0
177
0
178
0
270
2
179
2
271
2
272
2
273
2
274
2
275
0
280
0
281
0
282
0
283
1
284
8
285
0
286
0
287
3
288
0
340
11
278
46
341
212
342
212
343
212
344
212
  0
ENDTAB
  0
ENDSEC
  0
SECTION
  2
BLOCKS
  0
BLOCK
  5
20
100
AcDbEntity
  8
0
100
AcDbBlockBegin
  2
*Model_Space
 70
0
 10
0.0
 20
0.0
 30
0.0
  3
*Model_Space
  1

  0
ENDBLK
  5
21
100
AcDbEntity
  8
0
100
AcDbBlockEnd
  0
BLOCK
  5
1C
100
AcDbEntity
  8
0
100
AcDbBlockBegin
  2
*Paper_Space
 70
0
 10
0.0
 20
0.0
 30
0.0
  3
*Paper_Space
  1

  0
ENDBLK
  5
1D
100
AcDbEntity
  8
0
100
AcDbBlockEnd
  0
BLOCK
  5
214
100
AcDbEntity
  8
0
100
AcDbBlockBegin
  2
_FILLED
 70
64
 10
0.0
 20
0.0
  3
_FILLED
  1

  0
SOLID
  5
215
100
AcDbEntity
  8
0
  6
BYBLOCK
 62
0
100
AcDbTrace
 10
0.0
 20
0.0
 11
-1.0
 21
0.25
 12
-1.0
 22
-0.25
 13
-1.0
 23
-0.25
  0
ENDBLK
  5
216
100
AcDbEntity
  8
0
  6
BYBLOCK
 62
0
100
AcDbBlockEnd
  0
ENDSEC
  0
SECTION
  2
ENTITIES
  0
LINE
  5
217
100
AcDbEntity
  8
0
100
AcDbLine
 62
7
  6
BYLAYER
 10
21.9449141303
 20
92.8637855579
 11
21.9449141303
 21
200.8637855579
  0
LINE
  5
218
100
AcDbEntity
  8
0
100
AcDbLine
 62
7
  6
BYLAYER
 10
23.9449141303
 20
90.8637855579
 11
23.9449141203
 21
112.0426109972
  0
LINE
  5
219
100
AcDbEntity
  8
0
100
AcDbLine
 62
7
  6
BYLAYER
 10
23.9449141916
 20
114.1131633351
 11
23.9449141538
 21
179.6144077716
  0
LINE
  5
21A
100
AcDbEntity
  8
0
100
AcDbLine
 62
7
  6
BYLAYER
 10
23.9449142585
 20
181.6849590766
 11
23.9449141303
 21
202.8637855579
  0
LINE
  5
21B
100
AcDbEntity
  8
0
100
AcDbLine
 62
7
  6
BYLAYER
 10
98.4449141303
 20
61.8637855579
 11
78.4449141303
 21
61.8637855579
  0
LINE
  5
21C
100
AcDbEntity
  8
0
100
AcDbLine
 62
7
  6
BYLAYER
 10
58.4449141303
 20
61.8637855579
 11
38.4449141303
 21
61.8637855579
  0
LINE
  5
21D
100
AcDbEntity
  8
0
100
AcDbLine
 62
7
  6
BYLAYER
 10
118.4449141303
 20
61.8637855579
 11
138.4449141303
 21
61.8637855579
  0
LINE
  5
21E
100
AcDbEntity
  8
0
100
AcDbLine
 62
7
  6
BYLAYER
 10
28.9449141303
 20
183.1137855579
 11
28.9449141303
 21
183.0247060853
  0
LINE
  5
21F
100
AcDbEntity
  8
0
100
AcDbLine
 62
7
  6
BYLAYER
 10
28.9449141303
 20
180.9541537245
 11
28.9449140752
 21
112.7734176264
  0
LINE
  5
220
100
AcDbEntity
  8
0
100
AcDbLine
 62
7
  6
BYLAYER
 10
28.9449141303
 20
110.7028650305
 11
28.9449141303
 21
110.6137855579
  0
LINE
  5
221
100
AcDbEntity
  8
0
100
AcDbLine
 62
7
  6
BYLAYER
 10
29.9449141303
 20
110.6137855579
 11
29.9449141303
 21
183.1137855579
  0
LINE
  5
222
100
AcDbEntity
  8
0
100
AcDbLine
 62
7
  6
BYLAYER
 10
30.9449141303
 20
108.6137855579
 11
30.9449141303
 21
185.1137855579
  0
LINE
  5
223
100
AcDbEntity
  8
0
100
AcDbLine
 62
7
  6
BYLAYER
 10
35.4449141303
 20
78.3637855579
 11
35.4449141303
 21
215.3637855579
  0
LINE
  5
224
100
AcDbEntity
  8
0
100
AcDbLine
 62
7
  6
BYLAYER
 10
38.4449141303
 20
231.8637855579
 11
38.4449141303
 21
215.3637855579
  0
LINE
  5
225
100
AcDbEntity
  8
0
100
AcDbLine
 62
7
  6
BYLAYER
 10
38.4449141303
 20
61.8637855579
 11
38.4449141303
 21
78.3637855579
  0
LINE
  5
226
100
AcDbEntity
  8
0
100
AcDbLine
 62
7
  6
BYLAYER
 10
23.6860260964
 20
113.1472560127
 11
23.9448823321
 21
114.1131719829
  0
LINE
  5
227
100
AcDbEntity
  8
0
100
AcDbLine
 62
7
  6
BYLAYER
 10
23.9449141188
 20
112.0426109967
 11
24.2037331636
 21
113.0085368221
  0
LINE
  5
228
100
AcDbEntity
  8
0
100
AcDbLine
 62
7
  6
BYLAYER
 10
29.2037331754
 20
111.6687908568
 11
28.9449141305
 21
110.7028650314
  0
LINE
  5
229
100
AcDbEntity
  8
0
100
AcDbLine
 62
7
  6
BYLAYER
 10
23.4272733801
 20
181.4769073749
 11
23.9449141944
 21
181.6849590509
  0
LINE
  5
22A
100
AcDbEntity
  8
0
100
AcDbLine
 62
7
  6
BYLAYER
 10
35.4449141303
 20
78.3637855579
 11
82.4449141303
 21
78.3637855579
  0
LINE
  5
22B
100
AcDbEntity
  8
0
100
AcDbLine
 62
7
  6
BYLAYER
 10
94.4449141303
 20
78.3637855579
 11
141.4449141303
 21
78.3637855579
  0
LINE
  5
22C
100
AcDbEntity
  8
0
100
AcDbLine
 62
7
  6
BYLAYER
 10
141.4449141303
 20
78.8637855579
 11
93.9449141303
 21
78.8637855579
  0
LINE
  5
22D
100
AcDbEntity
  8
0
100
AcDbLine
 62
7
  6
BYLAYER
 10
82.9449141303
 20
78.8637855579
 11
35.4449141303
 21
78.8637855579
  0
LINE
  5
22E
100
AcDbEntity
  8
0
100
AcDbLine
 62
7
  6
BYLAYER
 10
23.9449141253
 20
112.0426109952
 11
23.4272658753
 21
112.2506649495
  0
LINE
  5
22F
100
AcDbEntity
  8
0
100
AcDbLine
 62
7
  6
BYLAYER
 10
23.9449382496
 20
179.6144142251
 11
23.6860345212
 21
180.5803173606
  0
LINE
  5
230
100
AcDbEntity
  8
0
100
AcDbLine
 62
7
  6
BYLAYER
 10
24.2037331754
 20
180.7190342969
 11
23.9449142654
 21
181.6849596189
  0
LINE
  5
231
100
AcDbEntity
  8
0
100
AcDbLine
 62
7
  6
BYLAYER
 10
28.9449142654
 20
183.0247055811
 11
29.2037331754
 21
182.0587802591
  0
LINE
  5
232
100
AcDbEntity
  8
0
100
AcDbLine
 62
7
  6
BYLAYER
 10
45.1949141303
 20
86.8637855579
 11
45.1949141303
 21
93.8637855579
  0
LINE
  5
233
100
AcDbEntity
  8
0
100
AcDbLine
 62
7
  6
BYLAYER
 10
45.1949141303
 20
199.8637855579
 11
45.1949141303
 21
206.8637855579
  0
LINE
  5
234
100
AcDbEntity
  8
0
100
AcDbLine
 62
7
  6
BYLAYER
 10
94.4449141303
 20
215.3637855579
 11
91.6949141303
 21
212.6137855579
  0
LINE
  5
235
100
AcDbEntity
  8
0
100
AcDbLine
 62
7
  6
BYLAYER
 10
141.4449141303
 20
85.8637855579
 11
185.4449141303
 21
85.8637855579
  0
LINE
  5
236
100
AcDbEntity
  8
0
100
AcDbLine
 62
7
  6
BYLAYER
 10
45.4748003365
 20
86.0137855579
 11
45.5949141303
 21
86.0137855579
  0
LINE
  5
237
100
AcDbEntity
  8
0
100
AcDbLine
 62
7
  6
BYLAYER
 10
131.2949141303
 20
86.0137855579
 11
131.41719545
 21
86.0137855579
  0
LINE
  5
238
100
AcDbEntity
  8
0
100
AcDbLine
 62
7
  6
BYLAYER
 10
45.6949141303
 20
88.6637855579
 11
51.6949141303
 21
88.6637855579
  0
LINE
  5
239
100
AcDbEntity
  8
0
100
AcDbLine
 62
7
  6
BYLAYER
 10
85.1949141303
 20
88.6637855579
 11
91.6949141303
 21
88.6637855579
  0
LINE
  5
23A
100
AcDbEntity
  8
0
100
AcDbLine
 62
7
  6
BYLAYER
 10
125.1949141303
 20
88.6637855579
 11
131.1949141303
 21
88.6637855579
  0
LINE
  5
23B
100
AcDbEntity
  8
0
100
AcDbLine
 62
7
  6
BYLAYER
 10
23.9449141303
 20
90.8637855579
 11
35.4449141303
 21
90.8637855579
  0
LINE
  5
23C
100
AcDbEntity
  8
0
100
AcDbLine
 62
7
  6
BYLAYER
 10
45.1949141303
 20
91.3637855579
 11
51.6949141303
 21
91.3637855579
  0
LINE
  5
23D
100
AcDbEntity
  8
0
100
AcDbLine
 62
7
  6
BYLAYER
 10
85.1949141303
 20
91.3637855579
 11
91.6949141303
 21
91.3637855579
  0
LINE
  5
23E
100
AcDbEntity
  8
0
100
AcDbLine
 62
7
  6
BYLAYER
 10
125.1949141303
 20
91.3637855579
 11
131.6949141303
 21
91.3637855579
  0
LINE
  5
23F
100
AcDbEntity
  8
0
100
AcDbLine
 62
7
  6
BYLAYER
 10
28.9449141303
 20
110.7028650305
 11
23.9449141203
 21
112.0426109972
  0
LINE
  5
240
100
AcDbEntity
  8
0
100
AcDbLine
 62
7
  6
BYLAYER
 10
91.6949141303
 20
81.1137855579
 11
94.4449141303
 21
78.3637855579
  0
LINE
  5
241
100
AcDbEntity
  8
0
100
AcDbLine
 62
7
  6
BYLAYER
 10
51.6949141303
 20
206.8637855579
 11
51.6949141303
 21
199.8637855579
  0
LINE
  5
242
100
AcDbEntity
  8
0
100
AcDbLine
 62
7
  6
BYLAYER
 10
51.6949141303
 20
93.8637855579
 11
51.6949141303
 21
86.8637855579
  0
LINE
  5
243
100
AcDbEntity
  8
0
100
AcDbLine
 62
7
  6
BYLAYER
 10
167.8840856511
 20
93.8637855579
 11
141.4449141303
 21
93.8637855579
  0
LINE
  5
244
100
AcDbEntity
  8
0
100
AcDbLine
 62
7
  6
BYLAYER
 10
45.3582780598
 20
94.3637855579
 11
51.5302751854
 21
94.3637855579
  0
LINE
  5
245
100
AcDbEntity
  8
0
100
AcDbLine
 62
7
  6
BYLAYER
 10
85.3582780598
 20
94.3637855579
 11
91.5302751854
 21
94.3637855579
  0
LINE
  5
246
100
AcDbEntity
  8
0
100
AcDbLine
 62
7
  6
BYLAYER
 10
125.3582780598
 20
94.3637855579
 11
131.5302751854
 21
94.3637855579
  0
LINE
  5
247
100
AcDbEntity
  8
0
100
AcDbLine
 62
7
  6
BYLAYER
 10
131.4381684167
 20
94.643509073
 11
125.4496715251
 21
94.643509073
  0
LINE
  5
248
100
AcDbEntity
  8
0
100
AcDbLine
 62
7
  6
BYLAYER
 10
91.4381684167
 20
94.643509073
 11
85.4496715251
 21
94.643509073
  0
LINE
  5
249
100
AcDbEntity
  8
0
100
AcDbLine
 62
7
  6
BYLAYER
 10
51.4381684167
 20
94.643509073
 11
45.4496715251
 21
94.643509073
  0
LINE
  5
24A
100
AcDbEntity
  8
0
100
AcDbLine
 62
7
  6
BYLAYER
 10
131.3899467862
 20
94.7899556824
 11
125.4975197122
 21
94.7899556824
  0
LINE
  5
24B
100
AcDbEntity
  8
0
100
AcDbLine
 62
7
  6
BYLAYER
 10
91.3899467862
 20
94.7899556824
 11
85.4975197122
 21
94.7899556824
  0
LINE
  5
24C
100
AcDbEntity
  8
0
100
AcDbLine
 62
7
  6
BYLAYER
 10
51.3899467862
 20
94.7899556824
 11
45.4975197122
 21
94.7899556824
  0
LINE
  5
24D
100
AcDbEntity
  8
0
100
AcDbLine
 62
7
  6
BYLAYER
 10
46.8088867106
 20
96.4998245272
 11
50.0756095055
 21
96.4998245272
  0
LINE
  5
24E
100
AcDbEntity
  8
0
100
AcDbLine
 62
7
  6
BYLAYER
 10
86.8088867106
 20
96.4998245272
 11
90.0756095055
 21
96.4998245272
  0
LINE
  5
24F
100
AcDbEntity
  8
0
100
AcDbLine
 62
7
  6
BYLAYER
 10
126.8088867106
 20
96.4998245272
 11
130.0756095055
 21
96.4998245272
  0
LINE
  5
250
100
AcDbEntity
  8
0
100
AcDbLine
 62
7
  6
BYLAYER
 10
35.4449141303
 20
98.8637855585
 11
21.9449141303
 21
98.8637855604
  0
LINE
  5
251
100
AcDbEntity
  8
0
100
AcDbLine
 62
7
  6
BYLAYER
 10
23.4272780545
 20
113.2165873415
 11
29.2037331754
 21
111.6687908568
  0
LINE
  5
252
100
AcDbEntity
  8
0
100
AcDbLine
 62
7
  6
BYLAYER
 10
23.9449141916
 20
114.1131633351
 11
28.9449140752
 21
112.7734176264
  0
LINE
  5
253
100
AcDbEntity
  8
0
100
AcDbLine
 62
7
  6
BYLAYER
 10
58.4449141303
 20
78.3637855579
 11
58.4449141303
 21
61.8637855579
  0
LINE
  5
254
100
AcDbEntity
  8
0
100
AcDbLine
 62
7
  6
BYLAYER
 10
58.4449141303
 20
215.3637855579
 11
58.4449141303
 21
231.8637855579
  0
LINE
  5
255
100
AcDbEntity
  8
0
100
AcDbLine
 62
7
  6
BYLAYER
 10
23.9449141727
 20
114.1131637128
 11
23.4272951596
 21
114.1825103447
  0
LINE
  5
256
100
AcDbEntity
  8
0
100
AcDbLine
 62
7
  6
BYLAYER
 10
141.4449141303
 20
108.6104534582
 11
167.8840856511
 21
108.6104534582
  0
LINE
  5
257
100
AcDbEntity
  8
0
100
AcDbLine
 62
7
  6
BYLAYER
 10
30.9449141303
 20
108.6137855579
 11
35.4449141303
 21
108.6137855579
  0
LINE
  5
258
100
AcDbEntity
  8
0
100
AcDbLine
 62
7
  6
BYLAYER
 10
30.9449141303
 20
109.6137855579
 11
35.4449141303
 21
109.6137855579
  0
LINE
  5
259
100
AcDbEntity
  8
0
100
AcDbLine
 62
7
  6
BYLAYER
 10
29.9449141303
 20
110.6137855579
 11
28.9449141303
 21
110.6137855579
  0
LINE
  5
25A
100
AcDbEntity
  8
0
100
AcDbLine
 62
7
  6
BYLAYER
 10
28.9449141303
 20
110.7028650305
 11
29.9449141303
 21
110.7028650305
  0
LINE
  5
25B
100
AcDbEntity
  8
0
100
AcDbLine
 62
7
  6
BYLAYER
 10
35.4449141303
 20
111.6137855577
 11
29.9449141303
 21
111.6137855579
  0
LINE
  5
25C
100
AcDbEntity
  8
0
100
AcDbLine
 62
7
  6
BYLAYER
 10
29.9449141303
 20
112.7734173913
 11
28.9449141303
 21
112.7734173913
  0
LINE
  5
25D
100
AcDbEntity
  8
0
100
AcDbLine
 62
7
  6
BYLAYER
 10
35.4449141303
 20
112.9977601541
 11
141.4449141303
 21
112.9977601541
  0
LINE
  5
25E
100
AcDbEntity
  8
0
100
AcDbLine
 62
7
  6
BYLAYER
 10
141.4449141303
 20
113.1137855579
 11
169.2594361007
 21
113.1137855579
  0
LINE
  5
25F
100
AcDbEntity
  8
0
100
AcDbLine
 62
7
  6
BYLAYER
 10
35.4449141303
 20
113.8637855579
 11
141.4449141303
 21
113.8637855579
  0
LINE
  5
260
100
AcDbEntity
  8
0
100
AcDbLine
 62
7
  6
BYLAYER
 10
78.4449141303
 20
61.8637855579
 11
78.4449141303
 21
78.3637855579
  0
LINE
  5
261
100
AcDbEntity
  8
0
100
AcDbLine
 62
7
  6
BYLAYER
 10
78.4449141303
 20
215.3637855579
 11
78.4449141303
 21
231.8637855579
  0
LINE
  5
262
100
AcDbEntity
  8
0
100
AcDbLine
 62
7
  6
BYLAYER
 10
128.6449141303
 20
205.0637855579
 11
131.3852743136
 21
207.8041457412
  0
LINE
  5
263
100
AcDbEntity
  8
0
100
AcDbLine
 62
7
  6
BYLAYER
 10
131.3870817281
 20
85.9216179601
 11
128.6449141303
 21
88.6637855579
  0
LINE
  5
264
100
AcDbEntity
  8
0
100
AcDbLine
 62
7
  6
BYLAYER
 10
85.1949141303
 20
81.1137855579
 11
85.1949141303
 21
93.8637855579
  0
LINE
  5
265
100
AcDbEntity
  8
0
100
AcDbLine
 62
7
  6
BYLAYER
 10
85.1949141303
 20
199.8637855579
 11
85.1949141303
 21
212.6137855579
  0
LINE
  5
266
100
AcDbEntity
  8
0
100
AcDbLine
 62
7
  6
BYLAYER
 10
91.6949141303
 20
212.6137855579
 11
91.6949141303
 21
199.8637855579
  0
LINE
  5
267
100
AcDbEntity
  8
0
100
AcDbLine
 62
7
  6
BYLAYER
 10
91.6949141303
 20
93.8637855579
 11
91.6949141303
 21
81.1137855579
  0
LINE
  5
268
100
AcDbEntity
  8
0
100
AcDbLine
 62
7
  6
BYLAYER
 10
172.6449141303
 20
136.8637855579
 11
183.1449141303
 21
136.8637855579
  0
LINE
  5
269
100
AcDbEntity
  8
0
100
AcDbLine
 62
7
  6
BYLAYER
 10
98.4449141303
 20
231.8637855579
 11
98.4449141303
 21
215.3637855579
  0
LINE
  5
26A
100
AcDbEntity
  8
0
100
AcDbLine
 62
7
  6
BYLAYER
 10
98.4449141303
 20
78.3637855579
 11
98.4449141303
 21
61.8637855579
  0
LINE
  5
26B
100
AcDbEntity
  8
0
100
AcDbLine
 62
7
  6
BYLAYER
 10
141.4449141303
 20
140.8637855579
 11
169.7884170428
 21
140.8637855579
  0
LINE
  5
26C
100
AcDbEntity
  8
0
100
AcDbLine
 62
7
  6
BYLAYER
 10
48.2449141303
 20
88.6637855579
 11
45.504553947
 21
85.9234253746
  0
LINE
  5
26D
100
AcDbEntity
  8
0
100
AcDbLine
 62
7
  6
BYLAYER
 10
141.4449141303
 20
152.8637855579
 11
169.7884170428
 21
152.8637855579
  0
LINE
  5
26E
100
AcDbEntity
  8
0
100
AcDbLine
 62
7
  6
BYLAYER
 10
45.5027465324
 20
207.8059531558
 11
48.2449141303
 21
205.0637855579
  0
LINE
  5
26F
100
AcDbEntity
  8
0
100
AcDbLine
 62
7
  6
BYLAYER
 10
118.4449141303
 20
78.3637855579
 11
118.4449141303
 21
61.8637855579
  0
LINE
  5
270
100
AcDbEntity
  8
0
100
AcDbLine
 62
7
  6
BYLAYER
 10
118.4449141303
 20
215.3637855579
 11
118.4449141303
 21
231.8637855579
  0
LINE
  5
271
100
AcDbEntity
  8
0
100
AcDbLine
 62
7
  6
BYLAYER
 10
183.1449141303
 20
156.8637855579
 11
172.6449141303
 21
156.8637855579
  0
LINE
  5
272
100
AcDbEntity
  8
0
100
AcDbLine
 62
7
  6
BYLAYER
 10
125.1949141303
 20
86.8637855579
 11
125.1949141303
 21
93.8637855579
  0
LINE
  5
273
100
AcDbEntity
  8
0
100
AcDbLine
 62
7
  6
BYLAYER
 10
125.1949141303
 20
199.8637855579
 11
125.1949141303
 21
206.8637855579
  0
LINE
  5
274
100
AcDbEntity
  8
0
100
AcDbLine
 62
7
  6
BYLAYER
 10
131.6949141303
 20
206.8637855579
 11
131.6949141303
 21
199.8637855579
  0
LINE
  5
275
100
AcDbEntity
  8
0
100
AcDbLine
 62
7
  6
BYLAYER
 10
131.6949141303
 20
93.8637855579
 11
131.6949141303
 21
86.8637855579
  0
LINE
  5
276
100
AcDbEntity
  8
0
100
AcDbLine
 62
7
  6
BYLAYER
 10
153.1449141303
 20
175.7087292323
 11
169.2594361007
 21
175.7087292323
  0
LINE
  5
277
100
AcDbEntity
  8
0
100
AcDbLine
 62
7
  6
BYLAYER
 10
169.4357630814
 20
176.7087292323
 11
153.1449141303
 21
176.7087292323
  0
LINE
  5
278
100
AcDbEntity
  8
0
100
AcDbLine
 62
7
  6
BYLAYER
 10
138.4449141303
 20
231.8637855579
 11
138.4449141303
 21
215.3637855579
  0
LINE
  5
279
100
AcDbEntity
  8
0
100
AcDbLine
 62
7
  6
BYLAYER
 10
138.4449141303
 20
61.8637855579
 11
138.4449141303
 21
78.3637855579
  0
LINE
  5
27A
100
AcDbEntity
  8
0
100
AcDbLine
 62
7
  6
BYLAYER
 10
141.4449141303
 20
78.3637855579
 11
141.4449141303
 21
215.3637855579
  0
LINE
  5
27B
100
AcDbEntity
  8
0
100
AcDbLine
 62
7
  6
BYLAYER
 10
82.4449141303
 20
78.3637855579
 11
85.1949141303
 21
81.1137855579
  0
LINE
  5
27C
100
AcDbEntity
  8
0
100
AcDbLine
 62
7
  6
BYLAYER
 10
35.4449141303
 20
179.8637855579
 11
141.4449141303
 21
179.8637855579
  0
LINE
  5
27D
100
AcDbEntity
  8
0
100
AcDbLine
 62
7
  6
BYLAYER
 10
141.4449141303
 20
180.6137855579
 11
153.1449141303
 21
180.6137855579
  0
LINE
  5
27E
100
AcDbEntity
  8
0
100
AcDbLine
 62
7
  6
BYLAYER
 10
35.4449141303
 20
180.7298109617
 11
141.4449141303
 21
180.7298109617
  0
LINE
  5
27F
100
AcDbEntity
  8
0
100
AcDbLine
 62
7
  6
BYLAYER
 10
28.9449141303
 20
180.9541537245
 11
29.9449141303
 21
180.9541537245
  0
LINE
  5
280
100
AcDbEntity
  8
0
100
AcDbLine
 62
7
  6
BYLAYER
 10
153.1449141303
 20
182.0584599967
 11
168.8654686684
 21
182.0584599967
  0
LINE
  5
281
100
AcDbEntity
  8
0
100
AcDbLine
 62
7
  6
BYLAYER
 10
29.9449141303
 20
182.1137854978
 11
35.4449141303
 21
182.1137855558
  0
LINE
  5
282
100
AcDbEntity
  8
0
100
AcDbLine
 62
7
  6
BYLAYER
 10
168.7773051781
 20
182.1924345929
 11
153.1449141303
 21
182.1924345929
  0
LINE
  5
283
100
AcDbEntity
  8
0
100
AcDbLine
 62
7
  6
BYLAYER
 10
29.9449141303
 20
183.0247060853
 11
28.9449141303
 21
183.0247060853
  0
LINE
  5
284
100
AcDbEntity
  8
0
100
AcDbLine
 62
7
  6
BYLAYER
 10
28.9449141303
 20
183.1137855579
 11
29.9449141303
 21
183.1137855579
  0
LINE
  5
285
100
AcDbEntity
  8
0
100
AcDbLine
 62
7
  6
BYLAYER
 10
35.4449141303
 20
184.1137855579
 11
30.9449141303
 21
184.1137855579
  0
LINE
  5
286
100
AcDbEntity
  8
0
100
AcDbLine
 62
7
  6
BYLAYER
 10
35.4449141303
 20
185.1137855579
 11
30.9449141303
 21
185.1137855579
  0
LINE
  5
287
100
AcDbEntity
  8
0
100
AcDbLine
 62
7
  6
BYLAYER
 10
141.4449141303
 20
185.1171176576
 11
167.8840856511
 21
185.1171176576
  0
LINE
  5
288
100
AcDbEntity
  8
0
100
AcDbLine
 62
7
  6
BYLAYER
 10
85.1949141303
 20
212.6137855579
 11
82.4449141303
 21
215.3637855579
  0
LINE
  5
289
100
AcDbEntity
  8
0
100
AcDbLine
 62
7
  6
BYLAYER
 10
23.9449141727
 20
179.6144076957
 11
23.4272938705
 21
179.5450619156
  0
LINE
  5
28A
100
AcDbEntity
  8
0
100
AcDbLine
 62
7
  6
BYLAYER
 10
172.6449141303
 20
187.9723572733
 11
169.131875437
 21
187.9723572733
  0
LINE
  5
28B
100
AcDbEntity
  8
0
100
AcDbLine
 62
7
  6
BYLAYER
 10
172.2928412277
 20
194.4488240964
 11
170.0717469063
 21
194.4488240964
  0
LINE
  5
28C
100
AcDbEntity
  8
0
100
AcDbLine
 62
7
  6
BYLAYER
 10
21.9449141303
 20
194.8637855826
 11
35.4449141303
 21
194.8637855596
  0
LINE
  5
28D
100
AcDbEntity
  8
0
100
AcDbLine
 62
7
  6
BYLAYER
 10
153.1449141303
 20
175.7087292323
 11
153.1449141303
 21
182.1924345929
  0
LINE
  5
28E
100
AcDbEntity
  8
0
100
AcDbLine
 62
7
  6
BYLAYER
 10
28.9449141303
 20
180.9541537245
 11
23.9449141538
 21
179.6144077716
  0
LINE
  5
28F
100
AcDbEntity
  8
0
100
AcDbLine
 62
7
  6
BYLAYER
 10
23.4272804404
 20
180.5109844136
 11
29.2037331755
 21
182.0587802591
  0
LINE
  5
290
100
AcDbEntity
  8
0
100
AcDbLine
 62
7
  6
BYLAYER
 10
23.9449142585
 20
181.6849590766
 11
28.9449141303
 21
183.0247060853
  0
LINE
  5
291
100
AcDbEntity
  8
0
100
AcDbLine
 62
7
  6
BYLAYER
 10
46.8142187551
 20
197.2277465886
 11
50.08094155
 21
197.2277465886
  0
LINE
  5
292
100
AcDbEntity
  8
0
100
AcDbLine
 62
7
  6
BYLAYER
 10
86.8142187551
 20
197.2277465886
 11
90.08094155
 21
197.2277465886
  0
LINE
  5
293
100
AcDbEntity
  8
0
100
AcDbLine
 62
7
  6
BYLAYER
 10
126.8142187551
 20
197.2277465886
 11
130.08094155
 21
197.2277465886
  0
LINE
  5
294
100
AcDbEntity
  8
0
100
AcDbLine
 62
7
  6
BYLAYER
 10
45.4998814744
 20
198.9376154334
 11
51.3923085483
 21
198.9376154334
  0
LINE
  5
295
100
AcDbEntity
  8
0
100
AcDbLine
 62
7
  6
BYLAYER
 10
85.4998814744
 20
198.9376154334
 11
91.3923085483
 21
198.9376154334
  0
LINE
  5
296
100
AcDbEntity
  8
0
100
AcDbLine
 62
7
  6
BYLAYER
 10
125.4998814744
 20
198.9376154334
 11
131.3923085483
 21
198.9376154334
  0
LINE
  5
297
100
AcDbEntity
  8
0
100
AcDbLine
 62
7
  6
BYLAYER
 10
45.4516598439
 20
199.0840620428
 11
51.4401567355
 21
199.0840620428
  0
LINE
  5
298
100
AcDbEntity
  8
0
100
AcDbLine
 62
7
  6
BYLAYER
 10
85.4516598439
 20
199.0840620428
 11
91.4401567355
 21
199.0840620428
  0
LINE
  5
299
100
AcDbEntity
  8
0
100
AcDbLine
 62
7
  6
BYLAYER
 10
125.4516598439
 20
199.0840620428
 11
131.4401567355
 21
199.0840620428
  0
LINE
  5
29A
100
AcDbEntity
  8
0
100
AcDbLine
 62
7
  6
BYLAYER
 10
45.3595530751
 20
199.3637855579
 11
51.5315502007
 21
199.3637855579
  0
LINE
  5
29B
100
AcDbEntity
  8
0
100
AcDbLine
 62
7
  6
BYLAYER
 10
85.3595530751
 20
199.3637855579
 11
91.5315502007
 21
199.3637855579
  0
LINE
  5
29C
100
AcDbEntity
  8
0
100
AcDbLine
 62
7
  6
BYLAYER
 10
125.3595530751
 20
199.3637855579
 11
131.5315502007
 21
199.3637855579
  0
LINE
  5
29D
100
AcDbEntity
  8
0
100
AcDbLine
 62
7
  6
BYLAYER
 10
141.4449141303
 20
199.8637855579
 11
167.8840856511
 21
199.8637855579
  0
LINE
  5
29E
100
AcDbEntity
  8
0
100
AcDbLine
 62
7
  6
BYLAYER
 10
45.1949141303
 20
202.3637855579
 11
51.6949141303
 21
202.3637855579
  0
LINE
  5
29F
100
AcDbEntity
  8
0
100
AcDbLine
 62
7
  6
BYLAYER
 10
85.1949141303
 20
202.3637855579
 11
91.6949141303
 21
202.3637855579
  0
LINE
  5
2A0
100
AcDbEntity
  8
0
100
AcDbLine
 62
7
  6
BYLAYER
 10
125.1949141303
 20
202.3637855579
 11
131.6949141303
 21
202.3637855579
  0
LINE
  5
2A1
100
AcDbEntity
  8
0
100
AcDbLine
 62
7
  6
BYLAYER
 10
35.4449141303
 20
202.8637855579
 11
23.9449141303
 21
202.8637855579
  0
LINE
  5
2A2
100
AcDbEntity
  8
0
100
AcDbLine
 62
7
  6
BYLAYER
 10
171.146134731
 20
196.3636079312
 11
171.1456762439
 21
196.363613074
  0
LINE
  5
2A3
100
AcDbEntity
  8
0
100
AcDbLine
 62
7
  6
BYLAYER
 10
131.1949141303
 20
205.0637855579
 11
125.1949141303
 21
205.0637855579
  0
LINE
  5
2A4
100
AcDbEntity
  8
0
100
AcDbLine
 62
7
  6
BYLAYER
 10
91.6949141303
 20
205.0637855579
 11
85.1949141303
 21
205.0637855579
  0
LINE
  5
2A5
100
AcDbEntity
  8
0
100
AcDbLine
 62
7
  6
BYLAYER
 10
51.6949141303
 20
205.0637855579
 11
45.6949141303
 21
205.0637855579
  0
LINE
  5
2A6
100
AcDbEntity
  8
0
100
AcDbLine
 62
7
  6
BYLAYER
 10
45.4726328105
 20
207.7137855579
 11
45.5949141303
 21
207.7137855579
  0
LINE
  5
2A7
100
AcDbEntity
  8
0
100
AcDbLine
 62
7
  6
BYLAYER
 10
131.2949141303
 20
207.7137855579
 11
131.415027924
 21
207.7137855579
  0
LINE
  5
2A8
100
AcDbEntity
  8
0
100
AcDbLine
 62
7
  6
BYLAYER
 10
141.4449141303
 20
207.8637855579
 11
185.4449141303
 21
207.8637855579
  0
LINE
  5
2A9
100
AcDbEntity
  8
0
100
AcDbLine
 62
7
  6
BYLAYER
 10
167.8840856511
 20
93.8637855579
 11
167.8840856511
 21
108.6104534582
  0
LINE
  5
2AA
100
AcDbEntity
  8
0
100
AcDbLine
 62
7
  6
BYLAYER
 10
167.8840856511
 20
185.1171176576
 11
167.8840856511
 21
199.8637855579
  0
LINE
  5
2AB
100
AcDbEntity
  8
0
100
AcDbLine
 62
7
  6
BYLAYER
 10
169.2594361007
 20
175.7087292323
 11
169.2594361007
 21
152.8637855579
  0
LINE
  5
2AC
100
AcDbEntity
  8
0
100
AcDbLine
 62
7
  6
BYLAYER
 10
169.2594361007
 20
140.8637855579
 11
169.2594361007
 21
113.1137855579
  0
LINE
  5
2AD
100
AcDbEntity
  8
0
100
AcDbLine
 62
7
  6
BYLAYER
 10
169.7884170428
 20
152.8637855579
 11
169.7884170428
 21
140.8637855579
  0
LINE
  5
2AE
100
AcDbEntity
  8
0
100
AcDbLine
 62
7
  6
BYLAYER
 10
172.6449141303
 20
85.8637855579
 11
172.6449141303
 21
207.8637855579
  0
LINE
  5
2AF
100
AcDbEntity
  8
0
100
AcDbLine
 62
7
  6
BYLAYER
 10
35.4449141303
 20
214.8637855579
 11
82.9449141303
 21
214.8637855579
  0
LINE
  5
2B0
100
AcDbEntity
  8
0
100
AcDbLine
 62
7
  6
BYLAYER
 10
93.9449141303
 20
214.8637855579
 11
141.4449141303
 21
214.8637855579
  0
LINE
  5
2B1
100
AcDbEntity
  8
0
100
AcDbLine
 62
7
  6
BYLAYER
 10
141.4449141303
 20
215.3637855579
 11
94.4449141303
 21
215.3637855579
  0
LINE
  5
2B2
100
AcDbEntity
  8
0
100
AcDbLine
 62
7
  6
BYLAYER
 10
82.4449141303
 20
215.3637855579
 11
35.4449141303
 21
215.3637855579
  0
LINE
  5
2B3
100
AcDbEntity
  8
0
100
AcDbLine
 62
7
  6
BYLAYER
 10
183.1449141303
 20
85.8637855579
 11
183.1449141303
 21
136.8637855579
  0
LINE
  5
2B4
100
AcDbEntity
  8
0
100
AcDbLine
 62
7
  6
BYLAYER
 10
183.1449141303
 20
156.8637855579
 11
183.1449141303
 21
207.8637855579
  0
LINE
  5
2B5
100
AcDbEntity
  8
0
100
AcDbLine
 62
7
  6
BYLAYER
 10
169.2594361007
 20
113.1137855579
 11
167.8840856511
 21
108.6104534582
  0
LINE
  5
2B6
100
AcDbEntity
  8
0
100
AcDbLine
 62
7
  6
BYLAYER
 10
168.865468347
 20
182.0588162604
 11
168.7773051781
 21
182.1924345929
  0
LINE
  5
2B7
100
AcDbEntity
  8
0
100
AcDbLine
 62
7
  6
BYLAYER
 10
169.4357631001
 20
176.7086898189
 11
169.5673301362
 21
176.3745027958
  0
LINE
  5
2B8
100
AcDbEntity
  8
0
100
AcDbLine
 62
7
  6
BYLAYER
 10
167.8840856511
 20
185.1171176576
 11
168.7773051781
 21
182.1924345929
  0
LINE
  5
2B9
100
AcDbEntity
  8
0
100
AcDbLine
 62
7
  6
BYLAYER
 10
185.4449141303
 20
85.8637855579
 11
185.4449141303
 21
207.8637855579
  0
LINE
  5
2BA
100
AcDbEntity
  8
0
100
AcDbLine
 62
7
  6
BYLAYER
 10
58.4449141303
 20
231.8637855579
 11
38.4449141303
 21
231.8637855579
  0
LINE
  5
2BB
100
AcDbEntity
  8
0
100
AcDbLine
 62
7
  6
BYLAYER
 10
78.4449141303
 20
231.8637855579
 11
98.4449141303
 21
231.8637855579
  0
LINE
  5
2BC
100
AcDbEntity
  8
0
100
AcDbLine
 62
7
  6
BYLAYER
 10
118.4449141303
 20
231.8637855579
 11
138.4449141303
 21
231.8637855579
  0
CIRCLE
  5
2BD
100
AcDbEntity
  8
0
100
AcDbCircle
 62
7
  6
BYLAYER
 10
48.4449141303
 20
71.8637855579
 40
4.5
  0
ARC
  5
2BE
100
AcDbEntity
  8
0
100
AcDbCircle
 62
7
  6
BYLAYER
 10
48.4449141303
 20
86.8637855579
 40
3.25
100
AcDbArc
 50
180.0
 51
360.0
  0
ARC
  5
2BF
100
AcDbEntity
  8
0
100
AcDbCircle
 62
7
  6
BYLAYER
 10
48.4449141303
 20
93.8637855579
 40
3.25
100
AcDbArc
 50
0.0
 51
180.0
  0
ARC
  5
2C0
100
AcDbEntity
  8
0
100
AcDbCircle
 62
7
  6
BYLAYER
 10
45.6949141303
 20
86.1637855579
 40
2.5
100
AcDbArc
 50
90.0
 51
100.3475279086
  0
ARC
  5
2C1
100
AcDbEntity
  8
0
100
AcDbCircle
 62
7
  6
BYLAYER
 10
23.9449141303
 20
115.1484395339
 40
2.0
100
AcDbArc
 50
180.0
 51
254.999824681
  0
ARC
  5
2C2
100
AcDbEntity
  8
0
100
AcDbCircle
 62
7
  6
BYLAYER
 10
23.9449141303
 20
92.8637855579
 40
2.0
100
AcDbArc
 50
180.0
 51
270.0
  0
ARC
  5
2C3
100
AcDbEntity
  8
0
100
AcDbCircle
 62
7
  6
BYLAYER
 10
30.9449141303
 20
110.6137855579
 40
2.0
100
AcDbArc
 50
180.0
 51
270.0
  0
ARC
  5
2C4
100
AcDbEntity
  8
0
100
AcDbCircle
 62
7
  6
BYLAYER
 10
30.9449141303
 20
110.6137855579
 40
1.0
100
AcDbArc
 50
180.0000000016
 51
269.9999999987
  0
ARC
  5
2C5
100
AcDbEntity
  8
0
100
AcDbCircle
 62
7
  6
BYLAYER
 10
28.9449141303
 20
110.7028650305
 40
1.0
100
AcDbArc
 50
0.0
 51
75.0
  0
CIRCLE
  5
2C6
100
AcDbEntity
  8
0
100
AcDbCircle
 62
7
  6
BYLAYER
 10
48.4449141303
 20
221.8637855579
 40
4.5
  0
ARC
  5
2C7
100
AcDbEntity
  8
0
100
AcDbCircle
 62
7
  6
BYLAYER
 10
48.4449141303
 20
199.8637855579
 40
3.25
100
AcDbArc
 50
180.0
 51
360.0
  0
ARC
  5
2C8
100
AcDbEntity
  8
0
100
AcDbCircle
 62
7
  6
BYLAYER
 10
48.4449141303
 20
206.8637855579
 40
3.25
100
AcDbArc
 50
0.0
 51
180.0
  0
ARC
  5
2C9
100
AcDbEntity
  8
0
100
AcDbCircle
 62
7
  6
BYLAYER
 10
45.6949141303
 20
207.5637855579
 40
2.5
100
AcDbArc
 50
259.6518668055
 51
270.0
  0
ARC
  5
2CA
100
AcDbEntity
  8
0
100
AcDbCircle
 62
7
  6
BYLAYER
 10
23.9449141303
 20
200.8637855579
 40
2.0
100
AcDbArc
 50
90.0
 51
180.0
  0
ARC
  5
2CB
100
AcDbEntity
  8
0
100
AcDbCircle
 62
7
  6
BYLAYER
 10
23.9449141303
 20
178.579131582
 40
2.0
100
AcDbArc
 50
104.9999376553
 51
180.0
  0
ARC
  5
2CC
100
AcDbEntity
  8
0
100
AcDbCircle
 62
7
  6
BYLAYER
 10
30.9449141303
 20
183.1137855579
 40
2.0
100
AcDbArc
 50
90.0
 51
180.0
  0
ARC
  5
2CD
100
AcDbEntity
  8
0
100
AcDbCircle
 62
7
  6
BYLAYER
 10
30.9449141303
 20
183.1137855579
 40
1.0
100
AcDbArc
 50
90.0
 51
180.0
  0
ARC
  5
2CE
100
AcDbEntity
  8
0
100
AcDbCircle
 62
7
  6
BYLAYER
 10
28.9449141303
 20
183.0247060853
 40
1.0
100
AcDbArc
 50
285.0
 51
0.0000000959
  0
CIRCLE
  5
2CF
100
AcDbEntity
  8
0
100
AcDbCircle
 62
7
  6
BYLAYER
 10
88.4449141303
 20
71.8637855579
 40
4.5
  0
CIRCLE
  5
2D0
100
AcDbEntity
  8
0
100
AcDbCircle
 62
7
  6
BYLAYER
 10
128.4449141303
 20
71.8637855579
 40
4.5
  0
ARC
  5
2D1
100
AcDbEntity
  8
0
100
AcDbCircle
 62
7
  6
BYLAYER
 10
128.4449141303
 20
86.8637855579
 40
3.25
100
AcDbArc
 50
180.0
 51
360.0
  0
ARC
  5
2D2
100
AcDbEntity
  8
0
100
AcDbCircle
 62
7
  6
BYLAYER
 10
128.4449141303
 20
93.8637855579
 40
3.25
100
AcDbArc
 50
0.0
 51
180.0
  0
ARC
  5
2D3
100
AcDbEntity
  8
0
100
AcDbCircle
 62
7
  6
BYLAYER
 10
88.4449141303
 20
93.8637855579
 40
3.25
100
AcDbArc
 50
0.0
 51
180.0
  0
ARC
  5
2D4
100
AcDbEntity
  8
0
100
AcDbCircle
 62
7
  6
BYLAYER
 10
131.1949141303
 20
86.1637855579
 40
2.5
100
AcDbArc
 50
79.6518668055
 51
90.0
  0
CIRCLE
  5
2D5
100
AcDbEntity
  8
0
100
AcDbCircle
 62
7
  6
BYLAYER
 10
128.4449141303
 20
221.8637855579
 40
4.5
  0
CIRCLE
  5
2D6
100
AcDbEntity
  8
0
100
AcDbCircle
 62
7
  6
BYLAYER
 10
88.4449141303
 20
221.8637855579
 40
4.5
  0
ARC
  5
2D7
100
AcDbEntity
  8
0
100
AcDbCircle
 62
7
  6
BYLAYER
 10
128.4449141303
 20
199.8637855579
 40
3.25
100
AcDbArc
 50
180.0
 51
360.0
  0
ARC
  5
2D8
100
AcDbEntity
  8
0
100
AcDbCircle
 62
7
  6
BYLAYER
 10
128.4449141303
 20
206.8637855579
 40
3.25
100
AcDbArc
 50
0.0
 51
180.0
  0
ARC
  5
2D9
100
AcDbEntity
  8
0
100
AcDbCircle
 62
7
  6
BYLAYER
 10
88.4449141303
 20
199.8637855579
 40
3.25
100
AcDbArc
 50
180.0
 51
360.0
  0
ARC
  5
2DA
100
AcDbEntity
  8
0
100
AcDbCircle
 62
7
  6
BYLAYER
 10
131.1949141303
 20
207.5637855579
 40
2.5
100
AcDbArc
 50
270.0
 51
280.3475277063
  0
SPLINE
  5
2DB
100
AcDbEntity
  8
0
100
AcDbSpline
 62
7
  6
BYLAYER
 70
0
 71
3
 72
15
 73
11
 74
0
 42
0.0000001
 43
0.0000001
 44
0.0000000001
 40
0.0
 40
0.0
 40
0.0
 40
0.0
 40
0.2042558848
 40
0.3873846358
 40
0.5474495745
 40
0.6834188928
 40
0.7948501694
 40
0.8823127408
 40
0.948312216
 40
1.0
 40
1.0
 40
1.0
 40
1.0
 10
169.5673301362
 20
176.3745027958
 30
0.0
 10
169.6146647426
 20
176.0736446085
 30
0.0
 10
169.7132793032
 20
175.5043661317
 30
0.0
 10
169.8838071932
 20
174.7058474531
 30
0.0
 10
170.0674504875
 20
174.0149793717
 30
0.0
 10
170.2617228509
 20
173.4387732082
 30
0.0
 10
170.4642486984
 20
172.9811300458
 30
0.0
 10
170.6743553246
 20
172.6447551712
 30
0.0
 10
170.89370083
 20
172.4246146612
 30
0.0
 10
171.0690648378
 20
172.3636865583
 30
0.0
 10
171.1461347458
 20
172.3636921714
 30
0.0
  0
SPLINE
  5
2DC
100
AcDbEntity
  8
0
100
AcDbSpline
 62
7
  6
BYLAYER
 70
0
 71
3
 72
19
 73
15
 74
0
 42
0.0000001
 43
0.0000001
 44
0.0000000001
 40
0.0
 40
0.0
 40
0.0
 40
0.0
 40
0.0166552925
 40
0.0378297479
 40
0.0658079751
 40
0.1014097584
 40
0.1448313794
 40
0.1959191091
 40
0.2543517083
 40
0.3196374537
 40
0.4683109303
 40
0.6360979829
 40
0.8159347122
 40
1.0
 40
1.0
 40
1.0
 40
1.0
 10
171.1456762439
 20
196.363613074
 30
0.0
 10
171.069662519
 20
196.3635744554
 30
0.0
 10
170.8970583905
 20
196.3044389863
 30
0.0
 10
170.6801441904
 20
196.089829735
 30
0.0
 10
170.4724359871
 20
195.7615831193
 30
0.0
 10
170.2720764107
 20
195.3149873022
 30
0.0
 10
170.0797185575
 20
194.7526412772
 30
0.0
 10
169.8975808336
 20
194.078405105
 30
0.0
 10
169.7279963848
 20
193.2985772636
 30
0.0
 10
169.511806065
 20
192.074085818
 30
0.0
 10
169.2945818372
 20
190.3443695647
 30
0.0
 10
169.1185973549
 20
188.0855265001
 30
0.0
 10
169.0272992319
 20
185.6600632491
 30
0.0
 10
169.0259580891
 20
183.9987993768
 30
0.0
 10
169.0409045243
 20
183.1588696552
 30
0.0
  0
SPLINE
  5
2DD
100
AcDbEntity
  8
0
100
AcDbSpline
 62
7
  6
BYLAYER
 70
0
 71
3
 72
12
 73
8
 74
0
 42
0.0000001
 43
0.0000001
 44
0.0000000001
 40
0.0
 40
0.0
 40
0.0
 40
0.0
 40
0.3623886597
 40
0.6691408761
 40
0.7897017831
 40
0.8845296819
 40
1.0
 40
1.0
 40
1.0
 40
1.0
 10
23.427274429
 20
179.5450594226
 30
0.0
 10
23.3979815817
 20
179.66226241
 30
0.0
 10
23.3538335198
 20
179.8815438824
 30
0.0
 10
23.327254229
 20
180.1432760086
 30
0.0
 10
23.3352274463
 20
180.3194238722
 30
0.0
 10
23.3519459445
 20
180.4241613942
 30
0.0
 10
23.3900708912
 20
180.5010202744
 30
0.0
 10
23.4272533288
 20
180.5109825757
 30
0.0
  0
SPLINE
  5
2DE
100
AcDbEntity
  8
0
100
AcDbSpline
 62
7
  6
BYLAYER
 70
0
 71
3
 72
13
 73
9
 74
0
 42
0.0000001
 43
0.0000001
 44
0.0000000001
 40
0.0
 40
0.0
 40
0.0
 40
0.0
 40
0.3358741201
 40
0.6139556923
 40
0.7284929199
 40
0.8280215498
 40
0.9163899869
 40
1.0
 40
1.0
 40
1.0
 40
1.0
 10
23.4272938705
 20
179.5450619156
 30
0.0
 10
23.2177376892
 20
179.5131855244
 30
0.0
 10
22.837867038
 20
179.4258694224
 30
0.0
 10
22.4166604043
 20
179.2291343415
 30
0.0
 10
22.1689753046
 20
179.0397014098
 30
0.0
 10
22.0410206451
 20
178.8959323778
 30
0.0
 10
21.9622908352
 20
178.7412031547
 30
0.0
 10
21.9449141303
 20
178.6318971112
 30
0.0
 10
21.9449141303
 20
178.5791316834
 30
0.0
  0
SPLINE
  5
2DF
100
AcDbEntity
  8
0
100
AcDbSpline
 62
7
  6
BYLAYER
 70
0
 71
3
 72
12
 73
8
 74
0
 42
0.0000001
 43
0.0000001
 44
0.0000000001
 40
0.0
 40
0.0
 40
0.0
 40
0.0
 40
0.1098777176
 40
0.2057244776
 40
0.3310749904
 40
0.6502713347
 40
1.0
 40
1.0
 40
1.0
 40
1.0
 10
23.4272279545
 20
113.2167022143
 30
0.0
 10
23.3918432292
 20
113.2261940461
 30
0.0
 10
23.3529579068
 20
113.2996662907
 30
0.0
 10
23.335692245
 20
113.4047169196
 30
0.0
 10
23.3268386485
 20
113.5869457818
 30
0.0
 10
23.3547828778
 20
113.8502807618
 30
0.0
 10
23.3991398652
 20
114.0693779211
 30
0.0
 10
23.4274248457
 20
114.1825027894
 30
0.0
  0
SPLINE
  5
2E0
100
AcDbEntity
  8
0
100
AcDbSpline
 62
7
  6
BYLAYER
 70
0
 71
3
 72
13
 73
9
 74
0
 42
0.0000001
 43
0.0000001
 44
0.0000000001
 40
0.0
 40
0.0
 40
0.0
 40
0.0
 40
0.3348584032
 40
0.6118011331
 40
0.7267334702
 40
0.8271315929
 40
0.9160851857
 40
1.0
 40
1.0
 40
1.0
 40
1.0
 10
23.4272951596
 20
114.1825103447
 30
0.0
 10
23.217211511
 20
114.2103949721
 30
0.0
 10
22.8369720282
 20
114.2944957786
 30
0.0
 10
22.4126375428
 20
114.4869004166
 30
0.0
 10
22.167368333
 20
114.6814712357
 30
0.0
 10
22.0410179295
 20
114.8287463424
 30
0.0
 10
21.9624127463
 20
114.9851710706
 30
0.0
 10
21.9449141303
 20
115.0953311846
 30
0.0
 10
21.9449141303
 20
115.1484394331
 30
0.0
  0
SPLINE
  5
2E1
100
AcDbEntity
  8
0
100
AcDbSpline
 62
7
  6
BYLAYER
 70
0
 71
3
 72
10
 73
6
 74
0
 42
0.0000001
 43
0.0000001
 44
0.0000000001
 40
0.0
 40
0.0
 40
0.0
 40
0.0
 40
0.3334825833
 40
0.6230288775
 40
1.0
 40
1.0
 40
1.0
 40
1.0
 10
23.427219485
 20
113.2165969325
 30
0.0
 10
23.4627812518
 20
113.2070698871
 30
0.0
 10
23.5017115096
 20
113.1332485181
 30
0.0
 10
23.5188107026
 20
113.0283268029
 30
0.0
 10
23.5227552103
 20
112.9535375125
 30
0.0
 10
23.5227636892
 20
112.9119206558
 30
0.0
  0
SPLINE
  5
2E2
100
AcDbEntity
  8
0
100
AcDbSpline
 62
7
  6
BYLAYER
 70
0
 71
3
 72
9
 73
5
 74
0
 42
0.0000001
 43
0.0000001
 44
0.0000000001
 40
0.0
 40
0.0
 40
0.0
 40
0.0
 40
0.4788940827
 40
1.0
 40
1.0
 40
1.0
 40
1.0
 10
23.5227636892
 20
112.9119206558
 30
0.0
 10
23.5227854543
 20
112.8050925815
 30
0.0
 10
23.5001305589
 20
112.582190771
 30
0.0
 10
23.4554335658
 20
112.3634460189
 30
0.0
 10
23.4272403488
 20
112.2506723652
 30
0.0
  0
SPLINE
  5
2E3
100
AcDbEntity
  8
0
100
AcDbSpline
 62
7
  6
BYLAYER
 70
0
 71
3
 72
15
 73
11
 74
0
 42
0.0000001
 43
0.0000001
 44
0.0000000001
 40
0.0
 40
0.0
 40
0.0
 40
0.0
 40
0.0539624085
 40
0.1212971375
 40
0.2091233325
 40
0.3201941124
 40
0.4553251952
 40
0.6143229592
 40
0.7964131485
 40
1.0
 40
1.0
 40
1.0
 40
1.0
 10
171.1461347679
 20
172.3636921714
 30
0.0
 10
171.217833882
 20
172.3636973977
 30
0.0
 10
171.3793381509
 20
172.4153619515
 30
0.0
 10
171.5862363757
 20
172.6074697081
 30
0.0
 10
171.7841920455
 20
172.9025835434
 30
0.0
 10
171.9757077426
 20
173.3041332113
 30
0.0
 10
172.1603197544
 20
173.8104232671
 30
0.0
 10
172.3362307249
 20
174.4186132089
 30
0.0
 10
172.5013755534
 20
175.1234593769
 30
0.0
 10
172.5980996974
 20
175.6268270691
 30
0.0
 10
172.6449141303
 20
175.8932483849
 30
0.0
  0
SPLINE
  5
2E4
100
AcDbEntity
  8
0
100
AcDbSpline
 62
7
  6
BYLAYER
 70
0
 71
3
 72
9
 73
5
 74
0
 42
0.0000001
 43
0.0000001
 44
0.0000000001
 40
0.0
 40
0.0
 40
0.0
 40
0.0
 40
0.25330092
 40
1.0
 40
1.0
 40
1.0
 40
1.0
 10
23.4272658753
 20
112.2506649495
 30
0.0
 10
23.3948161486
 20
112.2636881819
 30
0.0
 10
23.2685350247
 20
112.319620367
 30
0.0
 10
23.1499366889
 20
112.3922945582
 30
0.0
 10
23.0668133553
 20
112.4532434053
 30
0.0
  0
SPLINE
  5
2E5
100
AcDbEntity
  8
0
100
AcDbSpline
 62
7
  6
BYLAYER
 70
0
 71
3
 72
8
 73
4
 74
0
 42
0.0000001
 43
0.0000001
 44
0.0000000001
 40
0.0
 40
0.0
 40
0.0
 40
0.0
 40
1.0
 40
1.0
 40
1.0
 40
1.0
 10
23.0668133553
 20
112.4532434053
 30
0.0
 10
22.9988604642
 20
112.5030687695
 30
0.0
 10
22.9341558234
 20
112.557570446
 30
0.0
 10
22.8730305532
 20
112.6155692708
 30
0.0
  0
SPLINE
  5
2E6
100
AcDbEntity
  8
0
100
AcDbSpline
 62
7
  6
BYLAYER
 70
0
 71
3
 72
9
 73
5
 74
0
 42
0.0000001
 43
0.0000001
 44
0.0000000001
 40
0.0
 40
0.0
 40
0.0
 40
0.0
 40
0.5086103678
 40
1.0
 40
1.0
 40
1.0
 40
1.0
 10
22.8730305532
 20
112.6155692708
 30
0.0
 10
22.5350141147
 20
112.9362967883
 30
0.0
 10
22.0772565941
 20
113.7805669555
 30
0.0
 10
21.9449845029
 20
114.6982537011
 30
0.0
 10
21.9449141303
 20
115.148439658
 30
0.0
  0
SPLINE
  5
2E7
100
AcDbEntity
  8
0
100
AcDbSpline
 62
7
  6
BYLAYER
 70
0
 71
3
 72
9
 73
5
 74
0
 42
0.0000001
 43
0.0000001
 44
0.0000000001
 40
0.0
 40
0.0
 40
0.0
 40
0.0
 40
0.5397263678
 40
1.0
 40
1.0
 40
1.0
 40
1.0
 10
172.2928364914
 20
194.4489974176
 30
0.0
 10
172.2974181664
 20
193.6032550901
 30
0.0
 10
172.3545627911
 20
192.0363817318
 30
0.0
 10
172.522126444
 20
190.4755291679
 30
0.0
 10
172.6449141303
 20
189.7648060723
 30
0.0
  0
SPLINE
  5
2E8
100
AcDbEntity
  8
0
100
AcDbSpline
 62
7
  6
BYLAYER
 70
0
 71
3
 72
13
 73
9
 74
0
 42
0.0000001
 43
0.0000001
 44
0.0000000001
 40
0.0
 40
0.0
 40
0.0
 40
0.0
 40
0.3717167927
 40
0.6565814684
 40
0.7672111842
 40
0.85850358
 40
0.9339760177
 40
1.0
 40
1.0
 40
1.0
 40
1.0
 10
172.2928364914
 20
194.4489974176
 30
0.0
 10
172.2165522409
 20
194.7279767594
 30
0.0
 10
172.0646862568
 20
195.2160931026
 30
0.0
 10
171.8224816007
 20
195.7653810596
 30
0.0
 10
171.6111072071
 20
196.081009553
 30
0.0
 10
171.4623446638
 20
196.2392583103
 30
0.0
 10
171.3082919739
 20
196.339217546
 30
0.0
 10
171.1975058677
 20
196.3635758647
 30
0.0
 10
171.1461347312
 20
196.3636130247
 30
0.0
  0
SPLINE
  5
2E9
100
AcDbEntity
  8
0
100
AcDbSpline
 62
7
  6
BYLAYER
 70
0
 71
3
 72
9
 73
5
 74
0
 42
0.0000001
 43
0.0000001
 44
0.0000000001
 40
0.0
 40
0.0
 40
0.0
 40
0.0
 40
0.4913896525
 40
1.0
 40
1.0
 40
1.0
 40
1.0
 10
21.9449141303
 20
178.579131457
 30
0.0
 10
21.9449849904
 20
179.0293153029
 30
0.0
 10
22.0772556222
 20
179.9469972938
 30
0.0
 10
22.5350070726
 20
180.7912654338
 30
0.0
 10
22.8730207488
 20
181.1119926333
 30
0.0
  0
SPLINE
  5
2EA
100
AcDbEntity
  8
0
100
AcDbSpline
 62
7
  6
BYLAYER
 70
0
 71
3
 72
8
 73
4
 74
0
 42
0.0000001
 43
0.0000001
 44
0.0000000001
 40
0.0
 40
0.0
 40
0.0
 40
0.0
 40
1.0
 40
1.0
 40
1.0
 40
1.0
 10
22.8730207488
 20
181.1119926333
 30
0.0
 10
22.9341377823
 20
181.169984059
 30
0.0
 10
22.9988333241
 20
181.2244791539
 30
0.0
 10
23.0667763008
 20
181.2742993221
 30
0.0
  0
SPLINE
  5
2EB
100
AcDbEntity
  8
0
100
AcDbSpline
 62
7
  6
BYLAYER
 70
0
 71
3
 72
9
 73
5
 74
0
 42
0.0000001
 43
0.0000001
 44
0.0000000001
 40
0.0
 40
0.0
 40
0.0
 40
0.0
 40
0.2472719577
 40
1.0
 40
1.0
 40
1.0
 40
1.0
 10
23.0667763008
 20
181.2742993221
 30
0.0
 10
23.0943022148
 20
181.2944830958
 30
0.0
 10
23.2078052756
 20
181.3730397186
 30
0.0
 10
23.3308442692
 20
181.4382068861
 30
0.0
 10
23.4272733801
 20
181.4769073749
 30
0.0
  0
SPLINE
  5
2EC
100
AcDbEntity
  8
0
100
AcDbSpline
 62
7
  6
BYLAYER
 70
0
 71
3
 72
10
 73
6
 74
0
 42
0.0000001
 43
0.0000001
 44
0.0000000001
 40
0.0
 40
0.0
 40
0.0
 40
0.0
 40
0.3318781045
 40
0.621373327
 40
1.0
 40
1.0
 40
1.0
 40
1.0
 10
23.4273279875
 20
180.5109376423
 30
0.0
 10
23.4627223965
 20
180.5204094572
 30
0.0
 10
23.5016804193
 20
180.59390066
 30
0.0
 10
23.518858998
 20
180.6988378688
 30
0.0
 10
23.5228218575
 20
180.7738090254
 30
0.0
 10
23.5228192813
 20
180.8156100021
 30
0.0
  0
SPLINE
  5
2ED
100
AcDbEntity
  8
0
100
AcDbSpline
 62
7
  6
BYLAYER
 70
0
 71
3
 72
9
 73
5
 74
0
 42
0.0000001
 43
0.0000001
 44
0.0000000001
 40
0.0
 40
0.0
 40
0.0
 40
0.0
 40
0.4771781205
 40
1.0
 40
1.0
 40
1.0
 40
1.0
 10
23.5228192813
 20
180.8156100021
 30
0.0
 10
23.5228127206
 20
180.9220634891
 30
0.0
 10
23.5002395696
 20
181.1449811208
 30
0.0
 10
23.4555484655
 20
181.3637513401
 30
0.0
 10
23.427260043
 20
181.4769050118
 30
0.0
  0
SPLINE
  5
2EE
100
AcDbEntity
  8
0
100
AcDbSpline
 62
7
  6
BYLAYER
 70
0
 71
3
 72
18
 73
14
 74
0
 42
0.0000001
 43
0.0000001
 44
0.0000000001
 40
0.0
 40
0.0
 40
0.0
 40
0.0
 40
0.182984284
 40
0.3614803771
 40
0.5291602133
 40
0.6803571887
 40
0.8095691079
 40
0.8638975544
 40
0.910165116
 40
0.9474743039
 40
0.9751626902
 40
0.9927676895
 40
1.0
 40
1.0
 40
1.0
 40
1.0
 10
28.9449141303
 20
180.9541537245
 30
0.0
 10
28.9618252273
 20
181.0213198011
 30
0.0
 10
28.992859199
 20
181.1546042192
 30
0.0
 10
29.0340741534
 20
181.3506161005
 30
0.0
 10
29.0712563787
 20
181.5351746408
 30
0.0
 10
29.1054566814
 20
181.7012891066
 30
0.0
 10
29.1343076059
 20
181.8247299608
 30
0.0
 10
29.1561979916
 20
181.9088486056
 30
0.0
 10
29.1699521241
 20
181.9593639079
 30
0.0
 10
29.1818407247
 20
181.9993391035
 30
0.0
 10
29.1906436423
 20
182.0303643456
 30
0.0
 10
29.1981211925
 20
182.0469200255
 30
0.0
 10
29.2010891459
 20
182.0580720136
 30
0.0
 10
29.20373346
 20
182.0587803353
 30
0.0
  0
SPLINE
  5
2EF
100
AcDbEntity
  8
0
100
AcDbSpline
 62
7
  6
BYLAYER
 70
0
 71
3
 72
18
 73
14
 74
0
 42
0.0000001
 43
0.0000001
 44
0.0000000001
 40
0.0
 40
0.0
 40
0.0
 40
0.0
 40
0.0070657705
 40
0.0246056617
 40
0.0522921822
 40
0.0896456989
 40
0.1359390169
 40
0.1902521647
 40
0.3192922736
 40
0.4703864138
 40
0.6381841158
 40
0.8168943307
 40
1.0
 40
1.0
 40
1.0
 40
1.0
 10
29.2037331754
 20
111.6687908568
 30
0.0
 10
29.2011499334
 20
111.6694830344
 30
0.0
 10
29.1984951334
 20
111.6807042356
 30
0.0
 10
29.1909025147
 20
111.6970579312
 30
0.0
 10
29.1821189357
 20
111.7281219108
 30
0.0
 10
29.1700127562
 20
111.7680384939
 30
0.0
 10
29.1561011778
 20
111.8185368513
 30
0.0
 10
29.1340563751
 20
111.9025458296
 30
0.0
 10
29.1055603747
 20
112.0259567648
 30
0.0
 10
29.0716459238
 20
112.1920559793
 30
0.0
 10
29.0341915896
 20
112.3766403369
 30
0.0
 10
28.9923256014
 20
112.5726800057
 30
0.0
 10
28.9614315928
 20
112.706109757
 30
0.0
 10
28.9449140997
 20
112.7734175087
 30
0.0
  0
ELLIPSE
  5
2F0
100
AcDbEntity
  8
0
100
AcDbEllipse
 62
7
  6
BYLAYER
 10
168.8654686684
 20
183.0584599967
 30
0.0
 11
-0.0
 21
1.0
 31
0.0
 40
0.1763269807
 41
-3.1415944774
 42
-1.4702171748
  0
ELLIPSE
  5
2F1
100
AcDbEntity
  8
0
100
AcDbEllipse
 62
7
  6
BYLAYER
 10
169.4357630814
 20
175.7087292323
 30
0.0
 11
-0.0
 21
1.0
 31
0.0
 40
0.1763269807
 41
-0.0000001063
 42
1.5707963268
  0
ELLIPSE
  5
2F2
100
AcDbEntity
  8
0
100
AcDbEllipse
 62
7
  6
BYLAYER
 10
169.2947014968
 20
93.8637855579
 30
0.0
 11
-0.0
 21
8.0
 31
0.0
 40
0.1763269807
 41
1.5707963268
 42
3.1415926536
  0
ELLIPSE
  5
2F3
100
AcDbEntity
  8
0
100
AcDbEllipse
 62
7
  6
BYLAYER
 10
169.2947014968
 20
199.8637855579
 30
0.0
 11
0.0
 21
8.0
 31
0.0
 40
0.1763269807
 41
-0.0
 42
1.5707963268
  0
ELLIPSE
  5
2F4
100
AcDbEntity
  8
0
100
AcDbEllipse
 62
7
  6
BYLAYER
 10
171.1461347942
 20
109.3637855579
 30
0.0
 11
0.0
 21
9.0
 31
0.0
 40
0.1763269807
 41
-1.2359001684
 42
4.3774928219
  0
ENDSEC
  0
SECTION
  2
OBJECTS
  0
DICTIONARY
  5
C
100
AcDbDictionary
280
0
281
1
  3
ACAD_GROUP
350
D
  3
ACAD_MLINESTYLE
350
17
  3
ACAD_LAYOUT
350
1A
  3
ACAD_PLOTSETTINGS
350
19
  3
ACAD_PLOTSTYLENAME
350
E
  0
DICTIONARY
  5
D
102
{ACAD_REACTORS
330
C
102
}
100
AcDbDictionary
280
0
281
1
  0
ACDBDICTIONARYWDFLT
  5
E
102
{ACAD_REACTORS
330
C
102
}
100
AcDbDictionary
281
1
  3
Normal
350
F
100
AcDbDictionaryWithDefault
340
F
  0
DICTIONARY
  5
17
102
{ACAD_REACTORS
330
C
102
}
100
AcDbDictionary
280
0
281
1
  3
Standard
350
18
  0
DICTIONARY
  5
19
102
{ACAD_REACTORS
330
C
102
}
100
AcDbDictionary
281
1
  0
DICTIONARY
  5
1A
102
{ACAD_REACTORS
330
C
102
}
100
AcDbDictionary
281
1
  3
Model
350
2F5
  3
Layout1
350
2F6
  0
ACDBPLACEHOLDER
  5
F
102
{ACAD_REACTORS
330
E
102
}
  0
MLINESTYLE
  5
18
102
{ACAD_REACTORS
330
17
102
}
100
AcDbMlineStyle
  2
STANDARD
 70
0
  3

 62
256
 51
90.0
 52
90.0
 71
2
 49
0.5
 62
256
  6
BYLAYER
 49
-0.5
 62
256
  6
BYLAYER
  0
LAYOUT
  5
2F5
102
{ACAD_REACTORS
330
1A
102
}
100
AcDbPlotSettings
  1

  2
none_device
  4

  6

 40
0.0
 41
0.0
 42
0.0
 43
0.0
 44
210.0
 45
297.0
 46
0.0
 47
0.0
 48
0.0
 49
0.0
140
0.0
141
0.0
142
1.0
143
1.0
 70
1024
 72
1
 73
0
 74
0
  7

 75
0
147
1.0
148
0.0
149
0.0
100
AcDbLayout
  1
Model
 70
0
 71
0
 10
0.0
 20
0.0
 11
210.0
 21
297.0
 12
0.0
 22
0.0
 32
0.0
 14
0.0
 24
0.0
 34
0.0
 15
0.0
 25
0.0
 35
0.0
146
0.0
 13
0.0
 23
0.0
 33
0.0
 16
1.0
 26
0.0
 36
0.0
 17
0.0
 27
1.0
 37
0.0
 76
0
330
210
345
0
346
0
  0
LAYOUT
  5
2F6
102
{ACAD_REACTORS
330
1A
102
}
100
AcDbPlotSettings
  1

  2
none_device
  4

  6

 40
0.0
 41
0.0
 42
0.0
 43
0.0
 44
210.0
 45
297.0
 46
0.0
 47
0.0
 48
0.0
 49
0.0
140
0.0
141
0.0
142
1.0
143
1.0
 70
0
 72
1
 73
0
 74
0
  7

 75
0
147
1.0
148
0.0
149
0.0
100
AcDbLayout
  1
Layout1
 70
0
 71
1
 10
0.0
 20
0.0
 11
210.0
 21
297.0
 12
0.0
 22
0.0
 32
0.0
 14
0.0
 24
0.0
 34
0.0
 15
0.0
 25
0.0
 35
0.0
146
0.0
 13
0.0
 23
0.0
 33
0.0
 16
1.0
 26
0.0
 36
0.0
 17
0.0
 27
1.0
 37
0.0
 76
0
330
211
345
0
346
0
  0
ENDSEC
  0
EOF
