999
DXF file: C:\Users\sesa63760\Dev\_Creo\CAD\MCADID0002196_3D-CAD\drw0001_4.dxf
999
Pro/ENGINEER 2019471 by Parametric Technology Corporation
  0
SECTION
  2
HEADER
  9
$ACADVER
  1
AC1024
  9
$DWGCODEPAGE
  3
ANSI_1252
  9
$EXTMAX
 10
51.465601326
 20
72.7870647325
 30
0.0
  9
$EXTMIN
 10
0.0
 20
0.0
 30
0.0
  9
$LIMMIN
 10
0.0
 20
0.0
  9
$LIMMAX
 10
51.465601326
 20
72.7870647325
  9
$VIEWCTR
 10
25.732800663
 20
36.3935323663
  9
$VIEWSIZE
 40
72.7870647325
  9
$CLAYER
  8
0
  9
$LTSCALE
 40
4.7446382937
  9
$CELTYPE
  6
BYLAYER
  9
$DIMSCALE
 40
1.0
  9
$DIMASZ
 40
0.6126857301
  9
$DIMEXO
 40
1.0
  9
$DIMDLI
 40
3.2781137302
  9
$DIMEXE
 40
1.0
  9
$DIMCEN
 40
0.7763953571
  9
$DIMLFAC
 40
1.0
  9
$DIMBLK
  1
_FILLED
  9
$DIMALT
 70
0
  9
$DIMALTF
 40
0.0393700787
  9
$DIMTXT
 40
0.8577600221
  9
$DIMTOL
 70
1
  9
$DIMLIM
 70
0
  9
$DIMTFAC
 40
1.0
  9
$DIMTP
 40
0.01
  9
$DIMTM
 40
0.01
  9
$DIMGAP
 40
0.625
  9
$DIMDSEP
 70
46
  9
$AUNITS
 70
0
  9
$PDMODE
 70
3
  9
$PDSIZE
 40
0.3125
  9
$HANDSEED
  5
6C1
  9
$TILEMODE
 70
1
  9
$MEASUREMENT
 70
1
  9
$INSUNITS
 70
4
  0
ENDSEC
  0
SECTION
  2
CLASSES
  0
CLASS
  1
ACDBDICTIONARYWDFLT
  2
AcDbDictionaryWithDefault
  3
AutoCAD 2000
 90
0
 91
1
280
0
281
0
  0
CLASS
  1
ACDBPLACEHOLDER
  2
AcDbPlaceHolder
  3
AutoCAD 2000
 90
0
 91
1
280
0
281
0
  0
CLASS
  1
LAYOUT
  2
AcDbLayout
  3
AutoCAD 2000
 90
0
 91
0
280
0
281
0
  0
ENDSEC
  0
SECTION
  2
TABLES
  0
TABLE
  2
VPORT
  5
8
100
AcDbSymbolTable
 70
2
  0
VPORT
  5
1F4
100
AcDbSymbolTableRecord
100
AcDbViewportTableRecord
  2
*ACTIVE
 70
0
 10
0.0
 20
0.0
 11
1.0
 21
1.0
 12
25.732800663
 22
36.3935323663
 13
0.0
 23
0.0
 14
1.0
 24
1.0
 15
0.0
 25
0.0
 16
0.0
 26
0.0
 36
1.0
 17
0.0
 27
0.0
 37
0.0
 40
72.7870647325
 41
0.7070707071
 42
50.0
 43
0.0
 44
0.0
 50
0.0
 51
0.0
 71
0
 72
100
 73
1
 74
1
 75
0
 76
0
 77
0
 78
0
  0
ENDTAB
  0
TABLE
  2
LTYPE
  5
5
100
AcDbSymbolTable
 70
6
  0
LTYPE
  5
14
100
AcDbSymbolTableRecord
100
AcDbLinetypeTableRecord
  2
BYBLOCK
 70
0
  3

 72
65
 73
0
 40
0.0
  0
LTYPE
  5
15
100
AcDbSymbolTableRecord
100
AcDbLinetypeTableRecord
  2
BYLAYER
 70
0
  3

 72
65
 73
0
 40
0.0
  0
LTYPE
  5
16
100
AcDbSymbolTableRecord
100
AcDbLinetypeTableRecord
  2
CONTINUOUS
 70
64
  3
Solid line
 72
65
 73
0
 40
0.0
  0
LTYPE
  5
1F5
100
AcDbSymbolTableRecord
100
AcDbLinetypeTableRecord
  2
CENTER
 70
64
  3
____ _ ____ _ ____ _ ____ _ ____ _ ____ _ ____
 72
65
 73
4
 40
0.6
 49
0.375
 74
0
 49
-0.075
 74
0
 49
0.075
 74
0
 49
-0.075
 74
0
  0
LTYPE
  5
1F6
100
AcDbSymbolTableRecord
100
AcDbLinetypeTableRecord
  2
HIDDEN
 70
64
  3
- - - - - - - - - - - - - - - - - - - -
 72
65
 73
2
 40
0.2
 49
0.1
 74
0
 49
-0.1
 74
0
  0
LTYPE
  5
1F7
100
AcDbSymbolTableRecord
100
AcDbLinetypeTableRecord
  2
PHANTOM
 70
64
  3
_____ _ _ _____ _ _ _____ _ _ _____
 72
65
 73
6
 40
0.8
 49
0.45
 74
0
 49
-0.05
 74
0
 49
0.1
 74
0
 49
-0.05
 74
0
 49
0.1
 74
0
 49
-0.05
 74
0
  0
LTYPE
  5
1F8
100
AcDbSymbolTableRecord
100
AcDbLinetypeTableRecord
  2
DOT
 70
64
  3
. . . . . . . . . . . . . . . . . . . .
 72
65
 73
2
 40
0.2
 49
0.1
 74
0
 49
-0.1
 74
0
  0
LTYPE
  5
1F9
100
AcDbSymbolTableRecord
100
AcDbLinetypeTableRecord
  2
DASHED
 70
64
  3
- - - - - - - - - - - - - - - - - - - -
 72
65
 73
2
 40
0.2
 49
0.1
 74
0
 49
-0.1
 74
0
  0
ENDTAB
  0
TABLE
  2
LAYER
  5
2
100
AcDbSymbolTable
 70
36
  0
LAYER
  5
10
100
AcDbSymbolTableRecord
100
AcDbLayerTableRecord
  2
0
 70
0
 62
7
  6
CONTINUOUS
370
-3
390
F
  0
LAYER
  5
1FA
100
AcDbSymbolTableRecord
100
AcDbLayerTableRecord
  2
DEFAULT_1
 70
0
 62
7
  6
CENTER
370
-3
390
F
  0
LAYER
  5
1FB
100
AcDbSymbolTableRecord
100
AcDbLayerTableRecord
  2
DEFAULT_2
 70
0
 62
8
  6
HIDDEN
370
-3
390
F
  0
LAYER
  5
1FC
100
AcDbSymbolTableRecord
100
AcDbLayerTableRecord
  2
DEFAULT_3
 70
0
 62
7
  6
PHANTOM
370
-3
390
F
  0
LAYER
  5
1FD
100
AcDbSymbolTableRecord
100
AcDbLayerTableRecord
  2
00_COMPONENTS
 70
0
 62
7
  6
CONTINUOUS
370
-3
390
F
  0
LAYER
  5
1FE
100
AcDbSymbolTableRecord
100
AcDbLayerTableRecord
  2
01_1_DEFAULT_DATUMS
 70
0
 62
7
  6
CONTINUOUS
370
-3
390
F
  0
LAYER
  5
1FF
100
AcDbSymbolTableRecord
100
AcDbLayerTableRecord
  2
01_PLANES
 70
0
 62
7
  6
CONTINUOUS
370
-3
390
F
  0
LAYER
  5
200
100
AcDbSymbolTableRecord
100
AcDbLayerTableRecord
  2
02_COORD_SYS
 70
0
 62
7
  6
CONTINUOUS
370
-3
390
F
  0
LAYER
  5
201
100
AcDbSymbolTableRecord
100
AcDbLayerTableRecord
  2
03_AXES
 70
0
 62
7
  6
CONTINUOUS
370
-3
390
F
  0
LAYER
  5
202
100
AcDbSymbolTableRecord
100
AcDbLayerTableRecord
  2
04_POINTS
 70
0
 62
7
  6
CONTINUOUS
370
-3
390
F
  0
LAYER
  5
203
100
AcDbSymbolTableRecord
100
AcDbLayerTableRecord
  2
05_CURVES
 70
0
 62
7
  6
CONTINUOUS
370
-3
390
F
  0
LAYER
  5
204
100
AcDbSymbolTableRecord
100
AcDbLayerTableRecord
  2
06_SURFS
 70
0
 62
7
  6
CONTINUOUS
370
-3
390
F
  0
LAYER
  5
205
100
AcDbSymbolTableRecord
100
AcDbLayerTableRecord
  2
07_COSMETICS
 70
0
 62
7
  6
CONTINUOUS
370
-3
390
F
  0
LAYER
  5
206
100
AcDbSymbolTableRecord
100
AcDbLayerTableRecord
  2
10_NOTES
 70
0
 62
7
  6
CONTINUOUS
370
-3
390
F
  0
LAYER
  5
207
100
AcDbSymbolTableRecord
100
AcDbLayerTableRecord
  2
11_NOTES_PUB
 70
0
 62
7
  6
CONTINUOUS
370
-3
390
F
  0
LAYER
  5
208
100
AcDbSymbolTableRecord
100
AcDbLayerTableRecord
  2
13_REF_GTOL
 70
0
 62
7
  6
CONTINUOUS
370
-3
390
F
  0
LAYER
  5
209
100
AcDbSymbolTableRecord
100
AcDbLayerTableRecord
  2
16_MISC
 70
0
 62
7
  6
CONTINUOUS
370
-3
390
F
  0
LAYER
  5
20A
100
AcDbSymbolTableRecord
100
AcDbLayerTableRecord
  2
17_NO_PRINT
 70
0
 62
7
  6
CONTINUOUS
370
-3
390
F
  0
LAYER
  5
20B
100
AcDbSymbolTableRecord
100
AcDbLayerTableRecord
  2
18_DATUM_CAMS_JOINTS
 70
0
 62
7
  6
CONTINUOUS
370
-3
390
F
  0
LAYER
  5
20C
100
AcDbSymbolTableRecord
100
AcDbLayerTableRecord
  2
19_DATUM_FUNCTIONAL
 70
0
 62
7
  6
CONTINUOUS
370
-3
390
F
  0
LAYER
  5
20D
100
AcDbSymbolTableRecord
100
AcDbLayerTableRecord
  2
20_DATUM_KINEMATIC_SCHEME
 70
0
 62
7
  6
CONTINUOUS
370
-3
390
F
  0
ENDTAB
  0
TABLE
  2
STYLE
  5
3
100
AcDbSymbolTable
 70
1
  0
STYLE
  5
11
100
AcDbSymbolTableRecord
100
AcDbTextStyleTableRecord
  2
STANDARD
 70
0
 40
0.0
 41
0.8
 50
0.0
 71
0
 42
0.2
  3
txt
  4

  0
STYLE
  5
20E
100
AcDbSymbolTableRecord
100
AcDbTextStyleTableRecord
  2
TEXTSTYLE_1
 70
0
 40
0.0
 41
0.8
 50
0.0
 71
0
 42
0.2
  3
gdt
  4

  0
ENDTAB
  0
TABLE
  2
VIEW
  5
6
100
AcDbSymbolTable
 70
0
  0
ENDTAB
  0
TABLE
  2
UCS
  5
7
100
AcDbSymbolTable
 70
0
  0
ENDTAB
  0
TABLE
  2
APPID
  5
9
100
AcDbSymbolTable
 70
1
  0
APPID
  5
20F
100
AcDbSymbolTableRecord
100
AcDbRegAppTableRecord
  2
ACAD
 70
0
  0
ENDTAB
  0
TABLE
  2
BLOCK_RECORD
  5
1
100
AcDbSymbolTable
 70
0
  0
BLOCK_RECORD
  5
210
100
AcDbSymbolTableRecord
100
AcDbBlockTableRecord
  2
*Model_Space
  0
BLOCK_RECORD
  5
211
100
AcDbSymbolTableRecord
100
AcDbBlockTableRecord
  2
*Paper_Space
  0
BLOCK_RECORD
  5
212
100
AcDbSymbolTableRecord
100
AcDbBlockTableRecord
  2
_FILLED
  0
ENDTAB
  0
TABLE
  2
DIMSTYLE
  5
A
100
AcDbSymbolTable
 70
1
100
AcDbDimStyleTable
 71
0
  0
DIMSTYLE
105
213
100
AcDbSymbolTableRecord
100
AcDbDimStyleTableRecord
  2
STANDARD
 70
0
  3

  4

 40
1.0
 41
0.6126857301
 42
1.0
 43
0.38
 44
1.0
 45
0.0
 46
0.0
 47
0.01
 48
0.01
140
0.8577600221
141
0.09
142
0.0
143
25.4
144
1.0
145
0.0
146
1.0
147
0.625
 71
1
 72
0
 73
0
 74
0
 75
0
 76
0
 77
1
 78
8
 79
2
170
0
171
1
172
0
173
0
174
0
175
0
176
0
177
0
178
0
270
2
179
2
271
2
272
2
273
2
274
2
275
0
280
0
281
0
282
0
283
1
284
8
285
0
286
0
287
3
288
0
340
11
278
46
341
212
342
212
343
212
344
212
  0
ENDTAB
  0
ENDSEC
  0
SECTION
  2
BLOCKS
  0
BLOCK
  5
20
100
AcDbEntity
  8
0
100
AcDbBlockBegin
  2
*Model_Space
 70
0
 10
0.0
 20
0.0
 30
0.0
  3
*Model_Space
  1

  0
ENDBLK
  5
21
100
AcDbEntity
  8
0
100
AcDbBlockEnd
  0
BLOCK
  5
1C
100
AcDbEntity
  8
0
100
AcDbBlockBegin
  2
*Paper_Space
 70
0
 10
0.0
 20
0.0
 30
0.0
  3
*Paper_Space
  1

  0
ENDBLK
  5
1D
100
AcDbEntity
  8
0
100
AcDbBlockEnd
  0
BLOCK
  5
214
100
AcDbEntity
  8
0
100
AcDbBlockBegin
  2
_FILLED
 70
64
 10
0.0
 20
0.0
  3
_FILLED
  1

  0
SOLID
  5
215
100
AcDbEntity
  8
0
  6
BYBLOCK
 62
0
100
AcDbTrace
 10
0.0
 20
0.0
 11
-1.0
 21
0.25
 12
-1.0
 22
-0.25
 13
-1.0
 23
-0.25
  0
ENDBLK
  5
216
100
AcDbEntity
  8
0
  6
BYBLOCK
 62
0
100
AcDbBlockEnd
  0
ENDSEC
  0
SECTION
  2
ENTITIES
  0
LINE
  5
217
100
AcDbEntity
  8
0
100
AcDbLine
 62
7
  6
CONTINUOUS
 10
6.6802123257
 20
58.3246254834
 11
6.6668607589
 21
58.2973347172
  0
LINE
  5
218
100
AcDbEntity
  8
0
100
AcDbLine
 62
7
  6
CONTINUOUS
 10
6.9521867364
 20
58.2912406025
 11
6.9345320116
 21
58.2639204252
  0
LINE
  5
219
100
AcDbEntity
  8
0
100
AcDbLine
 62
7
  6
CONTINUOUS
 10
7.298534572
 20
58.2584453684
 11
7.2766628121
 21
58.2310877695
  0
LINE
  5
21A
100
AcDbEntity
  8
0
100
AcDbLine
 62
7
  6
CONTINUOUS
 10
7.7177727179
 20
58.2263802154
 11
7.6917912803
 21
58.1989774292
  0
LINE
  5
21B
100
AcDbEntity
  8
0
100
AcDbLine
 62
7
  6
CONTINUOUS
 10
9.1367099891
 20
58.6493567294
 11
9.1061600762
 21
58.6181688962
  0
LINE
  5
21C
100
AcDbEntity
  8
0
100
AcDbLine
 62
7
  6
CONTINUOUS
 10
8.2081059321
 20
58.1951824516
 11
8.1781433735
 21
58.1677270221
  0
LINE
  5
21D
100
AcDbEntity
  8
0
100
AcDbLine
 62
7
  6
CONTINUOUS
 10
9.6640999037
 20
58.6778128962
 11
9.6291493546
 21
58.6466883737
  0
LINE
  5
21E
100
AcDbEntity
  8
0
100
AcDbLine
 62
7
  6
CONTINUOUS
 10
8.7674345323
 20
58.1649856703
 11
8.7336406383
 21
58.1374705261
  0
LINE
  5
21F
100
AcDbEntity
  8
0
100
AcDbLine
 62
7
  6
CONTINUOUS
 10
9.3933633878
 20
58.135919179
 11
9.3559093214
 21
58.1083377201
  0
LINE
  5
220
100
AcDbEntity
  8
0
100
AcDbLine
 62
7
  6
CONTINUOUS
 10
10.0832121749
 20
58.1081074448
 11
10.0422908284
 21
58.0804536531
  0
LINE
  5
221
100
AcDbEntity
  8
0
100
AcDbLine
 62
7
  6
CONTINUOUS
 10
10.1899289325
 20
8.991418968
 11
11.2899289325
 21
8.991418968
  0
LINE
  5
222
100
AcDbEntity
  8
0
100
AcDbLine
 62
7
  6
CONTINUOUS
 10
18.0899289325
 20
8.991418968
 11
39.1899289325
 21
8.991418968
  0
LINE
  5
223
100
AcDbEntity
  8
0
100
AcDbLine
 62
7
  6
CONTINUOUS
 10
6.4837759761
 20
58.3584570521
 11
6.4747923921
 21
58.3311875
  0
LINE
  5
224
100
AcDbEntity
  8
0
100
AcDbLine
 62
7
  6
CONTINUOUS
 10
10.8340268554
 20
58.0816695618
 11
10.7898535298
 21
58.0539381454
  0
LINE
  5
225
100
AcDbEntity
  8
0
100
AcDbLine
 62
7
  6
CONTINUOUS
 10
11.6425923254
 20
58.0567187411
 11
11.5954059389
 21
58.0289053342
  0
LINE
  5
226
100
AcDbEntity
  8
0
100
AcDbLine
 62
7
  6
CONTINUOUS
 10
12.5054461836
 20
58.0333618259
 11
12.4555113329
 21
58.0054632833
  0
LINE
  5
227
100
AcDbEntity
  8
0
100
AcDbLine
 62
7
  6
CONTINUOUS
 10
13.4188935572
 20
58.0116988341
 11
13.3665039815
 21
57.9837136882
  0
LINE
  5
228
100
AcDbEntity
  8
0
100
AcDbLine
 62
7
  6
CONTINUOUS
 10
14.3790229243
 20
57.99182253
 11
14.324507343
 21
57.9637517439
  0
LINE
  5
229
100
AcDbEntity
  8
0
100
AcDbLine
 62
7
  6
CONTINUOUS
 10
14.5399289325
 20
9.9462129946
 11
14.9399289325
 21
9.9462129946
  0
LINE
  5
22A
100
AcDbEntity
  8
0
100
AcDbLine
 62
7
  6
CONTINUOUS
 10
14.2399289325
 20
10.4568686659
 11
15.2399289325
 21
10.4568686659
  0
LINE
  5
22B
100
AcDbEntity
  8
0
100
AcDbLine
 62
7
  6
CONTINUOUS
 10
15.2399289325
 20
10.6042674712
 11
15.2899289325
 21
10.6042674712
  0
LINE
  5
22C
100
AcDbEntity
  8
0
100
AcDbLine
 62
7
  6
CONTINUOUS
 10
6.3637188582
 20
58.3925904366
 11
6.3591467177
 21
58.3653337709
  0
LINE
  5
22D
100
AcDbEntity
  8
0
100
AcDbLine
 62
7
  6
CONTINUOUS
 10
15.3817228635
 20
57.973818027
 11
15.3254549981
 21
57.9456663154
  0
LINE
  5
22E
100
AcDbEntity
  8
0
100
AcDbLine
 62
7
  6
CONTINUOUS
 10
16.4226996599
 20
57.957762423
 11
16.3651160375
 21
57.929540738
  0
LINE
  5
22F
100
AcDbEntity
  8
0
100
AcDbLine
 62
7
  6
CONTINUOUS
 10
19.7300105796
 20
57.9219330747
 11
19.6724790079
 21
57.8937569841
  0
LINE
  5
230
100
AcDbEntity
  8
0
100
AcDbLine
 62
7
  6
CONTINUOUS
 10
17.4974956909
 20
57.9437244708
 11
17.4391289562
 21
57.9154550892
  0
LINE
  5
231
100
AcDbEntity
  8
0
100
AcDbLine
 62
7
  6
CONTINUOUS
 10
18.601508515
 20
57.9317642829
 11
18.5430545714
 21
57.9034923756
  0
LINE
  5
232
100
AcDbEntity
  8
0
100
AcDbLine
 62
7
  6
CONTINUOUS
 10
14.5399289325
 20
9.9462129946
 11
14.2399289325
 21
10.4568686659
  0
LINE
  5
233
100
AcDbEntity
  8
0
100
AcDbLine
 62
7
  6
CONTINUOUS
 10
8.6899289325
 20
13.110886159
 11
10.1899289325
 21
8.991418968
  0
LINE
  5
234
100
AcDbEntity
  8
0
100
AcDbLine
 62
7
  6
CONTINUOUS
 10
5.7319487261
 20
37.1912416273
 11
5.7319487261
 21
29.094679059
  0
LINE
  5
235
100
AcDbEntity
  8
0
100
AcDbLine
 62
7
  6
CONTINUOUS
 10
5.8504465076
 20
37.7704554638
 11
5.8504465076
 21
37.4822620352
  0
LINE
  5
236
100
AcDbEntity
  8
0
100
AcDbLine
 62
7
  6
CONTINUOUS
 10
6.1154161857
 20
60.8322083035
 11
6.1154161857
 21
62.4315293047
  0
LINE
  5
237
100
AcDbEntity
  8
0
100
AcDbLine
 62
7
  6
CONTINUOUS
 10
6.1329710258
 20
39.0269298147
 11
6.1329710258
 21
37.5275663761
  0
LINE
  5
238
100
AcDbEntity
  8
0
100
AcDbLine
 62
7
  6
CONTINUOUS
 10
6.1729261779
 20
39.2222294789
 11
6.1729261779
 21
39.0269298147
  0
LINE
  5
239
100
AcDbEntity
  8
0
100
AcDbLine
 62
7
  6
CONTINUOUS
 10
6.320555075
 20
58.4268794725
 11
6.3204164213
 21
58.3996272872
  0
LINE
  5
23A
100
AcDbEntity
  8
0
100
AcDbLine
 62
7
  6
CONTINUOUS
 10
6.484532607
 20
41.1466392184
 11
6.496931703
 21
41.2072456523
  0
LINE
  5
23B
100
AcDbEntity
  8
0
100
AcDbLine
 62
7
  6
CONTINUOUS
 10
6.5445328442
 20
41.4399186974
 11
6.5569400655
 21
41.5005648473
  0
LINE
  5
23C
100
AcDbEntity
  8
0
100
AcDbLine
 62
7
  6
CONTINUOUS
 10
5.7319487261
 20
37.1912416273
 11
5.7910429004
 21
37.480092296
  0
LINE
  5
23D
100
AcDbEntity
  8
0
100
AcDbLine
 62
7
  6
CONTINUOUS
 10
5.8504465076
 20
37.7704554638
 11
5.9095406819
 21
38.0593061326
  0
LINE
  5
23E
100
AcDbEntity
  8
0
100
AcDbLine
 62
7
  6
CONTINUOUS
 10
22.041068581
 20
57.9088166955
 11
21.9925437392
 21
57.8821549649
  0
LINE
  5
23F
100
AcDbEntity
  8
0
100
AcDbLine
 62
7
  6
CONTINUOUS
 10
20.8781694659
 20
57.9142729449
 11
20.8232767359
 21
57.8864410833
  0
LINE
  5
240
100
AcDbEntity
  8
0
100
AcDbLine
 62
7
  6
CONTINUOUS
 10
22.6695868474
 20
58.3109233191
 11
22.735014102
 21
58.3400018701
  0
LINE
  5
241
100
AcDbEntity
  8
0
100
AcDbLine
 62
7
  6
CONTINUOUS
 10
23.6829800791
 20
58.3381919242
 11
23.6175528245
 21
58.3091133732
  0
LINE
  5
242
100
AcDbEntity
  8
0
100
AcDbLine
 62
7
  6
CONTINUOUS
 10
23.0726096661
 20
57.9058571356
 11
23.140325953
 21
57.9359541112
  0
LINE
  5
243
100
AcDbEntity
  8
0
100
AcDbLine
 62
7
  6
CONTINUOUS
 10
6.7785557869
 20
51.2606570426
 11
6.3965813074
 21
55.6247783239
  0
LINE
  5
244
100
AcDbEntity
  8
0
100
AcDbLine
 62
7
  6
CONTINUOUS
 10
6.3204164213
 20
58.3996272872
 11
6.3204161857
 21
58.3996667189
  0
LINE
  5
245
100
AcDbEntity
  8
0
100
AcDbLine
 62
7
  6
CONTINUOUS
 10
6.3204161857
 20
58.3996624079
 11
6.3204161857
 21
57.3684941049
  0
LINE
  5
246
100
AcDbEntity
  8
0
100
AcDbLine
 62
7
  6
CONTINUOUS
 10
6.484532607
 20
41.1466392184
 11
6.484532607
 21
39.147487967
  0
LINE
  5
247
100
AcDbEntity
  8
0
100
AcDbLine
 62
7
  6
CONTINUOUS
 10
6.5445328442
 20
41.4399186974
 11
6.5445328442
 21
41.2072456523
  0
LINE
  5
248
100
AcDbEntity
  8
0
100
AcDbLine
 62
7
  6
CONTINUOUS
 10
6.7204161857
 20
60.698881299
 11
6.7204161857
 21
59.7826538965
  0
LINE
  5
249
100
AcDbEntity
  8
0
100
AcDbLine
 62
7
  6
CONTINUOUS
 10
7.1204161857
 20
59.4827812088
 11
7.1204161857
 21
59.6869846318
  0
LINE
  5
24A
100
AcDbEntity
  8
0
100
AcDbLine
 62
7
  6
CONTINUOUS
 10
7.8117651637
 20
60.6194943318
 11
7.8117651637
 21
60.5916256567
  0
LINE
  5
24B
100
AcDbEntity
  8
0
100
AcDbLine
 62
7
  6
CONTINUOUS
 10
7.8117651637
 20
59.3421561245
 11
7.8117651637
 21
59.6163767942
  0
LINE
  5
24C
100
AcDbEntity
  8
0
100
AcDbLine
 62
7
  6
CONTINUOUS
 10
8.0817478515
 20
41.0793414311
 11
8.0817478515
 21
39.0801901796
  0
LINE
  5
24D
100
AcDbEntity
  8
0
100
AcDbLine
 62
7
  6
CONTINUOUS
 10
6.3204161857
 20
58.3996667189
 11
6.3205550751
 21
58.4309991108
  0
LINE
  5
24E
100
AcDbEntity
  8
0
100
AcDbLine
 62
7
  6
CONTINUOUS
 10
23.2137282125
 20
57.9055876908
 11
23.1837707305
 21
57.885031837
  0
LINE
  5
24F
100
AcDbEntity
  8
0
100
AcDbLine
 62
7
  6
CONTINUOUS
 10
31.2739929547
 20
57.9453009855
 11
31.2017034151
 21
57.9154550887
  0
LINE
  5
250
100
AcDbEntity
  8
0
100
AcDbLine
 62
7
  6
CONTINUOUS
 10
11.7899289325
 20
16.9380451924
 11
17.6899289325
 21
16.9380451924
  0
LINE
  5
251
100
AcDbEntity
  8
0
100
AcDbLine
 62
7
  6
CONTINUOUS
 10
8.6899289325
 20
19.2596789857
 11
8.6899289325
 21
13.110886159
  0
LINE
  5
252
100
AcDbEntity
  8
0
100
AcDbLine
 62
7
  6
CONTINUOUS
 10
9.0323932267
 20
59.537133522
 11
9.0323932267
 21
59.3129780312
  0
LINE
  5
253
100
AcDbEntity
  8
0
100
AcDbLine
 62
7
  6
CONTINUOUS
 10
9.2008940324
 20
59.5290667142
 11
9.2008940324
 21
59.309309592
  0
LINE
  5
254
100
AcDbEntity
  8
0
100
AcDbLine
 62
7
  6
CONTINUOUS
 10
9.2505190994
 20
38.865212811
 11
9.2505190994
 21
37.3658493724
  0
LINE
  5
255
100
AcDbEntity
  8
0
100
AcDbLine
 62
7
  6
CONTINUOUS
 10
9.8591413343
 20
58.6716646741
 11
9.8591413343
 21
58.5735639779
  0
LINE
  5
256
100
AcDbEntity
  8
0
100
AcDbLine
 62
7
  6
CONTINUOUS
 10
9.9273703841
 20
58.5695435738
 11
9.9273703841
 21
59.2633090836
  0
LINE
  5
257
100
AcDbEntity
  8
0
100
AcDbLine
 62
7
  6
CONTINUOUS
 10
9.9349875218
 20
59.2628653545
 11
9.9349875218
 21
58.5562092295
  0
LINE
  5
258
100
AcDbEntity
  8
0
100
AcDbLine
 62
7
  6
CONTINUOUS
 10
10.2795134342
 20
58.5431210119
 11
10.2795134342
 21
59.2448918863
  0
LINE
  5
259
100
AcDbEntity
  8
0
100
AcDbLine
 62
7
  6
CONTINUOUS
 10
10.4854114385
 20
60.4940485293
 11
10.4854114385
 21
60.4153433061
  0
LINE
  5
25A
100
AcDbEntity
  8
0
100
AcDbLine
 62
7
  6
CONTINUOUS
 10
10.4854114385
 20
59.467571726
 11
10.4854114385
 21
59.1777960366
  0
LINE
  5
25B
100
AcDbEntity
  8
0
100
AcDbLine
 62
7
  6
CONTINUOUS
 10
10.5290924768
 20
58.5426854574
 11
10.5290924768
 21
59.1777960366
  0
LINE
  5
25C
100
AcDbEntity
  8
0
100
AcDbLine
 62
7
  6
CONTINUOUS
 10
9.5204533304
 20
41.3204920899
 11
9.5206790003
 21
41.323061374
  0
LINE
  5
25D
100
AcDbEntity
  8
0
100
AcDbLine
 62
7
  6
CONTINUOUS
 10
11.3705575273
 20
41.566709975
 11
11.3628036461
 21
41.5288092206
  0
LINE
  5
25E
100
AcDbEntity
  8
0
100
AcDbLine
 62
7
  6
CONTINUOUS
 10
11.2784904267
 20
41.1166885663
 11
11.2707365455
 21
41.0787878118
  0
LINE
  5
25F
100
AcDbEntity
  8
0
100
AcDbLine
 62
7
  6
CONTINUOUS
 10
34.3793969874
 20
57.9941112746
 11
34.3163250284
 21
57.9637517435
  0
LINE
  5
260
100
AcDbEntity
  8
0
100
AcDbLine
 62
7
  6
CONTINUOUS
 10
33.3815839742
 20
57.9758778427
 11
33.3153773732
 21
57.9456663149
  0
LINE
  5
261
100
AcDbEntity
  8
0
100
AcDbLine
 62
7
  6
CONTINUOUS
 10
32.3449696494
 20
57.9595844895
 11
32.2757163338
 21
57.9295407375
  0
LINE
  5
262
100
AcDbEntity
  8
0
100
AcDbLine
 62
7
  6
CONTINUOUS
 10
11.0954440253
 20
47.1993992778
 11
11.0954440253
 21
45.0752707703
  0
LINE
  5
263
100
AcDbEntity
  8
0
100
AcDbLine
 62
7
  6
CONTINUOUS
 10
11.1855293007
 20
37.3324036985
 11
11.1855293007
 21
38.8317671371
  0
LINE
  5
264
100
AcDbEntity
  8
0
100
AcDbLine
 62
7
  6
CONTINUOUS
 10
11.2425626223
 20
45.0563987197
 11
11.2425626223
 21
46.9841414846
  0
LINE
  5
265
100
AcDbEntity
  8
0
100
AcDbLine
 62
7
  6
CONTINUOUS
 10
11.2707365455
 20
41.0787878118
 11
11.2707365455
 21
39.0796365604
  0
LINE
  5
266
100
AcDbEntity
  8
0
100
AcDbLine
 62
7
  6
CONTINUOUS
 10
11.2784904267
 20
41.1166885663
 11
11.2784904267
 21
39.1175373149
  0
LINE
  5
267
100
AcDbEntity
  8
0
100
AcDbLine
 62
7
  6
CONTINUOUS
 10
11.3628036461
 20
39.5296579691
 11
11.3628036461
 21
41.5288092206
  0
LINE
  5
268
100
AcDbEntity
  8
0
100
AcDbLine
 62
7
  6
CONTINUOUS
 10
11.3705575273
 20
41.566709975
 11
11.3705575273
 21
39.5675587236
  0
LINE
  5
269
100
AcDbEntity
  8
0
100
AcDbLine
 62
7
  6
CONTINUOUS
 10
11.7899289325
 20
16.9380451924
 11
11.7899289325
 21
9.8570768529
  0
LINE
  5
26A
100
AcDbEntity
  8
0
100
AcDbLine
 62
7
  6
CONTINUOUS
 10
11.8204161857
 20
62.8313595549
 11
11.8204161857
 21
62.7517308059
  0
LINE
  5
26B
100
AcDbEntity
  8
0
100
AcDbLine
 62
7
  6
CONTINUOUS
 10
12.154857129
 20
49.1552998886
 11
12.1548632098
 21
46.9220253345
  0
LINE
  5
26C
100
AcDbEntity
  8
0
100
AcDbLine
 62
7
  6
CONTINUOUS
 10
12.3347594173
 20
58.4643442362
 11
12.3347594173
 21
59.1180206596
  0
LINE
  5
26D
100
AcDbEntity
  8
0
100
AcDbLine
 62
7
  6
CONTINUOUS
 10
12.3579472375
 20
45.0001220066
 11
12.3579472375
 21
49.1476213525
  0
LINE
  5
26E
100
AcDbEntity
  8
0
100
AcDbLine
 62
7
  6
CONTINUOUS
 10
12.5899289325
 20
9.6835627741
 11
12.5899289325
 21
16.9380451924
  0
LINE
  5
26F
100
AcDbEntity
  8
0
100
AcDbLine
 62
7
  6
CONTINUOUS
 10
11.3628036461
 20
39.5296579691
 11
11.3705575273
 21
39.5675587236
  0
LINE
  5
270
100
AcDbEntity
  8
0
100
AcDbLine
 62
7
  6
CONTINUOUS
 10
37.0982400289
 20
58.0596317604
 11
37.0454264324
 21
58.0289053338
  0
LINE
  5
271
100
AcDbEntity
  8
0
100
AcDbLine
 62
7
  6
CONTINUOUS
 10
36.2417123749
 20
58.0360780877
 11
36.1853210384
 21
58.0054632829
  0
LINE
  5
272
100
AcDbEntity
  8
0
100
AcDbLine
 62
7
  6
CONTINUOUS
 10
35.3341359005
 20
58.0142067069
 11
35.2743283898
 21
57.9837136878
  0
LINE
  5
273
100
AcDbEntity
  8
0
100
AcDbLine
 62
7
  6
CONTINUOUS
 10
41.9204030549
 20
59.7826538965
 11
41.7818212819
 21
59.7184413618
  0
LINE
  5
274
100
AcDbEntity
  8
0
100
AcDbLine
 62
7
  6
CONTINUOUS
 10
17.6899289325
 20
10.4836057765
 11
18.0899289325
 21
8.991418968
  0
LINE
  5
275
100
AcDbEntity
  8
0
100
AcDbLine
 62
7
  6
CONTINUOUS
 10
13.592910633
 20
60.3295452311
 11
13.5916205556
 21
60.4082509484
  0
LINE
  5
276
100
AcDbEntity
  8
0
100
AcDbLine
 62
7
  6
CONTINUOUS
 10
13.3033712419
 20
60.4148341555
 11
13.3033712419
 21
60.3324291118
  0
LINE
  5
277
100
AcDbEntity
  8
0
100
AcDbLine
 62
7
  6
CONTINUOUS
 10
13.9607392019
 20
59.0773492649
 11
13.9607392019
 21
59.3689585491
  0
LINE
  5
278
100
AcDbEntity
  8
0
100
AcDbLine
 62
7
  6
CONTINUOUS
 10
14.1962299452
 20
60.3272038885
 11
14.1962299452
 21
60.3944425242
  0
LINE
  5
279
100
AcDbEntity
  8
0
100
AcDbLine
 62
7
  6
CONTINUOUS
 10
14.2090002387
 20
59.3636880412
 11
14.2090002387
 21
59.0774754981
  0
LINE
  5
27A
100
AcDbEntity
  8
0
100
AcDbLine
 62
7
  6
CONTINUOUS
 10
14.2204161857
 20
44.6945852151
 11
14.2204161857
 21
39.3071644061
  0
LINE
  5
27B
100
AcDbEntity
  8
0
100
AcDbLine
 62
7
  6
CONTINUOUS
 10
14.2399289325
 20
10.4568686659
 11
14.2399289325
 21
16.9380451924
  0
LINE
  5
27C
100
AcDbEntity
  8
0
100
AcDbLine
 62
7
  6
CONTINUOUS
 10
14.3454440255
 20
44.9869750536
 11
14.3454442717
 21
45.8988135616
  0
LINE
  5
27D
100
AcDbEntity
  8
0
100
AcDbLine
 62
7
  6
CONTINUOUS
 10
14.664330022
 20
39.2827647041
 11
14.664330022
 21
39.2343602555
  0
LINE
  5
27E
100
AcDbEntity
  8
0
100
AcDbLine
 62
7
  6
CONTINUOUS
 10
15.2399289325
 20
10.4568686659
 11
15.2399289325
 21
16.9380451924
  0
LINE
  5
27F
100
AcDbEntity
  8
0
100
AcDbLine
 62
7
  6
CONTINUOUS
 10
15.2899289325
 20
10.6042674712
 11
15.2899289325
 21
16.9380451924
  0
LINE
  5
280
100
AcDbEntity
  8
0
100
AcDbLine
 62
7
  6
CONTINUOUS
 10
13.9246622519
 20
60.4006447466
 11
13.9234993967
 21
60.3297133254
  0
LINE
  5
281
100
AcDbEntity
  8
0
100
AcDbLine
 62
7
  6
CONTINUOUS
 10
14.170448922
 20
39.3213408386
 11
14.1705964268
 21
39.3231028811
  0
LINE
  5
282
100
AcDbEntity
  8
0
100
AcDbLine
 62
7
  6
CONTINUOUS
 10
38.6437120487
 20
58.1113757682
 11
38.5985415429
 21
58.0804536528
  0
LINE
  5
283
100
AcDbEntity
  8
0
100
AcDbLine
 62
7
  6
CONTINUOUS
 10
37.9000510795
 20
58.0847668648
 11
37.8509788415
 21
58.053938145
  0
LINE
  5
284
100
AcDbEntity
  8
0
100
AcDbLine
 62
7
  6
CONTINUOUS
 10
16.4065948787
 20
58.3958133269
 11
16.4072859173
 21
58.363592732
  0
LINE
  5
285
100
AcDbEntity
  8
0
100
AcDbLine
 62
7
  6
CONTINUOUS
 10
17.270629999
 20
39.0785949586
 11
17.270629999
 21
38.8733526758
  0
LINE
  5
286
100
AcDbEntity
  8
0
100
AcDbLine
 62
7
  6
CONTINUOUS
 10
17.2767384471
 20
39.108452882
 11
17.2767384471
 21
38.8733505548
  0
LINE
  5
287
100
AcDbEntity
  8
0
100
AcDbLine
 62
7
  6
CONTINUOUS
 10
17.2767384471
 20
39.108452882
 11
17.270629999
 21
39.0785949586
  0
LINE
  5
288
100
AcDbEntity
  8
0
100
AcDbLine
 62
7
  6
CONTINUOUS
 10
8.6899289325
 20
19.2596789857
 11
12.6647274281
 21
29.0934755052
  0
LINE
  5
289
100
AcDbEntity
  8
0
100
AcDbLine
 62
7
  6
CONTINUOUS
 10
12.7801080693
 20
29.0934554747
 11
8.6899289325
 21
18.9742030388
  0
LINE
  5
28A
100
AcDbEntity
  8
0
100
AcDbLine
 62
7
  6
CONTINUOUS
 10
39.0474435189
 20
58.6742451657
 11
39.0116830183
 21
58.6466883737
  0
LINE
  5
28B
100
AcDbEntity
  8
0
100
AcDbLine
 62
7
  6
CONTINUOUS
 10
39.3260384661
 20
58.1393445274
 11
39.2849230499
 21
58.1083377197
  0
LINE
  5
28C
100
AcDbEntity
  8
0
100
AcDbLine
 62
7
  6
CONTINUOUS
 10
11.0954440253
 20
46.9279119921
 11
10.8838403121
 21
47.5090090028
  0
LINE
  5
28D
100
AcDbEntity
  8
0
100
AcDbLine
 62
7
  6
CONTINUOUS
 10
19.0519407559
 20
39.1582637617
 11
19.0520256095
 21
38.8727341412
  0
LINE
  5
28E
100
AcDbEntity
  8
0
100
AcDbLine
 62
7
  6
CONTINUOUS
 10
17.6899289325
 20
16.9380451924
 11
17.6899289325
 21
10.4836057765
  0
LINE
  5
28F
100
AcDbEntity
  8
0
100
AcDbLine
 62
7
  6
CONTINUOUS
 10
18.6800661218
 20
58.0862326628
 11
18.6800661218
 21
59.0100288711
  0
LINE
  5
290
100
AcDbEntity
  8
0
100
AcDbLine
 62
7
  6
CONTINUOUS
 10
18.8063236671
 20
59.0086422662
 11
18.8063236671
 21
58.1452442353
  0
LINE
  5
291
100
AcDbEntity
  8
0
100
AcDbLine
 62
7
  6
CONTINUOUS
 10
19.0456039998
 20
60.325234358
 11
19.0456039998
 21
60.2553542839
  0
LINE
  5
292
100
AcDbEntity
  8
0
100
AcDbLine
 62
7
  6
CONTINUOUS
 10
19.123120479
 20
59.005163092
 11
19.123120479
 21
59.2958050367
  0
LINE
  5
293
100
AcDbEntity
  8
0
100
AcDbLine
 62
7
  6
CONTINUOUS
 10
19.2033048311
 20
60.2546530083
 11
19.2033048311
 21
60.3243841617
  0
LINE
  5
294
100
AcDbEntity
  8
0
100
AcDbLine
 62
7
  6
CONTINUOUS
 10
19.8572834845
 20
58.0524065586
 11
19.8572834845
 21
59.0053497276
  0
LINE
  5
295
100
AcDbEntity
  8
0
100
AcDbLine
 62
7
  6
CONTINUOUS
 10
39.5666717773
 20
58.6456619241
 11
39.5346722966
 21
58.6181688962
  0
LINE
  5
296
100
AcDbEntity
  8
0
100
AcDbLine
 62
7
  6
CONTINUOUS
 10
39.9441085051
 20
58.1685533759
 11
39.907191733
 21
58.1374705257
  0
LINE
  5
297
100
AcDbEntity
  8
0
100
AcDbLine
 62
7
  6
CONTINUOUS
 10
16.8763044624
 20
29.0927443612
 11
5.7319487261
 21
29.094679059
  0
LINE
  5
298
100
AcDbEntity
  8
0
100
AcDbLine
 62
7
  6
CONTINUOUS
 10
9.3209907497
 20
49.7957056742
 11
9.2182359796
 21
49.9719147204
  0
LINE
  5
299
100
AcDbEntity
  8
0
100
AcDbLine
 62
7
  6
CONTINUOUS
 10
9.8957985171
 20
58.5709982961
 11
9.6375488717
 21
59.2801923583
  0
LINE
  5
29A
100
AcDbEntity
  8
0
100
AcDbLine
 62
7
  6
CONTINUOUS
 10
11.1934148084
 20
58.5183948098
 11
11.186376081
 21
58.5398950068
  0
LINE
  5
29B
100
AcDbEntity
  8
0
100
AcDbLine
 62
7
  6
CONTINUOUS
 10
14.6397936599
 20
44.9919275769
 11
14.3454442717
 21
45.8988135616
  0
LINE
  5
29C
100
AcDbEntity
  8
0
100
AcDbLine
 62
7
  6
CONTINUOUS
 10
20.1055000602
 20
58.3062077345
 11
20.1055000602
 21
59.005412828
  0
LINE
  5
29D
100
AcDbEntity
  8
0
100
AcDbLine
 62
7
  6
CONTINUOUS
 10
21.8204161857
 20
45.7730970204
 11
21.8204161857
 21
44.8612584767
  0
LINE
  5
29E
100
AcDbEntity
  8
0
100
AcDbLine
 62
7
  6
CONTINUOUS
 10
40.4952754951
 20
58.1988772368
 11
40.4626889978
 21
58.1677270218
  0
LINE
  5
29F
100
AcDbEntity
  8
0
100
AcDbLine
 62
7
  6
CONTINUOUS
 10
38.9919237986
 20
31.628436427
 11
37.3653511003
 21
31.628436427
  0
LINE
  5
2A0
100
AcDbEntity
  8
0
100
AcDbLine
 62
7
  6
CONTINUOUS
 10
37.3653511003
 20
31.6575666257
 11
38.9919237986
 21
31.6575666257
  0
LINE
  5
2A1
100
AcDbEntity
  8
0
100
AcDbLine
 62
7
  6
CONTINUOUS
 10
38.9919237986
 20
31.8206957383
 11
38.9841150716
 21
31.8206957383
  0
LINE
  5
2A2
100
AcDbEntity
  8
0
100
AcDbLine
 62
7
  6
CONTINUOUS
 10
42.1974523679
 20
31.9106385357
 11
39.6974967622
 21
31.9110725365
  0
LINE
  5
2A3
100
AcDbEntity
  8
0
100
AcDbLine
 62
7
  6
CONTINUOUS
 10
9.3208831344
 20
49.7958627378
 11
11.4600401629
 21
46.6659374205
  0
LINE
  5
2A4
100
AcDbEntity
  8
0
100
AcDbLine
 62
7
  6
CONTINUOUS
 10
10.4673764409
 20
49.3910312373
 11
12.1548632098
 21
46.9220253345
  0
LINE
  5
2A5
100
AcDbEntity
  8
0
100
AcDbLine
 62
7
  6
CONTINUOUS
 10
9.2182359796
 20
49.9719147204
 11
9.3329106094
 21
49.8040806537
  0
LINE
  5
2A6
100
AcDbEntity
  8
0
100
AcDbLine
 62
7
  6
CONTINUOUS
 10
11.4718053069
 20
46.6739761087
 11
11.4942487527
 21
46.6411286634
  0
LINE
  5
2A7
100
AcDbEntity
  8
0
100
AcDbLine
 62
7
  6
CONTINUOUS
 10
18.4539752064
 20
58.3760065892
 11
18.4643982571
 21
58.3103333004
  0
LINE
  5
2A8
100
AcDbEntity
  8
0
100
AcDbLine
 62
7
  6
CONTINUOUS
 10
18.1584659847
 20
58.7924444969
 11
18.1230454967
 21
59.0161462678
  0
LINE
  5
2A9
100
AcDbEntity
  8
0
100
AcDbLine
 62
7
  6
CONTINUOUS
 10
22.6704161857
 20
39.1215370491
 11
22.6704161857
 21
44.5322807022
  0
LINE
  5
2AA
100
AcDbEntity
  8
0
100
AcDbLine
 62
7
  6
CONTINUOUS
 10
23.1829275221
 20
60.3029292315
 11
23.1829275221
 21
61.3025048572
  0
LINE
  5
2AB
100
AcDbEntity
  8
0
100
AcDbLine
 62
7
  6
CONTINUOUS
 10
23.2050315704
 20
44.817692184
 11
23.2050315704
 21
48.9855685092
  0
LINE
  5
2AC
100
AcDbEntity
  8
0
100
AcDbLine
 62
7
  6
CONTINUOUS
 10
23.5704161857
 20
46.7300290088
 11
23.5704161857
 21
49.1706651396
  0
LINE
  5
2AD
100
AcDbEntity
  8
0
100
AcDbLine
 62
7
  6
CONTINUOUS
 10
23.6991152899
 20
59.0063263803
 11
23.6991152897
 21
58.3381919242
  0
LINE
  5
2AE
100
AcDbEntity
  8
0
100
AcDbLine
 62
7
  6
CONTINUOUS
 10
23.8454161857
 20
58.3088960773
 11
23.8454161857
 21
58.3380370213
  0
LINE
  5
2AF
100
AcDbEntity
  8
0
100
AcDbLine
 62
7
  6
CONTINUOUS
 10
23.8933969526
 20
59.0063757697
 11
23.8933969526
 21
58.2901654038
  0
LINE
  5
2B0
100
AcDbEntity
  8
0
100
AcDbLine
 62
7
  6
CONTINUOUS
 10
24.2497055075
 20
57.934760572
 11
24.2497055075
 21
57.90459977
  0
LINE
  5
2B1
100
AcDbEntity
  8
0
100
AcDbLine
 62
7
  6
CONTINUOUS
 10
24.3911268638
 20
57.90459977
 11
24.3911268638
 21
57.934760572
  0
LINE
  5
2B2
100
AcDbEntity
  8
0
100
AcDbLine
 62
7
  6
CONTINUOUS
 10
22.8568332006
 20
59.2717381762
 11
22.8734281597
 21
60.2212949114
  0
LINE
  5
2B3
100
AcDbEntity
  8
0
100
AcDbLine
 62
7
  6
CONTINUOUS
 10
16.8763044624
 20
29.0927443612
 11
19.3317072207
 21
32.2909600972
  0
LINE
  5
2B4
100
AcDbEntity
  8
0
100
AcDbLine
 62
7
  6
CONTINUOUS
 10
40.9771792542
 20
58.2301862587
 11
40.949041091
 21
58.1989774288
  0
LINE
  5
2B5
100
AcDbEntity
  8
0
100
AcDbLine
 62
7
  6
CONTINUOUS
 10
45.556377138
 20
35.0081684044
 11
43.7378293394
 21
34.9176635263
  0
LINE
  5
2B6
100
AcDbEntity
  8
0
100
AcDbLine
 62
7
  6
CONTINUOUS
 10
36.7313982359
 20
32.287939452
 11
19.3317072207
 21
32.2909600972
  0
LINE
  5
2B7
100
AcDbEntity
  8
0
100
AcDbLine
 62
7
  6
CONTINUOUS
 10
42.0367488474
 20
32.3190622127
 11
36.7379536437
 21
32.3199821015
  0
LINE
  5
2B8
100
AcDbEntity
  8
0
100
AcDbLine
 62
7
  6
CONTINUOUS
 10
26.0796157982
 20
59.3068042279
 11
26.063034118
 21
60.256396857
  0
LINE
  5
2B9
100
AcDbEntity
  8
0
100
AcDbLine
 62
7
  6
CONTINUOUS
 10
26.0733063135
 20
60.2221083696
 11
26.0898747149
 21
59.2725600651
  0
LINE
  5
2BA
100
AcDbEntity
  8
0
100
AcDbLine
 62
7
  6
CONTINUOUS
 10
24.7954161857
 20
58.3088960773
 11
24.7954161857
 21
58.3380370213
  0
LINE
  5
2BB
100
AcDbEntity
  8
0
100
AcDbLine
 62
7
  6
CONTINUOUS
 10
25.0082647002
 20
58.3157865859
 11
25.0082647002
 21
59.0066591863
  0
LINE
  5
2BC
100
AcDbEntity
  8
0
100
AcDbLine
 62
7
  6
CONTINUOUS
 10
25.0704161857
 20
49.1706600165
 11
25.0704161857
 21
46.7300348212
  0
LINE
  5
2BD
100
AcDbEntity
  8
0
100
AcDbLine
 62
7
  6
CONTINUOUS
 10
25.1990657899
 20
59.0067076909
 11
25.1990657899
 21
58.1334938806
  0
LINE
  5
2BE
100
AcDbEntity
  8
0
100
AcDbLine
 62
7
  6
CONTINUOUS
 10
25.4358008009
 20
44.817692184
 11
25.4358008009
 21
48.9855600728
  0
LINE
  5
2BF
100
AcDbEntity
  8
0
100
AcDbLine
 62
7
  6
CONTINUOUS
 10
25.4579048492
 20
61.3025048572
 11
25.4579048492
 21
60.3029292315
  0
LINE
  5
2C0
100
AcDbEntity
  8
0
100
AcDbLine
 62
7
  6
CONTINUOUS
 10
25.9704161857
 20
44.5322641127
 11
25.9704161857
 21
39.1215370491
  0
LINE
  5
2C1
100
AcDbEntity
  8
0
100
AcDbLine
 62
7
  6
CONTINUOUS
 10
43.4541286647
 20
37.6187405972
 11
42.6482851941
 21
37.5122938109
  0
LINE
  5
2C2
100
AcDbEntity
  8
0
100
AcDbLine
 62
7
  6
CONTINUOUS
 10
43.7378293394
 20
37.2166874654
 11
45.556377138
 21
37.3071923436
  0
LINE
  5
2C3
100
AcDbEntity
  8
0
100
AcDbLine
 62
7
  6
CONTINUOUS
 10
43.537832891
 20
34.9176982463
 11
43.7378293394
 21
34.9176635263
  0
LINE
  5
2C4
100
AcDbEntity
  8
0
100
AcDbLine
 62
7
  6
CONTINUOUS
 10
9.2505190994
 20
37.3658493724
 11
6.1329710258
 21
37.5275663761
  0
LINE
  5
2C5
100
AcDbEntity
  8
0
100
AcDbLine
 62
7
  6
CONTINUOUS
 10
36.7313982359
 20
33.2875150777
 11
34.7314337514
 21
33.6403665825
  0
LINE
  5
2C6
100
AcDbEntity
  8
0
100
AcDbLine
 62
7
  6
CONTINUOUS
 10
34.7379891592
 20
33.672409232
 11
36.7379536437
 21
33.3195577272
  0
LINE
  5
2C7
100
AcDbEntity
  8
0
100
AcDbLine
 62
7
  6
CONTINUOUS
 10
26.8204161857
 20
44.86125852
 11
26.8204161857
 21
45.7730970344
  0
LINE
  5
2C8
100
AcDbEntity
  8
0
100
AcDbLine
 62
7
  6
CONTINUOUS
 10
28.7816308331
 20
59.007618434
 11
28.7816310456
 21
58.0543726284
  0
LINE
  5
2C9
100
AcDbEntity
  8
0
100
AcDbLine
 62
7
  6
CONTINUOUS
 10
30.7453676105
 20
59.0187776046
 11
30.705481165
 21
58.7757069552
  0
LINE
  5
2CA
100
AcDbEntity
  8
0
100
AcDbLine
 62
7
  6
CONTINUOUS
 10
11.2899289325
 20
8.991418968
 11
11.7899289325
 21
9.8570768529
  0
LINE
  5
2CB
100
AcDbEntity
  8
0
100
AcDbLine
 62
7
  6
CONTINUOUS
 10
36.4859753838
 20
46.9220196282
 11
38.1734493387
 21
49.391036248
  0
LINE
  5
2CC
100
AcDbEntity
  8
0
100
AcDbLine
 62
7
  6
CONTINUOUS
 10
42.6482851941
 20
39.0116572494
 11
43.1201861562
 21
39.0739923588
  0
LINE
  5
2CD
100
AcDbEntity
  8
0
100
AcDbLine
 62
7
  6
CONTINUOUS
 10
44.7041174296
 20
39.2123534231
 11
45.5731071855
 21
39.302503173
  0
LINE
  5
2CE
100
AcDbEntity
  8
0
100
AcDbLine
 62
7
  6
CONTINUOUS
 10
45.5997757762
 20
39.6267363006
 11
45.6403001151
 21
39.6309403306
  0
LINE
  5
2CF
100
AcDbEntity
  8
0
100
AcDbLine
 62
7
  6
CONTINUOUS
 10
43.1201709612
 20
39.0741073908
 11
44.7041174296
 21
39.2123534231
  0
LINE
  5
2D0
100
AcDbEntity
  8
0
100
AcDbLine
 62
7
  6
CONTINUOUS
 10
34.7314337514
 20
37.1862072186
 11
5.7319487261
 21
37.1912416273
  0
LINE
  5
2D1
100
AcDbEntity
  8
0
100
AcDbLine
 62
7
  6
CONTINUOUS
 10
43.7378293394
 20
37.2166874654
 11
34.7379891592
 21
37.2182498681
  0
LINE
  5
2D2
100
AcDbEntity
  8
0
100
AcDbLine
 62
7
  6
CONTINUOUS
 10
43.9023104797
 20
38.0206666716
 11
43.4541286647
 21
38.0207444775
  0
LINE
  5
2D3
100
AcDbEntity
  8
0
100
AcDbLine
 62
7
  6
CONTINUOUS
 10
5.9095406819
 20
38.0593061326
 11
6.1329710258
 21
38.0592673443
  0
LINE
  5
2D4
100
AcDbEntity
  8
0
100
AcDbLine
 62
7
  6
CONTINUOUS
 10
39.8430092461
 20
37.3224532741
 11
25.2119219151
 21
37.3275334671
  0
LINE
  5
2D5
100
AcDbEntity
  8
0
100
AcDbLine
 62
7
  6
CONTINUOUS
 10
23.188166104
 20
37.3282361537
 11
11.1855293007
 21
37.3324036985
  0
LINE
  5
2D6
100
AcDbEntity
  8
0
100
AcDbLine
 62
7
  6
CONTINUOUS
 10
8.0817478515
 20
39.0801901796
 11
6.484532607
 21
39.147487967
  0
LINE
  5
2D7
100
AcDbEntity
  8
0
100
AcDbLine
 62
7
  6
CONTINUOUS
 10
10.3599271509
 20
39.0776878045
 11
10.3124631857
 21
39.0798029199
  0
LINE
  5
2D8
100
AcDbEntity
  8
0
100
AcDbLine
 62
7
  6
CONTINUOUS
 10
6.1329710258
 20
39.0269298147
 11
9.2505190994
 21
38.865212811
  0
LINE
  5
2D9
100
AcDbEntity
  8
0
100
AcDbLine
 62
7
  6
CONTINUOUS
 10
10.5584039676
 20
38.8866078893
 11
7.440855894
 21
39.0483248931
  0
LINE
  5
2DA
100
AcDbEntity
  8
0
100
AcDbLine
 62
7
  6
CONTINUOUS
 10
7.6917912803
 20
58.1989774292
 11
7.6636531146
 21
58.2301862655
  0
LINE
  5
2DB
100
AcDbEntity
  8
0
100
AcDbLine
 62
7
  6
CONTINUOUS
 10
29.0319750725
 20
59.0076820754
 11
29.0319750725
 21
58.2096546177
  0
LINE
  5
2DC
100
AcDbEntity
  8
0
100
AcDbLine
 62
7
  6
CONTINUOUS
 10
29.722885251
 20
60.3278263514
 11
29.722885251
 21
60.2573272475
  0
LINE
  5
2DD
100
AcDbEntity
  8
0
100
AcDbLine
 62
7
  6
CONTINUOUS
 10
29.8030696031
 20
59.2985154057
 11
29.8030696031
 21
59.0078780995
  0
LINE
  5
2DE
100
AcDbEntity
  8
0
100
AcDbLine
 62
7
  6
CONTINUOUS
 10
29.8801419173
 20
60.3287443481
 11
29.8801419173
 21
60.2581085902
  0
LINE
  5
2DF
100
AcDbEntity
  8
0
100
AcDbLine
 62
7
  6
CONTINUOUS
 10
30.0762796803
 20
58.2061305562
 11
30.0762796803
 21
59.0110383042
  0
LINE
  5
2E0
100
AcDbEntity
  8
0
100
AcDbLine
 62
7
  6
CONTINUOUS
 10
30.1993046597
 20
59.0124613269
 11
30.1993046597
 21
58.3341457038
  0
LINE
  5
2E1
100
AcDbEntity
  8
0
100
AcDbLine
 62
7
  6
CONTINUOUS
 10
29.5888056745
 20
38.8690755699
 11
29.5888920128
 21
39.1596012135
  0
LINE
  5
2E2
100
AcDbEntity
  8
0
100
AcDbLine
 62
7
  6
CONTINUOUS
 10
31.2703813905
 20
39.0761645544
 11
31.2764898386
 21
39.1060224778
  0
LINE
  5
2E3
100
AcDbEntity
  8
0
100
AcDbLine
 62
7
  6
CONTINUOUS
 10
34.2953881396
 20
45.8988135419
 11
34.0010386966
 21
44.9919273674
  0
LINE
  5
2E4
100
AcDbEntity
  8
0
100
AcDbLine
 62
7
  6
CONTINUOUS
 10
38.7450338542
 20
58.5709982961
 11
39.0033734104
 21
59.2804392674
  0
LINE
  5
2E5
100
AcDbEntity
  8
0
100
AcDbLine
 62
7
  6
CONTINUOUS
 10
39.4225978091
 20
49.971913446
 11
39.3198580904
 21
49.7957267316
  0
LINE
  5
2E6
100
AcDbEntity
  8
0
100
AcDbLine
 62
7
  6
CONTINUOUS
 10
15.2399289325
 20
10.5191581926
 11
15.2899289325
 21
10.6042674712
  0
LINE
  5
2E7
100
AcDbEntity
  8
0
100
AcDbLine
 62
7
  6
CONTINUOUS
 10
14.9399289325
 20
9.9462129946
 11
15.2399289325
 21
10.4568686659
  0
LINE
  5
2E8
100
AcDbEntity
  8
0
100
AcDbLine
 62
7
  6
CONTINUOUS
 10
37.1465828262
 20
46.6411293704
 11
37.1690290329
 21
46.6739772812
  0
LINE
  5
2E9
100
AcDbEntity
  8
0
100
AcDbLine
 62
7
  6
CONTINUOUS
 10
39.3079255002
 20
49.8040884878
 11
39.4225978091
 21
49.971913446
  0
LINE
  5
2EA
100
AcDbEntity
  8
0
100
AcDbLine
 62
7
  6
CONTINUOUS
 10
37.1807921489
 20
46.6659391927
 11
39.3199588048
 21
49.7958737466
  0
LINE
  5
2EB
100
AcDbEntity
  8
0
100
AcDbLine
 62
7
  6
CONTINUOUS
 10
6.484532607
 20
39.2379515763
 11
6.1729261779
 21
39.2222294789
  0
LINE
  5
2EC
100
AcDbEntity
  8
0
100
AcDbLine
 62
7
  6
CONTINUOUS
 10
31.2746429312
 20
39.1900961175
 11
30.3583037353
 21
39.1699662212
  0
LINE
  5
2ED
100
AcDbEntity
  8
0
100
AcDbLine
 62
7
  6
CONTINUOUS
 10
44.7041174295
 20
41.0729836638
 11
45.5731071855
 21
41.0873981622
  0
LINE
  5
2EE
100
AcDbEntity
  8
0
100
AcDbLine
 62
7
  6
CONTINUOUS
 10
7.440855894
 20
39.0483248931
 11
6.1329710258
 21
39.0269298147
  0
LWPOLYLINE
  5
2EF
100
AcDbEntity
  8
0
100
AcDbPolyline
 62
7
  6
CONTINUOUS
 90
3
 70
0
 10
30.3583037353
 20
39.1699662212
 10
27.5070142494
 20
39.1315555282
 10
25.9704161857
 20
39.1215370491
  0
LINE
  5
2F0
100
AcDbEntity
  8
0
100
AcDbLine
 62
7
  6
CONTINUOUS
 10
22.6704161857
 20
39.1448901417
 11
25.9704161857
 21
39.1448901417
  0
LINE
  5
2F1
100
AcDbEntity
  8
0
100
AcDbLine
 62
7
  6
CONTINUOUS
 10
43.1201709612
 20
39.0741073908
 11
41.3932936134
 21
39.0744071826
  0
LINE
  5
2F2
100
AcDbEntity
  8
0
100
AcDbLine
 62
7
  6
CONTINUOUS
 10
37.7702659651
 20
39.0750361524
 11
31.2703813905
 21
39.0761645544
  0
LINE
  5
2F3
100
AcDbEntity
  8
0
100
AcDbLine
 62
7
  6
CONTINUOUS
 10
17.270629999
 20
39.0785949586
 11
11.2707365455
 21
39.0796365604
  0
LINE
  5
2F4
100
AcDbEntity
  8
0
100
AcDbLine
 62
7
  6
CONTINUOUS
 10
10.3124631857
 20
39.0798029199
 11
8.0817478515
 21
39.0801901796
  0
LINE
  5
2F5
100
AcDbEntity
  8
0
100
AcDbLine
 62
7
  6
CONTINUOUS
 10
11.3705575273
 20
39.5675587236
 11
14.2204161857
 21
39.5670639785
  0
LINE
  5
2F6
100
AcDbEntity
  8
0
100
AcDbLine
 62
7
  6
CONTINUOUS
 10
34.4204161857
 20
39.5635571901
 11
37.7702659651
 21
39.5629756449
  0
LINE
  5
2F7
100
AcDbEntity
  8
0
100
AcDbLine
 62
7
  6
CONTINUOUS
 10
11.1855293007
 20
38.8317671371
 11
39.8430092461
 21
38.8218167127
  0
LINE
  5
2F8
100
AcDbEntity
  8
0
100
AcDbLine
 62
7
  6
CONTINUOUS
 10
39.8608873134
 20
38.865508907
 11
27.4943377952
 21
38.8698028092
  0
LINE
  5
2F9
100
AcDbEntity
  8
0
100
AcDbLine
 62
7
  6
CONTINUOUS
 10
21.1318664236
 20
38.8720119808
 11
11.2034073681
 21
38.8754593314
  0
LINE
  5
2FA
100
AcDbEntity
  8
0
100
AcDbLine
 62
7
  6
CONTINUOUS
 10
41.3524148283
 20
39.0749604057
 11
41.3932936134
 21
39.0744071826
  0
LINE
  5
2FB
100
AcDbEntity
  8
0
100
AcDbLine
 62
7
  6
CONTINUOUS
 10
6.1729261779
 20
39.2222294789
 11
6.484532607
 21
39.2169887797
  0
LWPOLYLINE
  5
2FC
100
AcDbEntity
  8
0
100
AcDbPolyline
 62
7
  6
CONTINUOUS
 90
3
 70
0
 10
17.2767384471
 20
39.108452882
 10
15.5830008261
 20
39.1708754933
 10
14.6553071447
 20
39.2349837816
  0
LINE
  5
2FD
100
AcDbEntity
  8
0
100
AcDbLine
 62
7
  6
CONTINUOUS
 10
6.484532607
 20
41.1466392184
 11
8.0817478515
 21
41.0793414311
  0
LINE
  5
2FE
100
AcDbEntity
  8
0
100
AcDbLine
 62
7
  6
CONTINUOUS
 10
45.6836987532
 20
37.9295368324
 11
43.9023104797
 21
38.0206666716
  0
LINE
  5
2FF
100
AcDbEntity
  8
0
100
AcDbLine
 62
7
  6
CONTINUOUS
 10
34.3204161857
 20
39.354250837
 11
34.4204161857
 21
39.3323060481
  0
LINE
  5
300
100
AcDbEntity
  8
0
100
AcDbLine
 62
7
  6
CONTINUOUS
 10
8.1781433735
 20
58.1677270221
 11
8.1455568734
 21
58.1988772435
  0
LINE
  5
301
100
AcDbEntity
  8
0
100
AcDbLine
 62
7
  6
CONTINUOUS
 10
22.8631559642
 20
60.2555833988
 11
22.8734281597
 21
60.2212949114
  0
LINE
  5
302
100
AcDbEntity
  8
0
100
AcDbLine
 62
7
  6
CONTINUOUS
 10
31.2703813905
 20
39.0761645544
 11
31.2703813905
 21
38.8684916947
  0
LINE
  5
303
100
AcDbEntity
  8
0
100
AcDbLine
 62
7
  6
CONTINUOUS
 10
37.545388346
 20
46.9279119921
 11
37.7569924903
 21
47.5090101866
  0
LINE
  5
304
100
AcDbEntity
  8
0
100
AcDbLine
 62
7
  6
CONTINUOUS
 10
8.1806141746
 20
41.56726376
 11
6.5569400655
 21
41.5005648473
  0
LINE
  5
305
100
AcDbEntity
  8
0
100
AcDbLine
 62
7
  6
CONTINUOUS
 10
44.7713103591
 20
41.4014208214
 11
45.6403001151
 21
41.4158353198
  0
LINE
  5
306
100
AcDbEntity
  8
0
100
AcDbLine
 62
7
  6
CONTINUOUS
 10
44.7041174296
 20
41.0729836638
 11
37.7702659651
 21
41.0741874039
  0
LINE
  5
307
100
AcDbEntity
  8
0
100
AcDbLine
 62
7
  6
CONTINUOUS
 10
11.2707365455
 20
41.0787878118
 11
8.0817478515
 21
41.0793414311
  0
LINE
  5
308
100
AcDbEntity
  8
0
100
AcDbLine
 62
7
  6
CONTINUOUS
 10
38.7649825884
 20
41.2335053876
 11
44.7367454818
 21
41.2324686694
  0
LINE
  5
309
100
AcDbEntity
  8
0
100
AcDbLine
 62
7
  6
CONTINUOUS
 10
44.7713103591
 20
41.4014208214
 11
38.8505384373
 21
41.4024486875
  0
LINE
  5
30A
100
AcDbEntity
  8
0
100
AcDbLine
 62
7
  6
CONTINUOUS
 10
8.1806141746
 20
41.56726376
 11
11.3705575273
 21
41.566709975
  0
LINE
  5
30B
100
AcDbEntity
  8
0
100
AcDbLine
 62
7
  6
CONTINUOUS
 10
37.870086947
 20
41.5621095671
 11
44.8039384114
 21
41.560905827
  0
LINE
  5
30C
100
AcDbEntity
  8
0
100
AcDbLine
 62
7
  6
CONTINUOUS
 10
45.5997757762
 20
41.2177534864
 11
44.7367454818
 21
41.2324686694
  0
LINE
  5
30D
100
AcDbEntity
  8
0
100
AcDbLine
 62
7
  6
CONTINUOUS
 10
45.6669687057
 20
41.546190644
 11
44.8039384114
 21
41.560905827
  0
LINE
  5
30E
100
AcDbEntity
  8
0
100
AcDbLine
 62
7
  6
CONTINUOUS
 10
11.2425626223
 20
45.0563987197
 11
11.0954440253
 21
45.0752707703
  0
LINE
  5
30F
100
AcDbEntity
  8
0
100
AcDbLine
 62
7
  6
CONTINUOUS
 10
8.7336406383
 20
58.1374705261
 11
8.6967238629
 21
58.1685533827
  0
LINE
  5
310
100
AcDbEntity
  8
0
100
AcDbLine
 62
7
  6
CONTINUOUS
 10
9.1061600762
 20
58.6181688962
 11
9.0741602062
 21
58.6456619297
  0
LINE
  5
311
100
AcDbEntity
  8
0
100
AcDbLine
 62
7
  6
CONTINUOUS
 10
40.6899289325
 20
18.9742030388
 11
35.3084466887
 21
32.2881864812
  0
LINE
  5
312
100
AcDbEntity
  8
0
100
AcDbLine
 62
7
  6
CONTINUOUS
 10
38.0473021676
 20
25.5587664029
 11
40.6899289325
 21
19.0208113566
  0
LINE
  5
313
100
AcDbEntity
  8
0
100
AcDbLine
 62
7
  6
CONTINUOUS
 10
35.4238435236
 20
32.2881664479
 11
38.0816552945
 21
25.7126431424
  0
LINE
  5
314
100
AcDbEntity
  8
0
100
AcDbLine
 62
7
  6
CONTINUOUS
 10
26.0898747149
 20
59.2725600651
 11
26.0796157982
 21
59.3068042279
  0
LINE
  5
315
100
AcDbEntity
  8
0
100
AcDbLine
 62
7
  6
CONTINUOUS
 10
26.0733063135
 20
60.2221083696
 11
26.063034118
 21
60.256396857
  0
LINE
  5
316
100
AcDbEntity
  8
0
100
AcDbLine
 62
7
  6
CONTINUOUS
 10
34.9569166097
 20
60.3350603438
 11
34.9557912995
 21
60.4036905905
  0
LINE
  5
317
100
AcDbEntity
  8
0
100
AcDbLine
 62
7
  6
CONTINUOUS
 10
34.2953881396
 20
45.8988135419
 11
34.2953883458
 21
44.9869750106
  0
LINE
  5
318
100
AcDbEntity
  8
0
100
AcDbLine
 62
7
  6
CONTINUOUS
 10
34.3204161857
 20
39.2888148191
 11
34.3204161857
 21
39.3018158797
  0
LINE
  5
319
100
AcDbEntity
  8
0
100
AcDbLine
 62
7
  6
CONTINUOUS
 10
34.4204161857
 20
39.3071644061
 11
34.4204161857
 21
44.6945852151
  0
LINE
  5
31A
100
AcDbEntity
  8
0
100
AcDbLine
 62
7
  6
CONTINUOUS
 10
34.6731177844
 20
59.0826777918
 11
34.6731177844
 21
59.3688326604
  0
LINE
  5
31B
100
AcDbEntity
  8
0
100
AcDbLine
 62
7
  6
CONTINUOUS
 10
34.6857310465
 20
60.3965446145
 11
34.6857310465
 21
60.332412635
  0
LINE
  5
31C
100
AcDbEntity
  8
0
100
AcDbLine
 62
7
  6
CONTINUOUS
 10
34.7314337514
 20
37.1862072186
 11
34.7314337514
 21
33.6403665825
  0
LINE
  5
31D
100
AcDbEntity
  8
0
100
AcDbLine
 62
7
  6
CONTINUOUS
 10
34.7379891592
 20
33.672409232
 11
34.7379891592
 21
37.2182498681
  0
LINE
  5
31E
100
AcDbEntity
  8
0
100
AcDbLine
 62
7
  6
CONTINUOUS
 10
34.9214166384
 20
59.3740599425
 11
34.9214166384
 21
59.0826777918
  0
LINE
  5
31F
100
AcDbEntity
  8
0
100
AcDbLine
 62
7
  6
CONTINUOUS
 10
35.5753232414
 20
60.4200838226
 11
35.5753232414
 21
60.3380909849
  0
LINE
  5
320
100
AcDbEntity
  8
0
100
AcDbLine
 62
7
  6
CONTINUOUS
 10
35.2888252869
 20
60.412502894
 11
35.2875557314
 21
60.3350603438
  0
LINE
  5
321
100
AcDbEntity
  8
0
100
AcDbLine
 62
7
  6
CONTINUOUS
 10
34.4703834494
 20
39.3213408376
 11
34.4702359445
 21
39.319578795
  0
LINE
  5
322
100
AcDbEntity
  8
0
100
AcDbLine
 62
7
  6
CONTINUOUS
 10
34.7314337514
 20
37.1862072186
 11
34.7379891592
 21
37.2182498681
  0
LINE
  5
323
100
AcDbEntity
  8
0
100
AcDbLine
 62
7
  6
CONTINUOUS
 10
34.7379891592
 20
33.672409232
 11
34.7314337514
 21
33.6403665825
  0
LINE
  5
324
100
AcDbEntity
  8
0
100
AcDbLine
 62
7
  6
CONTINUOUS
 10
37.545388346
 20
45.0752707703
 11
37.398269749
 21
45.0563987197
  0
LWPOLYLINE
  5
325
100
AcDbEntity
  8
0
100
AcDbPolyline
 62
7
  6
CONTINUOUS
 90
6
 70
0
 10
26.621742064
 20
44.5810241094
 10
26.6471582165
 20
44.5823686177
 10
26.7252542584
 20
44.5850802585
 10
26.8287207396
 20
44.5874157696
 10
26.9557216305
 20
44.5890767381
 10
26.9995540446
 20
44.5894239648
  0
LWPOLYLINE
  5
326
100
AcDbEntity
  8
0
100
AcDbPolyline
 62
7
  6
CONTINUOUS
 90
4
 70
0
 10
33.3779602688
 20
44.6967021548
 10
33.6122491363
 20
44.7011504597
 10
33.8041260149
 20
44.7021329971
 10
34.1459318009
 20
44.6995367544
  0
LINE
  5
327
100
AcDbEntity
  8
0
100
AcDbLine
 62
7
  6
CONTINUOUS
 10
14.4949952997
 20
44.6995384859
 11
14.2004888103
 21
44.6945852151
  0
LINE
  5
328
100
AcDbEntity
  8
0
100
AcDbLine
 62
7
  6
CONTINUOUS
 10
14.6397936599
 20
44.9919275769
 11
14.3454440255
 21
44.9869750536
  0
LWPOLYLINE
  5
329
100
AcDbEntity
  8
0
100
AcDbPolyline
 62
7
  6
CONTINUOUS
 90
4
 70
0
 10
14.4949000249
 20
44.6995367448
 10
14.8333000622
 20
44.7021345776
 10
15.0262212817
 20
44.701173651
 10
15.2626179345
 20
44.6967085723
  0
LWPOLYLINE
  5
32A
100
AcDbEntity
  8
0
100
AcDbPolyline
 62
7
  6
CONTINUOUS
 90
5
 70
0
 10
21.6215567329
 20
44.5895506894
 10
21.7873929165
 20
44.5878276482
 10
21.9193443071
 20
44.5849727959
 10
22.0112128008
 20
44.5815679178
 10
22.0269324713
 20
44.5805828633
  0
LINE
  5
32B
100
AcDbEntity
  8
0
100
AcDbLine
 62
7
  6
CONTINUOUS
 10
34.440343561
 20
44.6945852151
 11
34.1459937985
 21
44.699535686
  0
LINE
  5
32C
100
AcDbEntity
  8
0
100
AcDbLine
 62
7
  6
CONTINUOUS
 10
34.2953883458
 20
44.9869750106
 11
34.0010386966
 21
44.9919273674
  0
LINE
  5
32D
100
AcDbEntity
  8
0
100
AcDbLine
 62
7
  6
CONTINUOUS
 10
15.2625090966
 20
44.6967114425
 11
15.2616987451
 21
44.6967351066
  0
LINE
  5
32E
100
AcDbEntity
  8
0
100
AcDbLine
 62
7
  6
CONTINUOUS
 10
10.0422908284
 20
58.0804536531
 11
9.9971203186
 21
58.111375775
  0
LINE
  5
32F
100
AcDbEntity
  8
0
100
AcDbLine
 62
7
  6
CONTINUOUS
 10
9.3559093214
 20
58.1083377201
 11
9.3147939016
 21
58.1393445342
  0
LINE
  5
330
100
AcDbEntity
  8
0
100
AcDbLine
 62
7
  6
CONTINUOUS
 10
9.6291493546
 20
58.6466883737
 11
9.5933884838
 21
58.6742451514
  0
LINE
  5
331
100
AcDbEntity
  8
0
100
AcDbLine
 62
7
  6
CONTINUOUS
 10
36.2828851338
 20
45.0001220066
 11
36.2828851338
 21
49.1483896662
  0
LINE
  5
332
100
AcDbEntity
  8
0
100
AcDbLine
 62
7
  6
CONTINUOUS
 10
36.4642869438
 20
58.4597354313
 11
36.4642869438
 21
59.1224189457
  0
LINE
  5
333
100
AcDbEntity
  8
0
100
AcDbLine
 62
7
  6
CONTINUOUS
 10
36.4859753838
 20
46.9220196282
 11
36.4859753837
 21
49.1556724964
  0
LINE
  5
334
100
AcDbEntity
  8
0
100
AcDbLine
 62
7
  6
CONTINUOUS
 10
36.7313982359
 20
32.287939452
 11
36.7313982359
 21
33.2875150777
  0
LINE
  5
335
100
AcDbEntity
  8
0
100
AcDbLine
 62
7
  6
CONTINUOUS
 10
36.7379536437
 20
32.3199821015
 11
36.7379536437
 21
33.3195577272
  0
LINE
  5
336
100
AcDbEntity
  8
0
100
AcDbLine
 62
7
  6
CONTINUOUS
 10
36.8204161857
 20
62.8313595549
 11
36.8204161857
 21
62.7449019456
  0
LINE
  5
337
100
AcDbEntity
  8
0
100
AcDbLine
 62
7
  6
CONTINUOUS
 10
37.3653511003
 20
31.6575666257
 11
37.3653511003
 21
31.628436427
  0
LINE
  5
338
100
AcDbEntity
  8
0
100
AcDbLine
 62
7
  6
CONTINUOUS
 10
37.398269749
 20
45.0563987197
 11
37.398269749
 21
46.984142851
  0
LINE
  5
339
100
AcDbEntity
  8
0
100
AcDbLine
 62
7
  6
CONTINUOUS
 10
37.545388346
 20
47.1994003106
 11
37.545388346
 21
45.0752707703
  0
LINE
  5
33A
100
AcDbEntity
  8
0
100
AcDbLine
 62
7
  6
CONTINUOUS
 10
37.7702659651
 20
41.0741874039
 11
37.7702659651
 21
39.0750361524
  0
LINE
  5
33B
100
AcDbEntity
  8
0
100
AcDbLine
 62
7
  6
CONTINUOUS
 10
37.8563234278
 20
41.4948338709
 11
37.8563234278
 21
41.1501991467
  0
LINE
  5
33C
100
AcDbEntity
  8
0
100
AcDbLine
 62
7
  6
CONTINUOUS
 10
37.9690701908
 20
59.1715900323
 11
37.9690705867
 21
58.510536078
  0
LINE
  5
33D
100
AcDbEntity
  8
0
100
AcDbLine
 62
7
  6
CONTINUOUS
 10
38.0473021676
 20
25.7510257142
 11
38.0473021676
 21
25.558766403
  0
LINE
  5
33E
100
AcDbEntity
  8
0
100
AcDbLine
 62
7
  6
CONTINUOUS
 10
37.7702659651
 20
41.0741874039
 11
37.7847627597
 21
41.1450473299
  0
LINE
  5
33F
100
AcDbEntity
  8
0
100
AcDbLine
 62
7
  6
CONTINUOUS
 10
37.8563234278
 20
41.4948338709
 11
37.870086947
 21
41.5621095671
  0
LINE
  5
340
100
AcDbEntity
  8
0
100
AcDbLine
 62
7
  6
CONTINUOUS
 10
36.7379536437
 20
33.3195577272
 11
36.7313982359
 21
33.2875150777
  0
LINE
  5
341
100
AcDbEntity
  8
0
100
AcDbLine
 62
7
  6
CONTINUOUS
 10
36.7313982359
 20
32.287939452
 11
36.7379536437
 21
32.3199821015
  0
LINE
  5
342
100
AcDbEntity
  8
0
100
AcDbLine
 62
7
  6
CONTINUOUS
 10
11.5954059389
 20
58.0289053342
 11
11.5425923378
 21
58.0596317672
  0
LINE
  5
343
100
AcDbEntity
  8
0
100
AcDbLine
 62
7
  6
CONTINUOUS
 10
10.7898535298
 20
58.0539381454
 11
10.7407812875
 21
58.0847668715
  0
LINE
  5
344
100
AcDbEntity
  8
0
100
AcDbLine
 62
7
  6
CONTINUOUS
 10
41.1899289325
 20
23.4288507627
 11
41.010009246
 21
24.1000352194
  0
LINE
  5
345
100
AcDbEntity
  8
0
100
AcDbLine
 62
7
  6
CONTINUOUS
 10
39.684215603
 20
29.0458646818
 11
38.9919237986
 21
31.628436427
  0
LINE
  5
346
100
AcDbEntity
  8
0
100
AcDbLine
 62
7
  6
CONTINUOUS
 10
38.9919237986
 20
31.6575666257
 11
38.8144513843
 21
32.3196216145
  0
LINE
  5
347
100
AcDbEntity
  8
0
100
AcDbLine
 62
7
  6
CONTINUOUS
 10
38.8503732003
 20
32.3196153783
 11
38.9919237986
 21
31.7915655396
  0
LINE
  5
348
100
AcDbEntity
  8
0
100
AcDbLine
 62
7
  6
CONTINUOUS
 10
38.9919237986
 20
31.8206957383
 11
39.684215603
 21
29.238123993
  0
LINE
  5
349
100
AcDbEntity
  8
0
100
AcDbLine
 62
7
  6
CONTINUOUS
 10
41.010009246
 20
24.2922945306
 11
41.1899289325
 21
23.6211100739
  0
LINE
  5
34A
100
AcDbEntity
  8
0
100
AcDbLine
 62
7
  6
CONTINUOUS
 10
37.3653511003
 20
31.628436427
 11
38.6189016042
 21
25.7334477265
  0
LINE
  5
34B
100
AcDbEntity
  8
0
100
AcDbLine
 62
7
  6
CONTINUOUS
 10
37.2245085285
 20
32.3198976339
 11
37.3653511003
 21
31.6575666257
  0
LINE
  5
34C
100
AcDbEntity
  8
0
100
AcDbLine
 62
7
  6
CONTINUOUS
 10
38.2217401764
 20
59.1807380013
 11
38.2217401764
 21
58.5465337426
  0
LINE
  5
34D
100
AcDbEntity
  8
0
100
AcDbLine
 62
7
  6
CONTINUOUS
 10
38.3360356923
 20
59.184876094
 11
38.3360356923
 21
59.4742677584
  0
LINE
  5
34E
100
AcDbEntity
  8
0
100
AcDbLine
 62
7
  6
CONTINUOUS
 10
38.3431785264
 20
60.4224251793
 11
38.3431785264
 21
60.4949292979
  0
LINE
  5
34F
100
AcDbEntity
  8
0
100
AcDbLine
 62
7
  6
CONTINUOUS
 10
38.5939045998
 20
58.5385939235
 11
38.5939045998
 21
59.2569222506
  0
LINE
  5
350
100
AcDbEntity
  8
0
100
AcDbLine
 62
7
  6
CONTINUOUS
 10
38.6030190064
 20
59.2574022714
 11
38.6030190064
 21
58.5384165191
  0
LINE
  5
351
100
AcDbEntity
  8
0
100
AcDbLine
 62
7
  6
CONTINUOUS
 10
38.8505384373
 20
41.2334905348
 11
38.8505384373
 21
41.4024486875
  0
LINE
  5
352
100
AcDbEntity
  8
0
100
AcDbLine
 62
7
  6
CONTINUOUS
 10
38.9919237986
 20
31.6575666257
 11
38.9919237986
 21
31.628436427
  0
LINE
  5
353
100
AcDbEntity
  8
0
100
AcDbLine
 62
7
  6
CONTINUOUS
 10
38.9919237986
 20
31.7915655396
 11
38.9919237986
 21
31.8206957383
  0
LINE
  5
354
100
AcDbEntity
  8
0
100
AcDbLine
 62
7
  6
CONTINUOUS
 10
39.5415654119
 20
59.5344003623
 11
39.5415654119
 21
59.3170226577
  0
LINE
  5
355
100
AcDbEntity
  8
0
100
AcDbLine
 62
7
  6
CONTINUOUS
 10
39.684215603
 20
29.238123993
 11
39.684215603
 21
29.0458646818
  0
LINE
  5
356
100
AcDbEntity
  8
0
100
AcDbLine
 62
7
  6
CONTINUOUS
 10
39.6974967622
 20
31.9110725365
 11
39.6974967622
 21
32.3194683148
  0
LINE
  5
357
100
AcDbEntity
  8
0
100
AcDbLine
 62
7
  6
CONTINUOUS
 10
39.7078427286
 20
59.5426943826
 11
39.7078427286
 21
59.3207762026
  0
LINE
  5
358
100
AcDbEntity
  8
0
100
AcDbLine
 62
7
  6
CONTINUOUS
 10
39.8430092461
 20
38.8218167127
 11
39.8430092461
 21
37.3224532741
  0
LINE
  5
359
100
AcDbEntity
  8
0
100
AcDbLine
 62
7
  6
CONTINUOUS
 10
13.3665039815
 20
57.9837136882
 11
13.3066964656
 21
58.0142067136
  0
LINE
  5
35A
100
AcDbEntity
  8
0
100
AcDbLine
 62
7
  6
CONTINUOUS
 10
12.4555113329
 20
58.0054632833
 11
12.3991199914
 21
58.0360780944
  0
LINE
  5
35B
100
AcDbEntity
  8
0
100
AcDbLine
 62
7
  6
CONTINUOUS
 10
42.3202772963
 20
58.430999104
 11
42.3204161857
 21
58.3996667189
  0
LINE
  5
35C
100
AcDbEntity
  8
0
100
AcDbLine
 62
7
  6
CONTINUOUS
 10
40.6899289325
 20
13.110886159
 11
40.6899289325
 21
19.0208113566
  0
LINE
  5
35D
100
AcDbEntity
  8
0
100
AcDbLine
 62
7
  6
CONTINUOUS
 10
40.9108037831
 20
60.6143177576
 11
40.9108037831
 21
60.6000399418
  0
LINE
  5
35E
100
AcDbEntity
  8
0
100
AcDbLine
 62
7
  6
CONTINUOUS
 10
40.9108037831
 20
59.3505704096
 11
40.9108037831
 21
59.6230434939
  0
LINE
  5
35F
100
AcDbEntity
  8
0
100
AcDbLine
 62
7
  6
CONTINUOUS
 10
41.010009246
 20
24.1000352194
 11
41.010009246
 21
24.2922945306
  0
LINE
  5
360
100
AcDbEntity
  8
0
100
AcDbLine
 62
7
  6
CONTINUOUS
 10
41.1899289325
 20
19.7403199667
 11
41.1899289325
 21
23.6211100739
  0
LINE
  5
361
100
AcDbEntity
  8
0
100
AcDbLine
 62
7
  6
CONTINUOUS
 10
41.5204161857
 20
59.4827812088
 11
41.5204161857
 21
59.6898110658
  0
LINE
  5
362
100
AcDbEntity
  8
0
100
AcDbLine
 62
7
  6
CONTINUOUS
 10
41.9204161857
 20
60.7132331099
 11
41.9204161857
 21
59.7826538965
  0
LINE
  5
363
100
AcDbEntity
  8
0
100
AcDbLine
 62
7
  6
CONTINUOUS
 10
42.3204161857
 20
58.3996624079
 11
42.3204161857
 21
57.3684941049
  0
LINE
  5
364
100
AcDbEntity
  8
0
100
AcDbLine
 62
7
  6
CONTINUOUS
 10
42.5254161857
 20
60.8322083035
 11
42.5254161857
 21
62.4315293047
  0
LINE
  5
365
100
AcDbEntity
  8
0
100
AcDbLine
 62
7
  6
CONTINUOUS
 10
42.6257368691
 20
37.4020782295
 11
42.6257368691
 21
38.9014416681
  0
LINE
  5
366
100
AcDbEntity
  8
0
100
AcDbLine
 62
7
  6
CONTINUOUS
 10
42.3204161857
 20
58.3996667189
 11
42.32041595
 21
58.3996272869
  0
LINE
  5
367
100
AcDbEntity
  8
0
100
AcDbLine
 62
7
  6
CONTINUOUS
 10
41.8622765844
 20
51.2606570426
 11
42.2442510639
 21
55.6247783239
  0
LINE
  5
368
100
AcDbEntity
  8
0
100
AcDbLine
 62
7
  6
CONTINUOUS
 10
42.6482851941
 20
39.0116572494
 11
42.6257368691
 21
38.9014416681
  0
LINE
  5
369
100
AcDbEntity
  8
0
100
AcDbLine
 62
7
  6
CONTINUOUS
 10
42.6482851941
 20
37.5122938109
 11
42.6257368691
 21
37.4020782295
  0
LINE
  5
36A
100
AcDbEntity
  8
0
100
AcDbLine
 62
7
  6
CONTINUOUS
 10
42.1974523679
 20
31.9106385357
 11
43.2963442385
 21
34.4996396328
  0
LINE
  5
36B
100
AcDbEntity
  8
0
100
AcDbLine
 62
7
  6
CONTINUOUS
 10
42.0367488474
 20
32.3190622127
 11
43.537832891
 21
34.9176982463
  0
LINE
  5
36C
100
AcDbEntity
  8
0
100
AcDbLine
 62
7
  6
CONTINUOUS
 10
16.3651160375
 20
57.929540738
 11
16.295862716
 21
57.9595844962
  0
LINE
  5
36D
100
AcDbEntity
  8
0
100
AcDbLine
 62
7
  6
CONTINUOUS
 10
15.3254549981
 20
57.9456663154
 11
15.2592483913
 21
57.9758778496
  0
LINE
  5
36E
100
AcDbEntity
  8
0
100
AcDbLine
 62
7
  6
CONTINUOUS
 10
14.324507343
 20
57.9637517439
 11
14.2614353785
 21
57.9941112813
  0
LINE
  5
36F
100
AcDbEntity
  8
0
100
AcDbLine
 62
7
  6
CONTINUOUS
 10
42.6482851941
 20
39.0116572494
 11
42.6482851941
 21
37.5122938109
  0
LINE
  5
370
100
AcDbEntity
  8
0
100
AcDbLine
 62
7
  6
CONTINUOUS
 10
43.4541286647
 20
39.1032550473
 11
43.4541286647
 21
37.6187405972
  0
LINE
  5
371
100
AcDbEntity
  8
0
100
AcDbLine
 62
7
  6
CONTINUOUS
 10
43.7378293394
 20
37.2166874654
 11
43.7378293394
 21
34.9176635263
  0
LINE
  5
372
100
AcDbEntity
  8
0
100
AcDbLine
 62
7
  6
CONTINUOUS
 10
44.7041174296
 20
41.0729836638
 11
44.7041174296
 21
39.2123534231
  0
LINE
  5
373
100
AcDbEntity
  8
0
100
AcDbLine
 62
7
  6
CONTINUOUS
 10
44.7713103591
 20
41.4014208214
 11
44.7713103591
 21
41.2324686694
  0
LINE
  5
374
100
AcDbEntity
  8
0
100
AcDbLine
 62
7
  6
CONTINUOUS
 10
45.6669687057
 20
41.546190644
 11
45.6403001151
 21
41.4158353198
  0
LINE
  5
375
100
AcDbEntity
  8
0
100
AcDbLine
 62
7
  6
CONTINUOUS
 10
45.5997757762
 20
41.2177534864
 11
45.5731071855
 21
41.0873981622
  0
LINE
  5
376
100
AcDbEntity
  8
0
100
AcDbLine
 62
7
  6
CONTINUOUS
 10
45.6669687057
 20
39.7612956548
 11
45.6403001151
 21
39.6309403306
  0
LINE
  5
377
100
AcDbEntity
  8
0
100
AcDbLine
 62
7
  6
CONTINUOUS
 10
45.5997757762
 20
39.4328584972
 11
45.5731071855
 21
39.302503173
  0
LINE
  5
378
100
AcDbEntity
  8
0
100
AcDbLine
 62
7
  6
CONTINUOUS
 10
17.4391289562
 20
57.9154550892
 11
17.3668394105
 21
57.9453009922
  0
LINE
  5
379
100
AcDbEntity
  8
0
100
AcDbLine
 62
7
  6
CONTINUOUS
 10
25.4570616413
 20
57.885031838
 11
25.4271041522
 21
57.9055876974
  0
LINE
  5
37A
100
AcDbEntity
  8
0
100
AcDbLine
 62
7
  6
CONTINUOUS
 10
45.556377138
 20
37.3071923436
 11
45.556377138
 21
35.0081684044
  0
LINE
  5
37B
100
AcDbEntity
  8
0
100
AcDbLine
 62
7
  6
CONTINUOUS
 10
45.5731071855
 20
41.0873981622
 11
45.5731071855
 21
39.302503173
  0
LINE
  5
37C
100
AcDbEntity
  8
0
100
AcDbLine
 62
7
  6
CONTINUOUS
 10
45.5972883303
 20
37.5071651054
 11
45.5972883303
 21
35.2081411663
  0
LINE
  5
37D
100
AcDbEntity
  8
0
100
AcDbLine
 62
7
  6
CONTINUOUS
 10
45.5997757762
 20
41.2177534864
 11
45.5997757762
 21
39.4328584972
  0
LINE
  5
37E
100
AcDbEntity
  8
0
100
AcDbLine
 62
7
  6
CONTINUOUS
 10
45.6403001151
 20
41.4158353198
 11
45.6403001151
 21
39.6309403306
  0
LINE
  5
37F
100
AcDbEntity
  8
0
100
AcDbLine
 62
7
  6
CONTINUOUS
 10
45.6669687058
 20
41.546190644
 11
45.6669687058
 21
39.7612956548
  0
LINE
  5
380
100
AcDbEntity
  8
0
100
AcDbLine
 62
7
  6
CONTINUOUS
 10
45.6836987532
 20
37.9295368324
 11
45.6836987532
 21
37.7295640705
  0
LINE
  5
381
100
AcDbEntity
  8
0
100
AcDbLine
 62
7
  6
CONTINUOUS
 10
47.0701143039
 20
37.6191110693
 11
47.0701143039
 21
35.3200871301
  0
LINE
  5
382
100
AcDbEntity
  8
0
100
AcDbLine
 62
7
  6
CONTINUOUS
 10
45.6836987532
 20
37.9295368324
 11
45.642787561
 21
37.7295640705
  0
LINE
  5
383
100
AcDbEntity
  8
0
100
AcDbLine
 62
7
  6
CONTINUOUS
 10
45.5972883303
 20
37.5071651054
 11
45.556377138
 21
37.3071923436
  0
LINE
  5
384
100
AcDbEntity
  8
0
100
AcDbLine
 62
7
  6
CONTINUOUS
 10
45.5972883303
 20
35.2081411663
 11
45.556377138
 21
35.0081684044
  0
LINE
  5
385
100
AcDbEntity
  8
0
100
AcDbLine
 62
7
  6
CONTINUOUS
 10
41.5204022485
 20
59.4827812088
 11
40.9108037831
 21
59.3505704096
  0
LWPOLYLINE
  5
386
100
AcDbEntity
  8
0
100
AcDbPolyline
 62
7
  6
CONTINUOUS
 90
3
 70
0
 10
38.6928564395
 20
57.0564353196
 10
35.8794374437
 20
56.9665511653
 10
35.7550872184
 20
56.9642845256
  0
LINE
  5
387
100
AcDbEntity
  8
0
100
AcDbLine
 62
7
  6
CONTINUOUS
 10
9.9480294724
 20
57.0544778617
 11
9.9285484449
 21
57.05506963
  0
LINE
  5
388
100
AcDbEntity
  8
0
100
AcDbLine
 62
7
  6
CONTINUOUS
 10
9.9206386389
 20
57.0538793943
 11
9.9038622788
 21
57.0545320039
  0
LINE
  5
389
100
AcDbEntity
  8
0
100
AcDbLine
 62
7
  6
CONTINUOUS
 10
7.8117651637
 20
59.3421561245
 11
7.1204301228
 21
59.4827812088
  0
LINE
  5
38A
100
AcDbEntity
  8
0
100
AcDbLine
 62
7
  6
CONTINUOUS
 10
7.8117651637
 20
60.5916256567
 11
7.598488046
 21
60.6350085476
  0
LINE
  5
38B
100
AcDbEntity
  8
0
100
AcDbLine
 62
7
  6
CONTINUOUS
 10
25.0232795469
 20
58.3091133732
 11
24.9578522922
 21
58.3381919242
  0
LINE
  5
38C
100
AcDbEntity
  8
0
100
AcDbLine
 62
7
  6
CONTINUOUS
 10
25.9058182693
 20
58.3400018701
 11
25.9712455239
 21
58.3109233191
  0
LINE
  5
38D
100
AcDbEntity
  8
0
100
AcDbLine
 62
7
  6
CONTINUOUS
 10
25.5005064141
 20
57.9359541074
 11
25.5682227091
 21
57.9058571396
  0
LINE
  5
38E
100
AcDbEntity
  8
0
100
AcDbLine
 62
7
  6
CONTINUOUS
 10
28.9683533634
 20
57.8937569837
 11
28.9108217853
 21
57.9219330813
  0
LINE
  5
38F
100
AcDbEntity
  8
0
100
AcDbLine
 62
7
  6
CONTINUOUS
 10
27.8175556354
 20
57.8864410831
 11
27.762662899
 21
57.9142729515
  0
LINE
  5
390
100
AcDbEntity
  8
0
100
AcDbLine
 62
7
  6
CONTINUOUS
 10
26.6482886322
 20
57.8821549654
 11
26.5997637838
 21
57.908816702
  0
LINE
  5
391
100
AcDbEntity
  8
0
100
AcDbLine
 62
7
  6
CONTINUOUS
 10
42.2816856536
 20
58.3653337706
 11
42.2771135127
 21
58.392590443
  0
LINE
  5
392
100
AcDbEntity
  8
0
100
AcDbLine
 62
7
  6
CONTINUOUS
 10
39.1899289325
 20
8.991418968
 11
40.6899289325
 21
13.110886159
  0
LINE
  5
393
100
AcDbEntity
  8
0
100
AcDbLine
 62
7
  6
CONTINUOUS
 10
40.6899289325
 20
19.0208113566
 11
41.1223997233
 21
19.5507762537
  0
LINE
  5
394
100
AcDbEntity
  8
0
100
AcDbLine
 62
7
  6
CONTINUOUS
 10
21.9008571199
 20
57.9093544233
 11
22.0344106078
 21
57.9389061535
  0
LINE
  5
395
100
AcDbEntity
  8
0
100
AcDbLine
 62
7
  6
CONTINUOUS
 10
22.5732735719
 20
58.3404659157
 11
22.4426992321
 21
58.3115742765
  0
LINE
  5
396
100
AcDbEntity
  8
0
100
AcDbLine
 62
7
  6
CONTINUOUS
 10
21.5008266138
 20
58.3151864177
 11
21.6314009535
 21
58.3440780569
  0
LWPOLYLINE
  5
397
100
AcDbEntity
  8
0
100
AcDbPolyline
 62
7
  6
CONTINUOUS
 90
4
 70
0
 10
42.5253391311
 20
60.832208303
 10
41.7436979725
 20
60.6784764791
 10
40.8759392991
 20
60.6116321095
 10
38.4296347746
 20
60.4989129696
  0
LINE
  5
398
100
AcDbEntity
  8
0
100
AcDbLine
 62
7
  6
CONTINUOUS
 10
20.739465497
 20
57.9150766532
 11
20.9025656602
 21
57.9389629443
  0
LINE
  5
399
100
AcDbEntity
  8
0
100
AcDbLine
 62
7
  6
CONTINUOUS
 10
21.4710485975
 20
58.3448492579
 11
21.275886312
 21
58.316268249
  0
LINE
  5
39A
100
AcDbEntity
  8
0
100
AcDbLine
 62
7
  6
CONTINUOUS
 10
20.3441402956
 20
58.3216671178
 11
20.5393025811
 21
58.3502481268
  0
LWPOLYLINE
  5
39B
100
AcDbEntity
  8
0
100
AcDbPolyline
 62
7
  6
CONTINUOUS
 90
3
 70
0
 10
41.7818212819
 20
59.7184413618
 10
40.5697025682
 20
59.5856845101
 10
40.2556024346
 20
59.5700169918
  0
LINE
  5
39C
100
AcDbEntity
  8
0
100
AcDbLine
 62
7
  6
CONTINUOUS
 10
19.5934080547
 20
57.9229993219
 11
19.7473795964
 21
57.9397388766
  0
LINE
  5
39D
100
AcDbEntity
  8
0
100
AcDbLine
 62
7
  6
CONTINUOUS
 10
20.3810250526
 20
58.3513231809
 11
20.1221105362
 21
58.3231751905
  0
LINE
  5
39E
100
AcDbEntity
  8
0
100
AcDbLine
 62
7
  6
CONTINUOUS
 10
19.2044810012
 20
58.3303376682
 11
19.4633955176
 21
58.3584856586
  0
LINE
  5
39F
100
AcDbEntity
  8
0
100
AcDbLine
 62
7
  6
CONTINUOUS
 10
18.4675923869
 20
57.9330885031
 11
18.6148953729
 21
57.9457296414
  0
LINE
  5
3A0
100
AcDbEntity
  8
0
100
AcDbLine
 62
7
  6
CONTINUOUS
 10
19.3078705853
 20
58.3598599623
 11
18.9863125498
 21
58.3322655245
  0
LINE
  5
3A1
100
AcDbEntity
  8
0
100
AcDbLine
 62
7
  6
CONTINUOUS
 10
18.0867289267
 20
58.3411609402
 11
18.4082869622
 21
58.3687553781
  0
LINE
  5
3A2
100
AcDbEntity
  8
0
100
AcDbLine
 62
7
  6
CONTINUOUS
 10
17.3668394092
 20
57.9453009936
 11
17.4967423028
 21
57.954436877
  0
LINE
  5
3A3
100
AcDbEntity
  8
0
100
AcDbLine
 62
7
  6
CONTINUOUS
 10
18.2561806078
 20
58.3704230463
 11
17.873356014
 21
58.3435003246
  0
LINE
  5
3A4
100
AcDbEntity
  8
0
100
AcDbLine
 62
7
  6
CONTINUOUS
 10
16.9956704581
 20
58.3540905868
 11
17.3784950519
 21
58.3810133085
  0
LINE
  5
3A5
100
AcDbEntity
  8
0
100
AcDbLine
 62
7
  6
CONTINUOUS
 10
16.2958627147
 20
57.9595844976
 11
16.4221513429
 21
57.9670446127
  0
LINE
  5
3A6
100
AcDbEntity
  8
0
100
AcDbLine
 62
7
  6
CONTINUOUS
 10
17.230458618
 20
58.3829672002
 11
16.7880067796
 21
58.3568314818
  0
LINE
  5
3A7
100
AcDbEntity
  8
0
100
AcDbLine
 62
7
  6
CONTINUOUS
 10
15.9359776752
 20
58.3690712414
 11
16.3784295135
 21
58.3952069597
  0
LINE
  5
3A8
100
AcDbEntity
  8
0
100
AcDbLine
 62
7
  6
CONTINUOUS
 10
15.2592483901
 20
57.975877851
 11
15.3813081847
 21
57.9820365643
  0
LINE
  5
3A9
100
AcDbEntity
  8
0
100
AcDbLine
 62
7
  6
CONTINUOUS
 10
16.235096915
 20
58.3974387078
 11
15.7349124788
 21
58.37220191
  0
LINE
  5
3AA
100
AcDbEntity
  8
0
100
AcDbLine
 62
7
  6
CONTINUOUS
 10
14.9121883452
 20
58.3860387544
 11
15.4123727814
 21
58.4112755522
  0
LINE
  5
3AB
100
AcDbEntity
  8
0
100
AcDbLine
 62
7
  6
CONTINUOUS
 10
38.336557195
 20
59.4742937713
 11
38.1938558862
 21
59.4671757375
  0
LINE
  5
3AC
100
AcDbEntity
  8
0
100
AcDbLine
 62
7
  6
CONTINUOUS
 10
14.2614353773
 20
57.9941112828
 11
14.3787002464
 21
57.9992237727
  0
LINE
  5
3AD
100
AcDbEntity
  8
0
100
AcDbLine
 62
7
  6
CONTINUOUS
 10
15.2743577904
 20
58.4137756001
 11
14.7185826228
 21
58.3895457907
  0
LINE
  5
3AE
100
AcDbEntity
  8
0
100
AcDbLine
 62
7
  6
CONTINUOUS
 10
13.9286864911
 20
58.4049204684
 11
14.4844616587
 21
58.4291502778
  0
LINE
  5
3AF
100
AcDbEntity
  8
0
100
AcDbLine
 62
7
  6
CONTINUOUS
 10
13.3066964645
 20
58.014206715
 11
13.4186370069
 21
58.0184564775
  0
LINE
  5
3B0
100
AcDbEntity
  8
0
100
AcDbLine
 62
7
  6
CONTINUOUS
 10
14.3523552767
 20
58.43190792
 11
13.7433692923
 21
58.4087888547
  0
LINE
  5
3B1
100
AcDbEntity
  8
0
100
AcDbLine
 62
7
  6
CONTINUOUS
 10
12.989683619
 20
58.425635529
 11
13.5986696034
 21
58.4487545943
  0
LINE
  5
3B2
100
AcDbEntity
  8
0
100
AcDbLine
 62
7
  6
CONTINUOUS
 10
12.3991199904
 20
58.0360780958
 11
12.5052388614
 21
58.0396031285
  0
LINE
  5
3B3
100
AcDbEntity
  8
0
100
AcDbLine
 62
7
  6
CONTINUOUS
 10
13.4730375301
 20
58.451758022
 11
12.8134485004
 21
58.4298487003
  0
LINE
  5
3B4
100
AcDbEntity
  8
0
100
AcDbLine
 62
7
  6
CONTINUOUS
 10
12.0992006833
 20
58.4480952311
 11
12.758789713
 21
58.4700045528
  0
LINE
  5
3B5
100
AcDbEntity
  8
0
100
AcDbLine
 62
7
  6
CONTINUOUS
 10
11.5425923367
 20
58.0596317686
 11
11.6424227461
 21
58.0625399548
  0
LINE
  5
3B6
100
AcDbEntity
  8
0
100
AcDbLine
 62
7
  6
CONTINUOUS
 10
12.6401699242
 20
58.473240905
 11
11.9328023107
 21
58.4526351459
  0
LINE
  5
3B7
100
AcDbEntity
  8
0
100
AcDbLine
 62
7
  6
CONTINUOUS
 10
11.2610508686
 20
58.4722033988
 11
11.968418482
 21
58.492809158
  0
LINE
  5
3B8
100
AcDbEntity
  8
0
100
AcDbLine
 62
7
  6
CONTINUOUS
 10
38.1938558862
 20
59.4671757375
 11
34.8218477503
 21
59.3712267543
  0
LINE
  5
3B9
100
AcDbEntity
  8
0
100
AcDbLine
 62
7
  6
CONTINUOUS
 10
10.7407812865
 20
58.084766873
 11
10.8338869591
 21
58.0871454901
  0
LINE
  5
3BA
100
AcDbEntity
  8
0
100
AcDbLine
 62
7
  6
CONTINUOUS
 10
11.8573189259
 20
58.496264576
 11
11.1052017854
 21
58.4770506165
  0
LINE
  5
3BB
100
AcDbEntity
  8
0
100
AcDbLine
 62
7
  6
CONTINUOUS
 10
10.4788232611
 20
58.4978567973
 11
11.2309404016
 21
58.5170707568
  0
LINE
  5
3BC
100
AcDbEntity
  8
0
100
AcDbLine
 62
7
  6
CONTINUOUS
 10
9.9971203177
 20
58.1113757764
 11
10.0830961571
 21
58.1132976232
  0
LINE
  5
3BD
100
AcDbEntity
  8
0
100
AcDbLine
 62
7
  6
CONTINUOUS
 10
11.1278368235
 20
58.520730444
 11
10.334190837
 21
58.5029905613
  0
LINE
  5
3BE
100
AcDbEntity
  8
0
100
AcDbLine
 62
7
  6
CONTINUOUS
 10
9.7558674795
 20
58.5249455747
 11
10.549513466
 21
58.5426854574
  0
LINE
  5
3BF
100
AcDbEntity
  8
0
100
AcDbLine
 62
7
  6
CONTINUOUS
 10
9.3147939008
 20
58.1393445357
 11
9.3932669803
 21
58.1408720203
  0
LINE
  5
3C0
100
AcDbEntity
  8
0
100
AcDbLine
 62
7
  6
CONTINUOUS
 10
39.5455530399
 20
59.1127603714
 11
38.9380077862
 21
59.1009350033
  0
LINE
  5
3C1
100
AcDbEntity
  8
0
100
AcDbLine
 62
7
  6
CONTINUOUS
 10
10.4548473714
 20
58.5465337426
 11
9.6230710528
 21
58.5303439015
  0
LINE
  5
3C2
100
AcDbEntity
  8
0
100
AcDbLine
 62
7
  6
CONTINUOUS
 10
9.0952793314
 20
58.5533537328
 11
9.92705565
 21
58.5695435738
  0
LINE
  5
3C3
100
AcDbEntity
  8
0
100
AcDbLine
 62
7
  6
CONTINUOUS
 10
38.950214098
 20
59.1344554516
 11
39.0177613186
 21
59.1357702026
  0
LINE
  5
3C4
100
AcDbEntity
  8
0
100
AcDbLine
 62
7
  6
CONTINUOUS
 10
38.9767328156
 20
58.6778132779
 11
39.0473635359
 21
58.6790011082
  0
LINE
  5
3C5
100
AcDbEntity
  8
0
100
AcDbLine
 62
7
  6
CONTINUOUS
 10
8.6967238622
 20
58.1685533842
 11
8.7673545459
 21
58.1697413354
  0
LINE
  5
3C6
100
AcDbEntity
  8
0
100
AcDbLine
 62
7
  6
CONTINUOUS
 10
40.1409448146
 20
59.0831544807
 11
39.2745999578
 21
59.0685840087
  0
LINE
  5
3C7
100
AcDbEntity
  8
0
100
AcDbLine
 62
7
  6
CONTINUOUS
 10
9.8412324135
 20
58.5735639779
 11
8.9748875567
 21
58.5589935059
  0
LINE
  5
3C8
100
AcDbEntity
  8
0
100
AcDbLine
 62
7
  6
CONTINUOUS
 10
8.4998875567
 20
58.5829596234
 11
9.3662324135
 21
58.5975300954
  0
LINE
  5
3C9
100
AcDbEntity
  8
0
100
AcDbLine
 62
7
  6
CONTINUOUS
 10
38.9357885347
 20
59.0948405904
 11
39.6659448146
 21
59.1071205982
  0
LINE
  5
3CA
100
AcDbEntity
  8
0
100
AcDbLine
 62
7
  6
CONTINUOUS
 10
34.8218477503
 20
59.3712267543
 11
30.8095171774
 21
59.3066406012
  0
LINE
  5
3CB
100
AcDbEntity
  8
0
100
AcDbLine
 62
7
  6
CONTINUOUS
 10
39.5041227684
 20
58.6493571183
 11
39.5666058044
 21
58.650254662
  0
LINE
  5
3CC
100
AcDbEntity
  8
0
100
AcDbLine
 62
7
  6
CONTINUOUS
 10
8.1455568727
 20
58.198877245
 11
8.2080399559
 21
58.1997748931
  0
LINE
  5
3CD
100
AcDbEntity
  8
0
100
AcDbLine
 62
7
  6
CONTINUOUS
 10
40.6685906568
 20
59.0524776345
 11
39.7713870836
 21
59.0395889246
  0
LINE
  5
3CE
100
AcDbEntity
  8
0
100
AcDbLine
 62
7
  6
CONTINUOUS
 10
9.2896195434
 20
58.6017054025
 11
8.3924159702
 21
58.5888166925
  0
LINE
  5
3CF
100
AcDbEntity
  8
0
100
AcDbLine
 62
7
  6
CONTINUOUS
 10
7.9722417145
 20
58.6136364696
 11
8.8694452877
 21
58.6265251796
  0
LINE
  5
3D0
100
AcDbEntity
  8
0
100
AcDbLine
 62
7
  6
CONTINUOUS
 10
39.3512128279
 20
59.0644087017
 11
40.2484164011
 21
59.0772974116
  0
LINE
  5
3D1
100
AcDbEntity
  8
0
100
AcDbLine
 62
7
  6
CONTINUOUS
 10
7.663653114
 20
58.2301862669
 11
7.717718918
 21
58.2308386753
  0
LINE
  5
3D2
100
AcDbEntity
  8
0
100
AcDbLine
 62
7
  6
CONTINUOUS
 10
41.1262311062
 20
59.0208611957
 11
40.2020107799
 21
59.0097094392
  0
LINE
  5
3D3
100
AcDbEntity
  8
0
100
AcDbLine
 62
7
  6
CONTINUOUS
 10
8.8023708522
 20
58.6308375103
 11
7.8781505259
 21
58.6196857538
  0
LINE
  5
3D4
100
AcDbEntity
  8
0
100
AcDbLine
 62
7
  6
CONTINUOUS
 10
7.5146012651
 20
58.6452529084
 11
8.4388215914
 21
58.6564046649
  0
LINE
  5
3D5
100
AcDbEntity
  8
0
100
AcDbLine
 62
7
  6
CONTINUOUS
 10
39.8384615192
 20
59.0352765939
 11
40.7626818454
 21
59.0464283503
  0
LINE
  5
3D6
100
AcDbEntity
  8
0
100
AcDbLine
 62
7
  6
CONTINUOUS
 10
7.253076172
 20
58.2623463798
 11
7.2984915529
 21
58.2627954997
  0
LINE
  5
3D7
100
AcDbEntity
  8
0
100
AcDbLine
 62
7
  6
CONTINUOUS
 10
41.511906476
 20
58.9884405507
 11
40.56462705
 21
58.9790735013
  0
LINE
  5
3D8
100
AcDbEntity
  8
0
100
AcDbLine
 62
7
  6
CONTINUOUS
 10
8.3815728134
 20
58.6608355532
 11
7.4342933874
 21
58.6514685038
  0
LINE
  5
3D9
100
AcDbEntity
  8
0
100
AcDbLine
 62
7
  6
CONTINUOUS
 10
7.1289258954
 20
58.6776735534
 11
8.0762053214
 21
58.6870406029
  0
LINE
  5
3DA
100
AcDbEntity
  8
0
100
AcDbLine
 62
7
  6
CONTINUOUS
 10
40.2592595579
 20
59.0052785509
 11
41.2065389839
 21
59.0146456004
  0
LINE
  5
3DB
100
AcDbEntity
  8
0
100
AcDbLine
 62
7
  6
CONTINUOUS
 10
6.9155842002
 20
58.2952198692
 11
6.9521534451
 21
58.2955053355
  0
LINE
  5
3DC
100
AcDbEntity
  8
0
100
AcDbLine
 62
7
  6
CONTINUOUS
 10
41.823965245
 20
58.9553545297
 11
40.8576831153
 21
58.9478122984
  0
LINE
  5
3DD
100
AcDbEntity
  8
0
100
AcDbLine
 62
7
  6
CONTINUOUS
 10
8.0290273489
 20
58.6915710751
 11
7.0627452191
 21
58.6840288438
  0
LINE
  5
3DE
100
AcDbEntity
  8
0
100
AcDbLine
 62
7
  6
CONTINUOUS
 10
6.8168671263
 20
58.7107595744
 11
7.7831492561
 21
58.7183018057
  0
LINE
  5
3DF
100
AcDbEntity
  8
0
100
AcDbLine
 62
7
  6
CONTINUOUS
 10
40.6118050224
 20
58.9745430291
 11
41.5780871522
 21
58.9820852604
  0
LINE
  5
3E0
100
AcDbEntity
  8
0
100
AcDbLine
 62
7
  6
CONTINUOUS
 10
6.6526223909
 20
58.3286659656
 11
6.6801879849
 21
58.3288257115
  0
LINE
  5
3E1
100
AcDbEntity
  8
0
100
AcDbLine
 62
7
  6
CONTINUOUS
 10
42.0610711298
 20
58.9217448122
 11
41.0799240647
 21
58.916059696
  0
LINE
  5
3E2
100
AcDbEntity
  8
0
100
AcDbLine
 62
7
  6
CONTINUOUS
 10
7.7462441125
 20
58.7229124616
 11
6.7650970474
 21
58.7172273454
  0
LINE
  5
3E3
100
AcDbEntity
  8
0
100
AcDbLine
 62
7
  6
CONTINUOUS
 10
6.5797612415
 20
58.744369292
 11
7.5609083066
 21
58.7500544081
  0
LINE
  5
3E4
100
AcDbEntity
  8
0
100
AcDbLine
 62
7
  6
CONTINUOUS
 10
40.8945882588
 20
58.9432016426
 11
41.8757353239
 21
58.9488867587
  0
LINE
  5
3E5
100
AcDbEntity
  8
0
100
AcDbLine
 62
7
  6
CONTINUOUS
 10
6.4653167871
 20
58.3625414479
 11
6.4837600377
 21
58.3626121928
  0
LINE
  5
3E6
100
AcDbEntity
  8
0
100
AcDbLine
 62
7
  6
CONTINUOUS
 10
42.2222088066
 20
58.88775532
 11
41.2303982284
 21
58.8839516635
  0
LINE
  5
3E7
100
AcDbEntity
  8
0
100
AcDbLine
 62
7
  6
CONTINUOUS
 10
7.5344340255
 20
58.7547255041
 11
6.5426234474
 21
58.7509218477
  0
LINE
  5
3E8
100
AcDbEntity
  8
0
100
AcDbLine
 62
7
  6
CONTINUOUS
 10
6.4186235647
 20
58.7783587842
 11
7.4104341429
 21
58.7821624406
  0
LINE
  5
3E9
100
AcDbEntity
  8
0
100
AcDbLine
 62
7
  6
CONTINUOUS
 10
41.1063983458
 20
58.9113886
 11
42.098208924
 21
58.9151922565
  0
LINE
  5
3EA
100
AcDbEntity
  8
0
100
AcDbLine
 62
7
  6
CONTINUOUS
 10
6.35446946
 20
58.3967012559
 11
6.3637109727
 21
58.3967189076
  0
LINE
  5
3EB
100
AcDbEntity
  8
0
100
AcDbLine
 62
7
  6
CONTINUOUS
 10
42.306688259
 20
58.8535316014
 11
41.308461253
 21
58.8516256925
  0
LINE
  5
3EC
100
AcDbEntity
  8
0
100
AcDbLine
 62
7
  6
CONTINUOUS
 10
7.3945040911
 20
58.7868739744
 11
6.3962770851
 21
58.7849680655
  0
LINE
  5
3ED
100
AcDbEntity
  8
0
100
AcDbLine
 62
7
  6
CONTINUOUS
 10
6.3341441123
 20
58.8125825027
 11
7.3323711183
 21
58.8144884117
  0
LINE
  5
3EE
100
AcDbEntity
  8
0
100
AcDbLine
 62
7
  6
CONTINUOUS
 10
41.2463282802
 20
58.8792401297
 11
42.2445552862
 21
58.8811460387
  0
LINE
  5
3EF
100
AcDbEntity
  8
0
100
AcDbLine
 62
7
  6
CONTINUOUS
 10
14.208818334
 20
59.0774647996
 11
13.960610049
 21
59.0773597969
  0
LINE
  5
3F0
100
AcDbEntity
  8
0
100
AcDbLine
 62
7
  6
CONTINUOUS
 10
24.3911267933
 20
57.9519796341
 11
24.4084029721
 21
57.9519823092
  0
LINE
  5
3F1
100
AcDbEntity
  8
0
100
AcDbLine
 62
7
  6
CONTINUOUS
 10
29.8030696031
 20
59.0078780995
 11
19.123120479
 21
59.005163092
  0
LINE
  5
3F2
100
AcDbEntity
  8
0
100
AcDbLine
 62
7
  6
CONTINUOUS
 10
42.3141477331
 20
58.8192202077
 11
41.3137788605
 21
58.8192202077
  0
LINE
  5
3F3
100
AcDbEntity
  8
0
100
AcDbLine
 62
7
  6
CONTINUOUS
 10
6.3266846383
 20
58.8192202077
 11
7.3270535108
 21
58.8192202077
  0
LINE
  5
3F4
100
AcDbEntity
  8
0
100
AcDbLine
 62
7
  6
CONTINUOUS
 10
42.3141477331
 20
58.8468938964
 11
41.3137788605
 21
58.8468938964
  0
LINE
  5
3F5
100
AcDbEntity
  8
0
100
AcDbLine
 62
7
  6
CONTINUOUS
 10
6.3266846383
 20
58.8468938964
 11
7.3270535108
 21
58.8468938964
  0
LINE
  5
3F6
100
AcDbEntity
  8
0
100
AcDbLine
 62
7
  6
CONTINUOUS
 10
34.9215394617
 20
59.0826883878
 11
34.6733060712
 21
59.0826671874
  0
LINE
  5
3F7
100
AcDbEntity
  8
0
100
AcDbLine
 62
7
  6
CONTINUOUS
 10
24.2324306414
 20
57.9519823092
 11
24.2651585489
 21
57.9519777349
  0
LINE
  5
3F8
100
AcDbEntity
  8
0
100
AcDbLine
 62
7
  6
CONTINUOUS
 10
42.2771213982
 20
58.3967189116
 11
42.2863629115
 21
58.39670126
  0
LINE
  5
3F9
100
AcDbEntity
  8
0
100
AcDbLine
 62
7
  6
CONTINUOUS
 10
42.2445552862
 20
58.7849680655
 11
41.2463282802
 21
58.7868739744
  0
LINE
  5
3FA
100
AcDbEntity
  8
0
100
AcDbLine
 62
7
  6
CONTINUOUS
 10
7.3323711183
 20
58.8516256925
 11
6.3341441123
 21
58.8535316014
  0
LINE
  5
3FB
100
AcDbEntity
  8
0
100
AcDbLine
 62
7
  6
CONTINUOUS
 10
6.3962770851
 20
58.8811460387
 11
7.3945040911
 21
58.8792401297
  0
LINE
  5
3FC
100
AcDbEntity
  8
0
100
AcDbLine
 62
7
  6
CONTINUOUS
 10
41.308461253
 20
58.8144884117
 11
42.306688259
 21
58.8125825027
  0
LINE
  5
3FD
100
AcDbEntity
  8
0
100
AcDbLine
 62
7
  6
CONTINUOUS
 10
42.1570723327
 20
58.3626121967
 11
42.1755155848
 21
58.362541452
  0
LINE
  5
3FE
100
AcDbEntity
  8
0
100
AcDbLine
 62
7
  6
CONTINUOUS
 10
42.098208924
 20
58.7509218477
 11
41.1063983458
 21
58.7547255041
  0
LINE
  5
3FF
100
AcDbEntity
  8
0
100
AcDbLine
 62
7
  6
CONTINUOUS
 10
7.4104341429
 20
58.8839516635
 11
6.4186235647
 21
58.88775532
  0
LINE
  5
400
100
AcDbEntity
  8
0
100
AcDbLine
 62
7
  6
CONTINUOUS
 10
6.5426234474
 20
58.9151922565
 11
7.5344340255
 21
58.9113886
  0
LINE
  5
401
100
AcDbEntity
  8
0
100
AcDbLine
 62
7
  6
CONTINUOUS
 10
41.2303982284
 20
58.7821624406
 11
42.2222088066
 21
58.7783587842
  0
LINE
  5
402
100
AcDbEntity
  8
0
100
AcDbLine
 62
7
  6
CONTINUOUS
 10
41.9606443851
 20
58.3288257154
 11
41.9882099812
 21
58.3286659697
  0
LINE
  5
403
100
AcDbEntity
  8
0
100
AcDbLine
 62
7
  6
CONTINUOUS
 10
41.8757353239
 20
58.7172273454
 11
40.8945882588
 21
58.7229124616
  0
LINE
  5
404
100
AcDbEntity
  8
0
100
AcDbLine
 62
7
  6
CONTINUOUS
 10
7.5609083066
 20
58.916059696
 11
6.5797612415
 21
58.9217448122
  0
LINE
  5
405
100
AcDbEntity
  8
0
100
AcDbLine
 62
7
  6
CONTINUOUS
 10
6.7650970474
 20
58.9488867587
 11
7.7462441125
 21
58.9432016426
  0
LINE
  5
406
100
AcDbEntity
  8
0
100
AcDbLine
 62
7
  6
CONTINUOUS
 10
41.0799240647
 20
58.7500544081
 11
42.0610711298
 21
58.744369292
  0
LINE
  5
407
100
AcDbEntity
  8
0
100
AcDbLine
 62
7
  6
CONTINUOUS
 10
41.6886789245
 20
58.2955053393
 11
41.7252481722
 21
58.2952198732
  0
LINE
  5
408
100
AcDbEntity
  8
0
100
AcDbLine
 62
7
  6
CONTINUOUS
 10
41.5780871522
 20
58.6840288438
 11
40.6118050224
 21
58.6915710751
  0
LINE
  5
409
100
AcDbEntity
  8
0
100
AcDbLine
 62
7
  6
CONTINUOUS
 10
7.7831492561
 20
58.9478122984
 11
6.8168671263
 21
58.9553545297
  0
LINE
  5
40A
100
AcDbEntity
  8
0
100
AcDbLine
 62
7
  6
CONTINUOUS
 10
7.0627452191
 20
58.9820852604
 11
8.0290273489
 21
58.9745430291
  0
LINE
  5
40B
100
AcDbEntity
  8
0
100
AcDbLine
 62
7
  6
CONTINUOUS
 10
40.8576831153
 20
58.7183018057
 11
41.823965245
 21
58.7107595744
  0
LINE
  5
40C
100
AcDbEntity
  8
0
100
AcDbLine
 62
7
  6
CONTINUOUS
 10
41.3423408163
 20
58.2627955035
 11
41.3877562006
 21
58.2623463839
  0
LINE
  5
40D
100
AcDbEntity
  8
0
100
AcDbLine
 62
7
  6
CONTINUOUS
 10
41.2065389839
 20
58.6514685038
 11
40.2592595579
 21
58.6608355532
  0
LINE
  5
40E
100
AcDbEntity
  8
0
100
AcDbLine
 62
7
  6
CONTINUOUS
 10
8.0762053214
 20
58.9790735013
 11
7.1289258954
 21
58.9884405507
  0
LINE
  5
40F
100
AcDbEntity
  8
0
100
AcDbLine
 62
7
  6
CONTINUOUS
 10
7.4342933874
 20
59.0146456004
 11
8.3815728134
 21
59.0052785509
  0
LINE
  5
410
100
AcDbEntity
  8
0
100
AcDbLine
 62
7
  6
CONTINUOUS
 10
40.56462705
 20
58.6870406029
 11
41.511906476
 21
58.6776735534
  0
LINE
  5
411
100
AcDbEntity
  8
0
100
AcDbLine
 62
7
  6
CONTINUOUS
 10
40.9231134507
 20
58.230838679
 11
40.9771792588
 21
58.230186271
  0
LINE
  5
412
100
AcDbEntity
  8
0
100
AcDbLine
 62
7
  6
CONTINUOUS
 10
40.7626818454
 20
58.6196857538
 11
39.8384615192
 21
58.6308375103
  0
LINE
  5
413
100
AcDbEntity
  8
0
100
AcDbLine
 62
7
  6
CONTINUOUS
 10
8.4388215914
 20
59.0097094392
 11
7.5146012651
 21
59.0208611957
  0
LINE
  5
414
100
AcDbEntity
  8
0
100
AcDbLine
 62
7
  6
CONTINUOUS
 10
7.8781505259
 20
59.0464283503
 11
8.8023708522
 21
59.0352765939
  0
LINE
  5
415
100
AcDbEntity
  8
0
100
AcDbLine
 62
7
  6
CONTINUOUS
 10
40.2020107799
 20
58.6564046649
 11
41.1262311062
 21
58.6452529084
  0
LINE
  5
416
100
AcDbEntity
  8
0
100
AcDbLine
 62
7
  6
CONTINUOUS
 10
18.6635432582
 20
58.1033067444
 11
18.6800303761
 21
58.103101832
  0
LINE
  5
417
100
AcDbEntity
  8
0
100
AcDbLine
 62
7
  6
CONTINUOUS
 10
40.4327924124
 20
58.1997748967
 11
40.4952755003
 21
58.1988772491
  0
LINE
  5
418
100
AcDbEntity
  8
0
100
AcDbLine
 62
7
  6
CONTINUOUS
 10
9.074225847
 20
58.6502546759
 11
9.1367096017
 21
58.6493571224
  0
LINE
  5
419
100
AcDbEntity
  8
0
100
AcDbLine
 62
7
  6
CONTINUOUS
 10
40.2484164011
 20
58.5888166925
 11
39.3512128279
 21
58.6017054025
  0
LINE
  5
41A
100
AcDbEntity
  8
0
100
AcDbLine
 62
7
  6
CONTINUOUS
 10
8.8694452877
 20
59.0395889246
 11
7.9722417145
 21
59.0524776345
  0
LINE
  5
41B
100
AcDbEntity
  8
0
100
AcDbLine
 62
7
  6
CONTINUOUS
 10
8.3924159702
 20
59.0772974116
 11
9.2896195434
 21
59.0644087017
  0
LINE
  5
41C
100
AcDbEntity
  8
0
100
AcDbLine
 62
7
  6
CONTINUOUS
 10
39.7713870836
 20
58.6265251796
 11
40.6685906568
 21
58.6136364696
  0
LINE
  5
41D
100
AcDbEntity
  8
0
100
AcDbLine
 62
7
  6
CONTINUOUS
 10
18.0612292505
 20
59.3043218029
 11
14.0809107265
 21
59.3656620133
  0
LINE
  5
41E
100
AcDbEntity
  8
0
100
AcDbLine
 62
7
  6
CONTINUOUS
 10
39.8734778217
 20
58.1697413353
 11
39.9441085111
 21
58.1685533882
  0
LINE
  5
41F
100
AcDbEntity
  8
0
100
AcDbLine
 62
7
  6
CONTINUOUS
 10
9.5934681365
 20
58.6790011364
 11
9.6640995607
 21
58.6778132961
  0
LINE
  5
420
100
AcDbEntity
  8
0
100
AcDbLine
 62
7
  6
CONTINUOUS
 10
39.6659448146
 20
58.5589935059
 11
38.7995999578
 21
58.5735639779
  0
LINE
  5
421
100
AcDbEntity
  8
0
100
AcDbLine
 62
7
  6
CONTINUOUS
 10
9.3662324135
 20
59.0685840087
 11
8.4998875567
 21
59.0831544807
  0
LINE
  5
422
100
AcDbEntity
  8
0
100
AcDbLine
 62
7
  6
CONTINUOUS
 10
8.9748875567
 20
59.1071205982
 11
9.7050438366
 21
59.0948405904
  0
LINE
  5
423
100
AcDbEntity
  8
0
100
AcDbLine
 62
7
  6
CONTINUOUS
 10
39.2745999578
 20
58.5975300954
 11
40.1409448146
 21
58.5829596234
  0
LINE
  5
424
100
AcDbEntity
  8
0
100
AcDbLine
 62
7
  6
CONTINUOUS
 10
39.2475653872
 20
58.1408720238
 11
39.3260384727
 21
58.1393445397
  0
LINE
  5
425
100
AcDbEntity
  8
0
100
AcDbLine
 62
7
  6
CONTINUOUS
 10
39.0177613186
 20
58.5303439015
 11
38.185985
 21
58.5465337426
  0
LINE
  5
426
100
AcDbEntity
  8
0
100
AcDbLine
 62
7
  6
CONTINUOUS
 10
9.7028245851
 20
59.1009350033
 11
9.0952793314
 21
59.1127603714
  0
LINE
  5
427
100
AcDbEntity
  8
0
100
AcDbLine
 62
7
  6
CONTINUOUS
 10
9.6230710528
 20
59.1357702026
 11
9.6906182733
 21
59.1344554516
  0
LINE
  5
428
100
AcDbEntity
  8
0
100
AcDbLine
 62
7
  6
CONTINUOUS
 10
38.7137767213
 20
58.5695435738
 11
39.5455530399
 21
58.5533537328
  0
LINE
  5
429
100
AcDbEntity
  8
0
100
AcDbLine
 62
7
  6
CONTINUOUS
 10
38.55773621
 20
58.1132976265
 11
38.643712056
 21
58.1113757805
  0
LINE
  5
42A
100
AcDbEntity
  8
0
100
AcDbLine
 62
7
  6
CONTINUOUS
 10
38.3066415343
 20
58.5029905613
 11
37.5129955478
 21
58.520730444
  0
LINE
  5
42B
100
AcDbEntity
  8
0
100
AcDbLine
 62
7
  6
CONTINUOUS
 10
38.0913189053
 20
58.5426854574
 11
38.8849648919
 21
58.5249455747
  0
LINE
  5
42C
100
AcDbEntity
  8
0
100
AcDbLine
 62
7
  6
CONTINUOUS
 10
37.8069454077
 20
58.0871454934
 11
37.9000510874
 21
58.084766877
  0
LINE
  5
42D
100
AcDbEntity
  8
0
100
AcDbLine
 62
7
  6
CONTINUOUS
 10
37.5356305859
 20
58.4770506165
 11
36.7835134454
 21
58.496264576
  0
LINE
  5
42E
100
AcDbEntity
  8
0
100
AcDbLine
 62
7
  6
CONTINUOUS
 10
37.4098919697
 20
58.5170707568
 11
38.1620091103
 21
58.4978567973
  0
LWPOLYLINE
  5
42F
100
AcDbEntity
  8
0
100
AcDbPolyline
 62
7
  6
CONTINUOUS
 90
3
 70
0
 10
14.0809107265
 20
59.3656620133
 10
10.6457795903
 20
59.4598942609
 10
10.4849291601
 20
59.4675948146
  0
LINE
  5
430
100
AcDbEntity
  8
0
100
AcDbLine
 62
7
  6
CONTINUOUS
 10
36.9984096204
 20
58.062539958
 11
37.0982400374
 21
58.0596317727
  0
LINE
  5
431
100
AcDbEntity
  8
0
100
AcDbLine
 62
7
  6
CONTINUOUS
 10
36.7080300606
 20
58.4526351459
 11
36.0006624472
 21
58.473240905
  0
LINE
  5
432
100
AcDbEntity
  8
0
100
AcDbLine
 62
7
  6
CONTINUOUS
 10
36.6724138893
 20
58.492809158
 11
37.3797815027
 21
58.4722033988
  0
LINE
  5
433
100
AcDbEntity
  8
0
100
AcDbLine
 62
7
  6
CONTINUOUS
 10
36.1355935047
 20
58.0396031315
 11
36.2417123839
 21
58.0360780999
  0
LINE
  5
434
100
AcDbEntity
  8
0
100
AcDbLine
 62
7
  6
CONTINUOUS
 10
35.8273838709
 20
58.4298487003
 11
35.1677948413
 21
58.451758022
  0
LINE
  5
435
100
AcDbEntity
  8
0
100
AcDbLine
 62
7
  6
CONTINUOUS
 10
35.8820426584
 20
58.4700045528
 11
36.541631688
 21
58.4480952311
  0
LINE
  5
436
100
AcDbEntity
  8
0
100
AcDbLine
 62
7
  6
CONTINUOUS
 10
35.222195359
 20
58.0184564803
 11
35.33413591
 21
58.0142067191
  0
LINE
  5
437
100
AcDbEntity
  8
0
100
AcDbLine
 62
7
  6
CONTINUOUS
 10
34.897463079
 20
58.4087888547
 11
34.2884770947
 21
58.43190792
  0
LINE
  5
438
100
AcDbEntity
  8
0
100
AcDbLine
 62
7
  6
CONTINUOUS
 10
35.0421627679
 20
58.4487545943
 11
35.6511487523
 21
58.425635529
  0
LINE
  5
439
100
AcDbEntity
  8
0
100
AcDbLine
 62
7
  6
CONTINUOUS
 10
34.2621321192
 20
57.9992237754
 11
34.3793969973
 21
57.9941112868
  0
LINE
  5
43A
100
AcDbEntity
  8
0
100
AcDbLine
 62
7
  6
CONTINUOUS
 10
33.9222497485
 20
58.3895457907
 11
33.3664745809
 21
58.4137756001
  0
LINE
  5
43B
100
AcDbEntity
  8
0
100
AcDbLine
 62
7
  6
CONTINUOUS
 10
34.1563707126
 20
58.4291502778
 11
34.7121458802
 21
58.4049204684
  0
LINE
  5
43C
100
AcDbEntity
  8
0
100
AcDbLine
 62
7
  6
CONTINUOUS
 10
33.2595241805
 20
57.9820365659
 11
33.3815839845
 21
57.9758778549
  0
LINE
  5
43D
100
AcDbEntity
  8
0
100
AcDbLine
 62
7
  6
CONTINUOUS
 10
32.9059198926
 20
58.37220191
 11
32.4057354563
 21
58.3974387078
  0
LINE
  5
43E
100
AcDbEntity
  8
0
100
AcDbLine
 62
7
  6
CONTINUOUS
 10
33.2284595899
 20
58.4112755522
 11
33.7286440262
 21
58.3860387544
  0
LINE
  5
43F
100
AcDbEntity
  8
0
100
AcDbLine
 62
7
  6
CONTINUOUS
 10
32.2186810221
 20
57.9670446149
 11
32.3449696601
 21
57.9595845016
  0
LINE
  5
440
100
AcDbEntity
  8
0
100
AcDbLine
 62
7
  6
CONTINUOUS
 10
31.8528255917
 20
58.3568314818
 11
31.4103737533
 21
58.3829672002
  0
LINE
  5
441
100
AcDbEntity
  8
0
100
AcDbLine
 62
7
  6
CONTINUOUS
 10
32.2624028578
 20
58.3952069597
 11
32.7048546961
 21
58.3690712414
  0
LINE
  5
442
100
AcDbEntity
  8
0
100
AcDbLine
 62
7
  6
CONTINUOUS
 10
31.1440900618
 20
57.9544368789
 11
31.2739929658
 21
57.9453009976
  0
LINE
  5
443
100
AcDbEntity
  8
0
100
AcDbLine
 62
7
  6
CONTINUOUS
 10
30.7674763573
 20
58.3435003246
 11
30.3846517636
 21
58.3704230463
  0
LINE
  5
444
100
AcDbEntity
  8
0
100
AcDbLine
 62
7
  6
CONTINUOUS
 10
31.2623373195
 20
58.3810133085
 11
31.6451619132
 21
58.3540905868
  0
LINE
  5
445
100
AcDbEntity
  8
0
100
AcDbLine
 62
7
  6
CONTINUOUS
 10
30.0259369979
 20
57.945729642
 11
30.1732399882
 21
57.9330885071
  0
LINE
  5
446
100
AcDbEntity
  8
0
100
AcDbLine
 62
7
  6
CONTINUOUS
 10
29.6545198216
 20
58.3322655245
 11
29.3329617861
 21
58.3598599623
  0
LINE
  5
447
100
AcDbEntity
  8
0
100
AcDbLine
 62
7
  6
CONTINUOUS
 10
30.2325454091
 20
58.3687553781
 11
30.5541034446
 21
58.3411609402
  0
LINE
  5
448
100
AcDbEntity
  8
0
100
AcDbLine
 62
7
  6
CONTINUOUS
 10
28.8934527757
 20
57.9397388758
 11
29.0474243205
 21
57.9229993259
  0
LINE
  5
449
100
AcDbEntity
  8
0
100
AcDbLine
 62
7
  6
CONTINUOUS
 10
28.5187218351
 20
58.3231751905
 11
28.2598073188
 21
58.3513231809
  0
LINE
  5
44A
100
AcDbEntity
  8
0
100
AcDbLine
 62
7
  6
CONTINUOUS
 10
29.1774368537
 20
58.3584856586
 11
29.4363513701
 21
58.3303376682
  0
LINE
  5
44B
100
AcDbEntity
  8
0
100
AcDbLine
 62
7
  6
CONTINUOUS
 10
27.7382667144
 20
57.938962941
 11
27.9013668782
 21
57.9150766572
  0
LINE
  5
44C
100
AcDbEntity
  8
0
100
AcDbLine
 62
7
  6
CONTINUOUS
 10
27.3649460593
 20
58.316268249
 11
27.1697837739
 21
58.3448492579
  0
LINE
  5
44D
100
AcDbEntity
  8
0
100
AcDbLine
 62
7
  6
CONTINUOUS
 10
28.1015297902
 20
58.3502481268
 11
28.2966920757
 21
58.3216671178
  0
LINE
  5
44E
100
AcDbEntity
  8
0
100
AcDbLine
 62
7
  6
CONTINUOUS
 10
26.604831894
 20
57.9392579432
 11
26.7399752554
 21
57.9093544273
  0
LINE
  5
44F
100
AcDbEntity
  8
0
100
AcDbLine
 62
7
  6
CONTINUOUS
 10
26.1981331392
 20
58.3115742765
 11
26.0675587995
 21
58.3404659157
  0
LINE
  5
450
100
AcDbEntity
  8
0
100
AcDbLine
 62
7
  6
CONTINUOUS
 10
27.0094314178
 20
58.3440780569
 11
27.1400057575
 21
58.3151864177
  0
LINE
  5
451
100
AcDbEntity
  8
0
100
AcDbLine
 62
7
  6
CONTINUOUS
 10
30.0977777999
 20
57.9034923752
 11
30.0393238501
 21
57.9317642894
  0
LINE
  5
452
100
AcDbEntity
  8
0
100
AcDbLine
 62
7
  6
CONTINUOUS
 10
31.2017034151
 20
57.9154550887
 11
31.1433366743
 21
57.9437244773
  0
LINE
  5
453
100
AcDbEntity
  8
0
100
AcDbLine
 62
7
  6
CONTINUOUS
 10
32.2757163338
 20
57.9295407375
 11
32.2181327055
 21
57.9577624296
  0
LINE
  5
454
100
AcDbEntity
  8
0
100
AcDbLine
 62
7
  6
CONTINUOUS
 10
33.3153773732
 20
57.9456663149
 11
33.2591095021
 21
57.9738180335
  0
LINE
  5
455
100
AcDbEntity
  8
0
100
AcDbLine
 62
7
  6
CONTINUOUS
 10
34.3163250284
 20
57.9637517435
 11
34.2618094416
 21
57.9918225365
  0
LINE
  5
456
100
AcDbEntity
  8
0
100
AcDbLine
 62
7
  6
CONTINUOUS
 10
42.1660399792
 20
58.3311874997
 11
42.1570563943
 21
58.3584570586
  0
LINE
  5
457
100
AcDbEntity
  8
0
100
AcDbLine
 62
7
  6
CONTINUOUS
 10
38.3444408273
 20
60.4949874614
 11
38.3398448093
 21
60.4947756892
  0
LINE
  5
458
100
AcDbEntity
  8
0
100
AcDbLine
 62
7
  6
CONTINUOUS
 10
38.3600605677
 20
60.4946118786
 11
38.3546217303
 21
60.4944200323
  0
LINE
  5
459
100
AcDbEntity
  8
0
100
AcDbLine
 62
7
  6
CONTINUOUS
 10
38.2613010104
 20
60.491156602
 11
34.6385420225
 21
60.3952959612
  0
LINE
  5
45A
100
AcDbEntity
  8
0
100
AcDbLine
 62
7
  6
CONTINUOUS
 10
34.6385420225
 20
60.3952959612
 11
30.2717534629
 21
60.3310304078
  0
LINE
  5
45B
100
AcDbEntity
  8
0
100
AcDbLine
 62
7
  6
CONTINUOUS
 10
30.2717534629
 20
60.3310304078
 11
25.4579048492
 21
60.3029292315
  0
LINE
  5
45C
100
AcDbEntity
  8
0
100
AcDbLine
 62
7
  6
CONTINUOUS
 10
13.592910633
 20
60.3295452311
 11
13.9234993967
 21
60.3297133254
  0
LINE
  5
45D
100
AcDbEntity
  8
0
100
AcDbLine
 62
7
  6
CONTINUOUS
 10
19.2033048311
 20
60.2546530083
 11
22.8631559642
 21
60.2555833988
  0
LINE
  5
45E
100
AcDbEntity
  8
0
100
AcDbLine
 62
7
  6
CONTINUOUS
 10
26.063034118
 20
60.256396857
 11
29.722885251
 21
60.2573272475
  0
LINE
  5
45F
100
AcDbEntity
  8
0
100
AcDbLine
 62
7
  6
CONTINUOUS
 10
34.9569166097
 20
60.3350603438
 11
35.2875557314
 21
60.3350603438
  0
LINE
  5
460
100
AcDbEntity
  8
0
100
AcDbLine
 62
7
  6
CONTINUOUS
 10
25.4579048492
 20
60.3479187506
 11
23.1829275221
 21
60.3479187506
  0
LINE
  5
461
100
AcDbEntity
  8
0
100
AcDbLine
 62
7
  6
CONTINUOUS
 10
22.8634205013
 20
60.3046517568
 11
19.4031110644
 21
60.3233069669
  0
LINE
  5
462
100
AcDbEntity
  8
0
100
AcDbLine
 62
7
  6
CONTINUOUS
 10
19.2802426626
 20
60.3239693747
 11
18.8799941569
 21
60.3261271933
  0
LINE
  5
463
100
AcDbEntity
  8
0
100
AcDbLine
 62
7
  6
CONTINUOUS
 10
18.8799941569
 20
60.3261271933
 11
15.6190543361
 21
60.3689999847
  0
LINE
  5
464
100
AcDbEntity
  8
0
100
AcDbLine
 62
7
  6
CONTINUOUS
 10
15.4174048392
 20
60.3716511458
 11
15.3741461318
 21
60.3722198841
  0
LINE
  5
465
100
AcDbEntity
  8
0
100
AcDbLine
 62
7
  6
CONTINUOUS
 10
15.3878115357
 20
60.3701202123
 11
15.3465229654
 21
60.3707995338
  0
LINE
  5
466
100
AcDbEntity
  8
0
100
AcDbLine
 62
7
  6
CONTINUOUS
 10
14.8913065972
 20
60.3785679555
 11
11.4475372342
 21
60.4572187822
  0
LWPOLYLINE
  5
467
100
AcDbEntity
  8
0
100
AcDbPolyline
 62
7
  6
CONTINUOUS
 90
3
 70
0
 10
11.4475372342
 20
60.4572187822
 10
8.4820535459
 20
60.5707361775
 10
6.718015023
 20
60.6990559645
  0
LWPOLYLINE
  5
468
100
AcDbEntity
  8
0
100
AcDbPolyline
 62
7
  6
CONTINUOUS
 90
3
 70
0
 10
12.4777219508
 20
62.6805393309
 10
11.4783383464
 20
62.7887805737
 10
11.3954925981
 20
62.8313595555
  0
LINE
  5
469
100
AcDbEntity
  8
0
100
AcDbLine
 62
7
  6
CONTINUOUS
 10
35.2743283898
 20
57.9837136878
 11
35.2219388089
 21
58.0116988406
  0
LINE
  5
46A
100
AcDbEntity
  8
0
100
AcDbLine
 62
7
  6
CONTINUOUS
 10
36.1853210384
 20
58.0054632829
 11
36.1353861827
 21
58.0333618324
  0
LINE
  5
46B
100
AcDbEntity
  8
0
100
AcDbLine
 62
7
  6
CONTINUOUS
 10
37.0454264324
 20
58.0289053338
 11
36.9982400412
 21
58.0567187475
  0
LINE
  5
46C
100
AcDbEntity
  8
0
100
AcDbLine
 62
7
  6
CONTINUOUS
 10
37.8509788415
 20
58.053938145
 11
37.8068055115
 21
58.0816695683
  0
LINE
  5
46D
100
AcDbEntity
  8
0
100
AcDbLine
 62
7
  6
CONTINUOUS
 10
38.5985415429
 20
58.0804536528
 11
38.5576201924
 21
58.1081074513
  0
LINE
  5
46E
100
AcDbEntity
  8
0
100
AcDbLine
 62
7
  6
CONTINUOUS
 10
39.2849230499
 20
58.1083377197
 11
39.2474689799
 21
58.1359191855
  0
LINE
  5
46F
100
AcDbEntity
  8
0
100
AcDbLine
 62
7
  6
CONTINUOUS
 10
39.0116830183
 20
58.6466883737
 11
38.9767328412
 21
58.6778128954
  0
LINE
  5
470
100
AcDbEntity
  8
0
100
AcDbLine
 62
7
  6
CONTINUOUS
 10
39.5346722966
 20
58.6181688962
 11
39.5041227702
 21
58.6493567349
  0
LINE
  5
471
100
AcDbEntity
  8
0
100
AcDbLine
 62
7
  6
CONTINUOUS
 10
41.7063003597
 20
58.2639204249
 11
41.6886456332
 21
58.2912406089
  0
LINE
  5
472
100
AcDbEntity
  8
0
100
AcDbLine
 62
7
  6
CONTINUOUS
 10
41.9739716124
 20
58.2973347169
 11
41.9606200443
 21
58.3246254899
  0
LWPOLYLINE
  5
473
100
AcDbEntity
  8
0
100
AcDbPolyline
 62
7
  6
CONTINUOUS
 90
8
 70
0
 10
33.4597713325
 20
62.5651283238
 10
30.3571493783
 20
62.4984414639
 10
26.7245174462
 20
62.4614222738
 10
22.872768262
 20
62.4572209728
 10
19.1551200521
 20
62.486224912
 10
15.8946031717
 20
62.5458522818
 10
14.5282557612
 20
62.5856121909
 10
12.4777219508
 20
62.6805393309
  0
LWPOLYLINE
  5
474
100
AcDbEntity
  8
0
100
AcDbPolyline
 62
7
  6
CONTINUOUS
 90
8
 70
0
 10
15.4812545769
 20
63.1040430593
 10
18.283682993
 20
63.164277646
 10
21.9163149251
 20
63.201296836
 10
25.7680641093
 20
63.2054981371
 10
29.4857123192
 20
63.1764941979
 10
32.7462291997
 20
63.1168668281
 10
34.1125766102
 20
63.077106919
 10
36.1631104205
 20
62.982179779
  0
LWPOLYLINE
  5
475
100
AcDbEntity
  8
0
100
AcDbPolyline
 62
7
  6
CONTINUOUS
 90
3
 70
0
 10
18.098518041
 20
63.317324007
 10
13.650337061
 20
63.2465717744
 10
13.2672487152
 20
63.2354136222
  0
LINE
  5
476
100
AcDbEntity
  8
0
100
AcDbLine
 62
7
  6
CONTINUOUS
 10
23.0470998475
 20
63.3486945507
 11
18.098518041
 21
63.317324007
  0
LINE
  5
477
100
AcDbEntity
  8
0
100
AcDbLine
 62
7
  6
CONTINUOUS
 10
28.1060517426
 20
63.338163788
 11
23.0470998475
 21
63.3486945507
  0
LINE
  5
478
100
AcDbEntity
  8
0
100
AcDbLine
 62
7
  6
CONTINUOUS
 10
32.8486469585
 20
63.2866555796
 11
28.1060517426
 21
63.338163788
  0
LINE
  5
479
100
AcDbEntity
  8
0
100
AcDbLine
 62
7
  6
CONTINUOUS
 10
36.9104524247
 20
63.1981098119
 11
32.8486469585
 21
63.2866555796
  0
LINE
  5
47A
100
AcDbEntity
  8
0
100
AcDbLine
 62
7
  6
CONTINUOUS
 10
36.9240373351
 20
63.1977136518
 11
36.9104524247
 21
63.1981098119
  0
LINE
  5
47B
100
AcDbEntity
  8
0
100
AcDbLine
 62
7
  6
CONTINUOUS
 10
36.9220819124
 20
63.1976568132
 11
36.9104524247
 21
63.1981098119
  0
LINE
  5
47C
100
AcDbEntity
  8
0
100
AcDbLine
 62
7
  6
CONTINUOUS
 10
39.907191733
 20
58.1374705257
 11
39.8733978356
 21
58.1649856768
  0
LINE
  5
47D
100
AcDbEntity
  8
0
100
AcDbLine
 62
7
  6
CONTINUOUS
 10
40.4626889978
 20
58.1677270218
 11
40.4327264363
 21
58.195182458
  0
LINE
  5
47E
100
AcDbEntity
  8
0
100
AcDbLine
 62
7
  6
CONTINUOUS
 10
40.949041091
 20
58.1989774288
 11
40.9230596508
 21
58.2263802219
  0
LINE
  5
47F
100
AcDbEntity
  8
0
100
AcDbLine
 62
7
  6
CONTINUOUS
 10
41.3641695592
 20
58.2310877692
 11
41.3422977972
 21
58.2584453748
  0
LWPOLYLINE
  5
480
100
AcDbEntity
  8
0
100
AcDbPolyline
 62
7
  6
CONTINUOUS
 90
3
 70
0
 10
36.1631104205
 20
62.982179779
 10
37.1624940249
 20
62.8739385362
 10
37.2453397732
 20
62.8313595544
  0
ARC
  5
481
100
AcDbEntity
  8
0
100
AcDbCircle
 62
7
  6
CONTINUOUS
 10
18.3261543881
 20
270.3027111361
 40
211.2704594253
100
AcDbArc
 50
267.8731306316
 51
268.8159960008
  0
ARC
  5
482
100
AcDbEntity
  8
0
100
AcDbCircle
 62
7
  6
CONTINUOUS
 10
17.8484248216
 20
-143.5662750487
 40
206.8549512942
100
AcDbArc
 50
91.2809278025
 51
92.1386244748
  0
ARC
  5
483
100
AcDbEntity
  8
0
100
AcDbCircle
 62
7
  6
CONTINUOUS
 10
17.6796962898
 20
262.7741989654
 40
205.8665899559
100
AcDbArc
 50
267.8400255481
 51
268.7055872779
  0
ARC
  5
484
100
AcDbEntity
  8
0
100
AcDbCircle
 62
7
  6
CONTINUOUS
 10
21.9816781259
 20
233.8172813041
 40
194.6826240846
100
AcDbArc
 50
268.3781277488
 51
269.1308016234
  0
ARC
  5
485
100
AcDbEntity
  8
0
100
AcDbCircle
 62
7
  6
CONTINUOUS
 10
15.6553202082
 20
122.7440179087
 40
77.8137906707
100
AcDbArc
 50
267.1328490791
 51
267.5713541305
  0
ARC
  5
486
100
AcDbEntity
  8
0
100
AcDbCircle
 62
7
  6
CONTINUOUS
 10
13.1059301068
 20
121.5094208412
 40
71.643058899
100
AcDbArc
 50
266.8893359871
 51
267.3338474217
  0
ARC
  5
487
100
AcDbEntity
  8
0
100
AcDbCircle
 62
7
  6
CONTINUOUS
 10
15.1733755085
 20
114.264912144
 40
67.7238768818
100
AcDbArc
 50
267.1135725494
 51
267.3568970467
  0
ARC
  5
488
100
AcDbEntity
  8
0
100
AcDbCircle
 62
7
  6
CONTINUOUS
 10
3.6399564495
 20
-24.5764259377
 40
62.386055227
100
AcDbArc
 50
87.7087999019
 51
87.9694457921
  0
ARC
  5
489
100
AcDbEntity
  8
0
100
AcDbCircle
 62
7
  6
CONTINUOUS
 10
3.6864302332
 20
98.5550800721
 40
61.1112389526
100
AcDbArc
 50
271.9736021528
 51
272.2976123133
  0
ARC
  5
48A
100
AcDbEntity
  8
0
100
AcDbCircle
 62
7
  6
CONTINUOUS
 10
15.1229757101
 20
105.7536257031
 40
61.100707841
100
AcDbArc
 50
266.595875042
 51
267.6266142247
  0
ARC
  5
48B
100
AcDbEntity
  8
0
100
AcDbCircle
 62
7
  6
CONTINUOUS
 10
14.5504464973
 20
102.0058498969
 40
55.4489993105
100
AcDbArc
 50
266.8404094431
 51
267.1185499869
  0
ARC
  5
48C
100
AcDbEntity
  8
0
100
AcDbCircle
 62
7
  6
CONTINUOUS
 10
14.3980364061
 20
97.4310736883
 40
52.4696444896
100
AcDbArc
 50
266.5522067054
 51
267.1214355129
  0
ARC
  5
48D
100
AcDbEntity
  8
0
100
AcDbCircle
 62
7
  6
CONTINUOUS
 10
10.7487079437
 20
15.1322597745
 40
44.0078890836
100
AcDbArc
 50
93.6172041535
 51
93.7399584905
  0
ARC
  5
48E
100
AcDbEntity
  8
0
100
AcDbCircle
 62
7
  6
CONTINUOUS
 10
4.3917072498
 20
81.3014488168
 40
43.8432057333
100
AcDbArc
 50
272.2806113174
 51
272.7505468274
  0
ARC
  5
48F
100
AcDbEntity
  8
0
100
AcDbCircle
 62
7
  6
CONTINUOUS
 10
10.7097084116
 20
101.9272515965
 40
43.4000343235
100
AcDbArc
 50
266.2591818692
 51
266.3836554868
  0
ARC
  5
490
100
AcDbEntity
  8
0
100
AcDbCircle
 62
7
  6
CONTINUOUS
 10
10.9194422167
 20
100.4921139659
 40
41.0054935869
100
AcDbArc
 50
266.1907695983
 51
266.3120634303
  0
ARC
  5
491
100
AcDbEntity
  8
0
100
AcDbCircle
 62
7
  6
CONTINUOUS
 10
9.5946940628
 20
31.6233516717
 40
27.4763591869
100
AcDbArc
 50
94.3417205948
 51
94.5096855391
  0
ARC
  5
492
100
AcDbEntity
  8
0
100
AcDbCircle
 62
7
  6
CONTINUOUS
 10
9.5595520941
 20
85.5887147073
 40
27.0209540469
100
AcDbArc
 50
265.488899038
 51
265.6596948281
  0
ARC
  5
493
100
AcDbEntity
  8
0
100
AcDbCircle
 62
7
  6
CONTINUOUS
 10
10.3835876121
 20
33.5105323852
 40
25.5732310299
100
AcDbArc
 50
94.3613794813
 51
94.4900266525
  0
ARC
  5
494
100
AcDbEntity
  8
0
100
AcDbCircle
 62
7
  6
CONTINUOUS
 10
22.3220209042
 20
57.3684982833
 40
19.9983952814
100
AcDbArc
 50
354.9978846033
 51
359.9999880287
  0
ARC
  5
495
100
AcDbEntity
  8
0
100
AcDbCircle
 62
7
  6
CONTINUOUS
 10
19.198497455
 20
76.9055875167
 40
16.6509352024
100
AcDbArc
 50
269.4738870402
 51
270.0165421559
  0
ARC
  5
496
100
AcDbEntity
  8
0
100
AcDbCircle
 62
7
  6
CONTINUOUS
 10
8.5756835452
 20
43.5748984081
 40
15.4812915831
100
AcDbArc
 50
95.3622295177
 51
95.608289084
  0
ARC
  5
497
100
AcDbEntity
  8
0
100
AcDbCircle
 62
7
  6
CONTINUOUS
 10
8.5454071304
 20
73.7759329157
 40
15.1645591713
100
AcDbArc
 50
264.3891412678
 51
264.6403401304
  0
ARC
  5
498
100
AcDbEntity
  8
0
100
AcDbCircle
 62
7
  6
CONTINUOUS
 10
9.4252174542
 20
44.6832566805
 40
14.3593249252
100
AcDbArc
 50
95.3907028068
 51
95.579815795
  0
ARC
  5
499
100
AcDbEntity
  8
0
100
AcDbCircle
 62
7
  6
CONTINUOUS
 10
7.7211180272
 20
51.5070192338
 40
7.5030239486
100
AcDbArc
 50
96.9220099996
 51
97.3204189547
  0
ARC
  5
49A
100
AcDbEntity
  8
0
100
AcDbCircle
 62
7
  6
CONTINUOUS
 10
7.6965884219
 20
65.9627521739
 40
7.3051561394
100
AcDbArc
 50
262.6741853607
 51
263.0833856851
  0
ARC
  5
49B
100
AcDbEntity
  8
0
100
AcDbCircle
 62
7
  6
CONTINUOUS
 10
8.6228872783
 20
52.0762788025
 40
6.9226535759
100
AcDbArc
 50
96.9673031622
 51
97.2751257921
  0
ARC
  5
49C
100
AcDbEntity
  8
0
100
AcDbCircle
 62
7
  6
CONTINUOUS
 10
7.0560063998
 20
56.114020405
 40
2.8478282598
100
AcDbArc
 50
99.6268622009
 51
100.3855882216
  0
ARC
  5
49D
100
AcDbEntity
  8
0
100
AcDbCircle
 62
7
  6
CONTINUOUS
 10
7.037945474
 20
61.4497301367
 40
2.7438859472
100
AcDbArc
 50
259.6000407445
 51
260.3875088331
  0
ARC
  5
49E
100
AcDbEntity
  8
0
100
AcDbCircle
 62
7
  6
CONTINUOUS
 10
8.0000845683
 20
56.3495893872
 40
2.6037752658
100
AcDbArc
 50
99.7104429609
 51
100.3020074616
  0
ARC
  5
49F
100
AcDbEntity
  8
0
100
AcDbCircle
 62
7
  6
CONTINUOUS
 10
7.5752121013
 20
58.2975388107
 40
0.6091238048
100
AcDbArc
 50
105.6949959713
 51
107.2576311678
  0
ARC
  5
4A0
100
AcDbEntity
  8
0
100
AcDbCircle
 62
7
  6
CONTINUOUS
 10
6.8292449721
 20
58.4246612353
 40
0.4755980943
100
AcDbArc
 50
183.3703102263
 51
184.4448710732
  0
ARC
  5
4A1
100
AcDbEntity
  8
0
100
AcDbCircle
 62
7
  6
CONTINUOUS
 10
22.107528153
 20
58.010961641
 40
0.1012798865
100
AcDbArc
 50
225.0707342109
 51
234.1794797493
  0
ARC
  5
4A2
100
AcDbEntity
  8
0
100
AcDbCircle
 62
7
  6
CONTINUOUS
 10
23.2113096212
 20
58.0071498153
 40
0.1005360706
100
AcDbArc
 50
225.0857582087
 51
271.2034137372
  0
ARC
  5
4A3
100
AcDbEntity
  8
0
100
AcDbCircle
 62
7
  6
CONTINUOUS
 10
7.3676751315
 20
58.8060962301
 40
0.0576134124
100
AcDbArc
 50
127.7903676699
 51
130.2808699375
  0
ARC
  5
4A4
100
AcDbEntity
  8
0
100
AcDbCircle
 62
7
  6
CONTINUOUS
 10
14.2021101018
 20
39.3007542452
 40
0.0400714678
100
AcDbArc
 50
125.4871365877
 51
128.0368560729
  0
ARC
  5
4A5
100
AcDbEntity
  8
0
100
AcDbCircle
 62
7
  6
CONTINUOUS
 10
22.7967162057
 20
475.7443651067
 40
416.7553932481
100
AcDbArc
 50
268.8192471151
 51
269.4949453324
  0
ARC
  5
4A6
100
AcDbEntity
  8
0
100
AcDbCircle
 62
7
  6
CONTINUOUS
 10
22.6637672345
 20
476.6852296332
 40
416.4580069048
100
AcDbArc
 50
268.712099799
 51
269.548956046
  0
ARC
  5
4A7
100
AcDbEntity
  8
0
100
AcDbCircle
 62
7
  6
CONTINUOUS
 10
22.7680671549
 20
475.1833412191
 40
414.9446843544
100
AcDbArc
 50
268.8163120263
 51
269.4859934418
  0
ARC
  5
4A8
100
AcDbEntity
  8
0
100
AcDbCircle
 62
7
  6
CONTINUOUS
 10
-13.7209417349
 20
313.2564825478
 40
277.4650526138
100
AcDbArc
 50
278.5061409762
 51
278.9329097952
  0
ARC
  5
4A9
100
AcDbEntity
  8
0
100
AcDbCircle
 62
7
  6
CONTINUOUS
 10
33.517856661
 20
105.7536257074
 40
61.1007078453
100
AcDbArc
 50
272.3733857754
 51
273.404124958
  0
ARC
  5
4AA
100
AcDbEntity
  8
0
100
AcDbCircle
 62
7
  6
CONTINUOUS
 10
33.9883132783
 20
103.9402555424
 40
57.3860905979
100
AcDbArc
 50
272.8861443716
 51
273.1548952194
  0
ARC
  5
4AB
100
AcDbEntity
  8
0
100
AcDbCircle
 62
7
  6
CONTINUOUS
 10
26.3188147325
 20
57.3684984259
 40
19.9983985469
100
AcDbArc
 50
180.0000123799
 51
185.0021149881
  0
ARC
  5
4AC
100
AcDbEntity
  8
0
100
AcDbCircle
 62
7
  6
CONTINUOUS
 10
29.7215939131
 20
76.3427229841
 40
16.0853957884
100
AcDbArc
 50
270.0045997137
 51
270.5647531906
  0
ARC
  5
4AD
100
AcDbEntity
  8
0
100
AcDbCircle
 62
7
  6
CONTINUOUS
 10
26.5333048435
 20
58.0109610806
 40
0.101279097
100
AcDbArc
 50
305.8204897492
 51
314.9292569168
  0
ARC
  5
4AE
100
AcDbEntity
  8
0
100
AcDbCircle
 62
7
  6
CONTINUOUS
 10
25.4295597561
 20
58.0068182387
 40
0.1002065576
100
AcDbArc
 50
270.1305425591
 51
314.8667879498
  0
ARC
  5
4AF
100
AcDbEntity
  8
0
100
AcDbCircle
 62
7
  6
CONTINUOUS
 10
24.3203879569
 20
58.0056861057
 40
0.1001320907
100
AcDbArc
 50
225.0983413694
 51
314.9015621683
  0
ARC
  5
4B0
100
AcDbEntity
  8
0
100
AcDbCircle
 62
7
  6
CONTINUOUS
 10
24.3204124491
 20
57.9753300683
 40
0.1000112328
100
AcDbArc
 50
225.0094617653
 51
314.9904702945
  0
ARC
  5
4B1
100
AcDbEntity
  8
0
100
AcDbCircle
 62
7
  6
CONTINUOUS
 10
28.9659529791
 20
206.5829364885
 40
144.0700918524
100
AcDbArc
 50
271.6678840736
 51
271.8061756303
  0
ARC
  5
4B2
100
AcDbEntity
  8
0
100
AcDbCircle
 62
7
  6
CONTINUOUS
 10
33.1983307552
 20
118.1422835893
 40
73.2071736697
100
AcDbArc
 50
272.414849164
 51
272.8809476265
  0
ARC
  5
4B3
100
AcDbEntity
  8
0
100
AcDbCircle
 62
7
  6
CONTINUOUS
 10
33.3611149852
 20
116.4669835159
 40
69.9285096626
100
AcDbArc
 50
272.6469373753
 51
272.8825918146
  0
ARC
  5
4B4
100
AcDbEntity
  8
0
100
AcDbCircle
 62
7
  6
CONTINUOUS
 10
34.4463189281
 20
93.7483363016
 40
48.7813365862
100
AcDbArc
 50
272.8570448801
 51
273.4693129016
  0
ARC
  5
4B5
100
AcDbEntity
  8
0
100
AcDbCircle
 62
7
  6
CONTINUOUS
 10
37.8921244276
 20
102.5338543296
 40
44.0078890836
100
AcDbArc
 50
273.6172041535
 51
273.7399584905
  0
ARC
  5
4B6
100
AcDbEntity
  8
0
100
AcDbCircle
 62
7
  6
CONTINUOUS
 10
39.0461383095
 20
86.0427624202
 40
27.4763591746
100
AcDbArc
 50
274.3417205947
 51
274.5096855391
  0
ARC
  5
4B7
100
AcDbEntity
  8
0
100
AcDbCircle
 62
7
  6
CONTINUOUS
 10
38.2321932923
 20
33.1868578154
 40
25.8978734053
100
AcDbArc
 50
85.5107796751
 51
85.6378141911
  0
ARC
  5
4B8
100
AcDbEntity
  8
0
100
AcDbCircle
 62
7
  6
CONTINUOUS
 10
40.0651488261
 20
74.0912156961
 40
15.4812915831
100
AcDbArc
 50
275.3622295177
 51
275.608289084
  0
ARC
  5
4B9
100
AcDbEntity
  8
0
100
AcDbCircle
 62
7
  6
CONTINUOUS
 10
39.1940319285
 20
44.4585027025
 40
14.585112523
100
AcDbArc
 50
84.421648006
 51
84.6078333922
  0
ARC
  5
4BA
100
AcDbEntity
  8
0
100
AcDbCircle
 62
7
  6
CONTINUOUS
 10
40.0555695497
 20
68.7386173207
 40
8.1833897223
100
AcDbArc
 50
275.9988530484
 51
277.3041771065
  0
ARC
  5
4BB
100
AcDbEntity
  8
0
100
AcDbCircle
 62
7
  6
CONTINUOUS
 10
40.9197143443
 20
66.159094869
 40
7.5030239472
100
AcDbArc
 50
276.9220099995
 51
277.3204189547
  0
ARC
  5
4BC
100
AcDbEntity
  8
0
100
AcDbCircle
 62
7
  6
CONTINUOUS
 10
40.0004588027
 20
51.9363130194
 40
7.0637069349
100
AcDbArc
 50
82.7279476308
 51
83.0296234149
  0
ARC
  5
4BD
100
AcDbEntity
  8
0
100
AcDbCircle
 62
7
  6
CONTINUOUS
 10
43.9182565101
 20
27.7226215038
 40
4.4972085625
100
AcDbArc
 50
182.3948212731
 51
229.7085658218
  0
ARC
  5
4BE
100
AcDbEntity
  8
0
100
AcDbCircle
 62
7
  6
CONTINUOUS
 10
43.9173299256
 20
27.530178078
 40
4.496283215
100
AcDbArc
 50
160.2998531236
 51
229.70668021
  0
ARC
  5
4BF
100
AcDbEntity
  8
0
100
AcDbCircle
 62
7
  6
CONTINUOUS
 10
41.5848259718
 20
61.552093698
 40
2.8478282586
100
AcDbArc
 50
279.6268622007
 51
280.3855882218
  0
ARC
  5
4C0
100
AcDbEntity
  8
0
100
AcDbCircle
 62
7
  6
CONTINUOUS
 10
40.6278728065
 20
56.2766180162
 40
2.6778727978
100
AcDbArc
 50
79.7061769904
 51
80.2813725871
  0
ARC
  5
4C1
100
AcDbEntity
  8
0
100
AcDbCircle
 62
7
  6
CONTINUOUS
 10
41.7720903297
 20
36.7128918694
 40
2.4306632742
100
AcDbArc
 50
116.6969084022
 51
117.1095735013
  0
ARC
  5
4C2
100
AcDbEntity
  8
0
100
AcDbCircle
 62
7
  6
CONTINUOUS
 10
41.6887579301
 20
36.8814936665
 40
2.2425967282
100
AcDbArc
 50
113.764338417
 51
116.7300979336
  0
ARC
  5
4C3
100
AcDbEntity
  8
0
100
AcDbCircle
 62
7
  6
CONTINUOUS
 10
41.8214453811
 20
38.413695968
 40
0.6925574252
100
AcDbArc
 50
123.6184310965
 51
134.4043846793
  0
ARC
  5
4C4
100
AcDbEntity
  8
0
100
AcDbCircle
 62
7
  6
CONTINUOUS
 10
41.057738438
 20
58.2708897412
 40
0.636911551
100
AcDbArc
 50
72.7764588313
 51
74.2709140296
  0
ARC
  5
4C5
100
AcDbEntity
  8
0
100
AcDbCircle
 62
7
  6
CONTINUOUS
 10
41.7788767859
 20
58.4268955699
 40
0.5083835796
100
AcDbArc
 50
355.5897791194
 51
356.5950396156
  0
ARC
  5
4C6
100
AcDbEntity
  8
0
100
AcDbCircle
 62
7
  6
CONTINUOUS
 10
38.3247741071
 20
25.8638997906
 40
0.3008247195
100
AcDbArc
 50
324.5060152376
 51
335.5376675988
  0
ARC
  5
4C7
100
AcDbEntity
  8
0
100
AcDbCircle
 62
7
  6
CONTINUOUS
 10
38.3254505165
 20
25.6712461555
 40
0.3000264422
100
AcDbArc
 50
202.0177990652
 51
11.9885774988
  0
ARC
  5
4C8
100
AcDbEntity
  8
0
100
AcDbCircle
 62
7
  6
CONTINUOUS
 10
40.8901565696
 20
19.7403193546
 40
0.2997723629
100
AcDbArc
 50
320.7807143204
 51
0.0001169991
  0
ARC
  5
4C9
100
AcDbEntity
  8
0
100
AcDbCircle
 62
7
  6
CONTINUOUS
 10
38.3265153334
 20
25.8627169501
 40
0.29872028
100
AcDbArc
 50
202.0257510751
 51
324.4968190815
  0
ARC
  5
4CA
100
AcDbEntity
  8
0
100
AcDbCircle
 62
7
  6
CONTINUOUS
 10
42.2683470901
 20
58.8019927922
 40
0.0642362366
100
AcDbArc
 50
50.165052984
 51
53.3534040219
  0
ARC
  5
4CB
100
AcDbEntity
  8
0
100
AcDbCircle
 62
7
  6
CONTINUOUS
 10
34.4428239439
 20
39.3060032351
 40
0.0334069809
100
AcDbArc
 50
48.9297599822
 51
52.0680868749
  0
ARC
  5
4CC
100
AcDbEntity
  8
0
100
AcDbCircle
 62
7
  6
CONTINUOUS
 10
35.3268838777
 20
125.6322719421
 40
75.7711250802
100
AcDbArc
 50
272.6782612879
 51
273.0985553034
  0
ARC
  5
4CD
100
AcDbEntity
  8
0
100
AcDbCircle
 62
7
  6
CONTINUOUS
 10
24.3204161857
 20
685.4986797424
 40
624.1972113216
100
AcDbArc
 50
269.8955885503
 51
270.1044114497
  0
ARC
  5
4CE
100
AcDbEntity
  8
0
100
AcDbCircle
 62
7
  6
CONTINUOUS
 10
24.416400989
 20
633.1511344624
 40
572.931421965
100
AcDbArc
 50
270.1656983905
 51
270.5107194554
  0
ARC
  5
4CF
100
AcDbEntity
  8
0
100
AcDbCircle
 62
7
  6
CONTINUOUS
 10
24.2265446265
 20
630.910712384
 40
571.6406151969
100
AcDbArc
 50
269.4423362509
 51
269.8627131158
  0
ARC
  5
4D0
100
AcDbEntity
  8
0
100
AcDbCircle
 62
7
  6
CONTINUOUS
 10
24.1911930782
 20
627.3372432946
 40
567.117479377
100
AcDbArc
 50
269.5144616662
 51
269.8668663215
  0
ARC
  5
4D1
100
AcDbEntity
  8
0
100
AcDbCircle
 62
7
  6
CONTINUOUS
 10
24.5452565388
 20
610.1506492445
 40
550.8802546682
100
AcDbArc
 50
270.1606523698
 51
270.5901878355
  0
ARC
  5
4D2
100
AcDbEntity
  8
0
100
AcDbCircle
 62
7
  6
CONTINUOUS
 10
24.3201601653
 20
541.6166924027
 40
496.8002517411
100
AcDbArc
 50
269.8713925455
 51
270.0000295267
  0
ARC
  5
4D3
100
AcDbEntity
  8
0
100
AcDbCircle
 62
7
  6
CONTINUOUS
 10
24.3214978728
 20
540.8808398011
 40
496.0643991407
100
AcDbArc
 50
269.9998750644
 51
270.1287028633
  0
ARC
  5
4D4
100
AcDbEntity
  8
0
100
AcDbCircle
 62
7
  6
CONTINUOUS
 10
24.3204161857
 20
531.3973592217
 40
486.872179936
100
AcDbArc
 50
269.8713762945
 51
270.1286237055
  0
ARC
  5
4D5
100
AcDbEntity
  8
0
100
AcDbCircle
 62
7
  6
CONTINUOUS
 10
26.0105474421
 20
464.586805755
 40
405.5966589884
100
AcDbArc
 50
270.5357506657
 51
271.2238198731
  0
ARC
  5
4D6
100
AcDbEntity
  8
0
100
AcDbCircle
 62
7
  6
CONTINUOUS
 10
26.1450710073
 20
465.6407590566
 40
405.4123609404
100
AcDbArc
 50
270.4774400375
 51
271.3328710251
  0
ARC
  5
4D7
100
AcDbEntity
  8
0
100
AcDbCircle
 62
7
  6
CONTINUOUS
 10
26.0408635605
 20
463.99922915
 40
403.7593744907
100
AcDbArc
 50
270.5448239105
 51
271.2268502105
  0
ARC
  5
4D8
100
AcDbEntity
  8
0
100
AcDbCircle
 62
7
  6
CONTINUOUS
 10
24.320700164
 20
384.8207356655
 40
347.4943450624
100
AcDbArc
 50
269.8132644816
 51
270.1469471422
  0
ARC
  5
4D9
100
AcDbEntity
  8
0
100
AcDbCircle
 62
7
  6
CONTINUOUS
 10
23.9919623587
 20
361.3438742916
 40
322.225047292
100
AcDbArc
 50
269.1173765571
 51
269.7650113451
  0
ARC
  5
4DA
100
AcDbEntity
  8
0
100
AcDbCircle
 62
7
  6
CONTINUOUS
 10
60.4769015223
 20
300.9693039388
 40
265.0342347311
100
AcDbArc
 50
261.0620947633
 51
261.5039495276
  0
SPLINE
  5
4DB
100
AcDbEntity
  8
0
100
AcDbSpline
 62
7
  6
CONTINUOUS
 70
0
 71
3
 72
13
 73
9
 74
0
 42
0.0000001
 43
0.0000001
 44
0.0000000001
 40
0.0
 40
0.0
 40
0.0
 40
0.0
 40
0.3325465936
 40
0.6264696928
 40
0.7506289502
 40
0.855734494
 40
0.9394982786
 40
1.0
 40
1.0
 40
1.0
 40
1.0
 10
9.0323932267
 20
59.3129780312
 30
0.0
 10
8.8970248681
 20
59.3133261068
 30
0.0
 10
8.6420124014
 20
59.3150559154
 30
0.0
 10
8.3364878944
 20
59.3200338548
 30
0.0
 10
8.1235928296
 20
59.3258250004
 30
0.0
 10
7.9962491552
 20
59.3304695128
 30
0.0
 10
7.8948673114
 20
59.3355660802
 30
0.0
 10
7.8362721301
 20
59.3397148016
 30
0.0
 10
7.8117651637
 20
59.3421561245
 30
0.0
  0
SPLINE
  5
4DC
100
AcDbEntity
  8
0
100
AcDbSpline
 62
7
  6
CONTINUOUS
 70
0
 71
3
 72
10
 73
6
 74
0
 42
0.0000001
 43
0.0000001
 44
0.0000000001
 40
0.0
 40
0.0
 40
0.0
 40
0.0
 40
0.1611179644
 40
0.3939566685
 40
1.0
 40
1.0
 40
1.0
 40
1.0
 10
9.2008940324
 20
59.309309592
 30
0.0
 10
9.1918660335
 20
59.3099773022
 30
0.0
 10
9.1697462266
 20
59.3109463526
 30
0.0
 10
9.1135825358
 20
59.312482594
 30
0.0
 10
9.0664445778
 20
59.3128904742
 30
0.0
 10
9.0323932267
 20
59.3129780312
 30
0.0
  0
SPLINE
  5
4DD
100
AcDbEntity
  8
0
100
AcDbSpline
 62
7
  6
CONTINUOUS
 70
0
 71
3
 72
9
 73
5
 74
0
 42
0.0000001
 43
0.0000001
 44
0.0000000001
 40
0.0
 40
0.0
 40
0.0
 40
0.0
 40
0.5440779228
 40
1.0
 40
1.0
 40
1.0
 40
1.0
 10
10.4854114385
 20
59.2344812603
 30
0.0
 10
10.2523128571
 20
59.2455024685
 30
0.0
 10
9.8239667992
 20
59.2675660294
 30
0.0
 10
9.3959096852
 20
59.2948862466
 30
0.0
 10
9.2008940324
 20
59.309309592
 30
0.0
  0
SPLINE
  5
4DE
100
AcDbEntity
  8
0
100
AcDbSpline
 62
7
  6
CONTINUOUS
 70
0
 71
3
 72
9
 73
5
 74
0
 42
0.0000001
 43
0.0000001
 44
0.0000000001
 40
0.0
 40
0.0
 40
0.0
 40
0.0
 40
0.4636529444
 40
1.0
 40
1.0
 40
1.0
 40
1.0
 10
38.3360356923
 20
59.184876094
 30
0.0
 10
37.8085011367
 20
59.1638154259
 30
0.0
 10
36.6704391996
 20
59.1254743189
 30
0.0
 10
35.5321156536
 20
59.096416564
 30
0.0
 10
34.9215394617
 20
59.0826883878
 30
0.0
  0
SPLINE
  5
4DF
100
AcDbEntity
  8
0
100
AcDbSpline
 62
7
  6
CONTINUOUS
 70
0
 71
3
 72
9
 73
5
 74
0
 42
0.0000001
 43
0.0000001
 44
0.0000000001
 40
0.0
 40
0.0
 40
0.0
 40
0.0
 40
0.454818805
 40
1.0
 40
1.0
 40
1.0
 40
1.0
 10
39.5415654119
 20
59.3170226577
 30
0.0
 10
39.3592569531
 20
59.3028168734
 30
0.0
 10
38.9580840629
 20
59.2759037154
 30
0.0
 10
38.5566116266
 20
59.2541871289
 30
0.0
 10
38.3376899994
 20
59.2433130233
 30
0.0
  0
SPLINE
  5
4E0
100
AcDbEntity
  8
0
100
AcDbSpline
 62
7
  6
CONTINUOUS
 70
0
 71
3
 72
10
 73
6
 74
0
 42
0.0000001
 43
0.0000001
 44
0.0000000001
 40
0.0
 40
0.0
 40
0.0
 40
0.0
 40
0.6099475078
 40
0.8417853352
 40
1.0
 40
1.0
 40
1.0
 40
1.0
 10
39.7078427286
 20
59.3207762026
 30
0.0
 10
39.6740234445
 20
59.3206718855
 30
0.0
 10
39.6273449936
 20
59.3202497988
 30
0.0
 10
39.5719231214
 20
59.3186795335
 30
0.0
 10
39.5503113473
 20
59.3177041558
 30
0.0
 10
39.5415654119
 20
59.3170226577
 30
0.0
  0
SPLINE
  5
4E1
100
AcDbEntity
  8
0
100
AcDbSpline
 62
7
  6
CONTINUOUS
 70
0
 71
3
 72
14
 73
10
 74
0
 42
0.0000001
 43
0.0000001
 44
0.0000000001
 40
0.0
 40
0.0
 40
0.0
 40
0.0
 40
0.0585477974
 40
0.1408774175
 40
0.2451087594
 40
0.3689732958
 40
0.5096620976
 40
0.664059624
 40
1.0
 40
1.0
 40
1.0
 40
1.0
 10
40.9108037831
 20
59.3505704096
 30
0.0
 10
40.8874470271
 20
59.3480833338
 30
0.0
 10
40.8310637698
 20
59.3439079629
 30
0.0
 10
40.7328648578
 20
59.3387691284
 30
0.0
 10
40.6084083774
 20
59.3340723093
 30
0.0
 10
40.4605137576
 20
59.3299018903
 30
0.0
 10
40.2924698786
 20
59.3263931193
 30
0.0
 10
40.0393355917
 20
59.3226113831
 30
0.0
 10
39.8426180442
 20
59.321191923
 30
0.0
 10
39.7078427286
 20
59.3207762026
 30
0.0
  0
LINE
  5
4E2
100
AcDbEntity
  8
0
100
AcDbLine
 62
7
  6
CONTINUOUS
 10
18.6628151833
 20
59.2971734808
 11
18.0516088501
 21
59.3035866598
  0
SPLINE
  5
4E3
100
AcDbEntity
  8
0
100
AcDbSpline
 62
7
  6
CONTINUOUS
 70
0
 71
3
 72
9
 73
5
 74
0
 42
0.0000001
 43
0.0000001
 44
0.0000000001
 40
0.0
 40
0.0
 40
0.0
 40
0.0
 40
0.5493141892
 40
1.0
 40
1.0
 40
1.0
 40
1.0
 10
10.4543903436
 20
59.4668994157
 30
0.0
 10
10.0563998328
 20
59.4817306671
 30
0.0
 10
9.3319842465
 20
59.5116974269
 30
0.0
 10
8.607960563
 20
59.5505150671
 30
0.0
 10
8.2818786937
 20
59.5715352436
 30
0.0
  0
SPLINE
  5
4E4
100
AcDbEntity
  8
0
100
AcDbSpline
 62
7
  6
CONTINUOUS
 70
0
 71
3
 72
11
 73
7
 74
0
 42
0.0000001
 43
0.0000001
 44
0.0000000001
 40
0.0
 40
0.0
 40
0.0
 40
0.0
 40
0.3174955987
 40
0.5905074696
 40
0.8182051722
 40
1.0
 40
1.0
 40
1.0
 40
1.0
 10
8.1952567557
 20
59.5772105946
 30
0.0
 10
8.0712266106
 20
59.5854714801
 30
0.0
 10
7.8406132793
 20
59.6019126176
 30
0.0
 10
7.5213924773
 20
59.6288572462
 30
0.0
 10
7.2555642912
 20
59.6561365727
 30
0.0
 10
7.0965175103
 20
59.6766580442
 30
0.0
 10
7.0261734009
 20
59.6875068915
 30
0.0
  0
SPLINE
  5
4E5
100
AcDbEntity
  8
0
100
AcDbSpline
 62
7
  6
CONTINUOUS
 70
0
 71
3
 72
17
 73
13
 74
0
 42
0.0000001
 43
0.0000001
 44
0.0000000001
 40
0.0
 40
0.0
 40
0.0
 40
0.0
 40
0.2207362444
 40
0.4131297935
 40
0.5772217216
 40
0.7132118233
 40
0.821513636
 40
0.9030188969
 40
0.9343845372
 40
0.9601663279
 40
0.981420423
 40
1.0
 40
1.0
 40
1.0
 40
1.0
 10
7.0261734009
 20
59.6875068915
 30
0.0
 10
7.002299237
 20
59.6911888936
 30
0.0
 10
6.9576757002
 20
59.6984768993
 30
0.0
 10
6.8955904182
 20
59.7101754609
 30
0.0
 10
6.8429722598
 20
59.7218765858
 30
0.0
 10
6.7997978999
 20
59.7335437791
 30
0.0
 10
6.7660758308
 20
59.7451652751
 30
0.0
 10
6.7440360181
 20
59.7554666723
 30
0.0
 10
6.7315262988
 20
59.7641276525
 30
0.0
 10
6.7252998115
 20
59.7701045603
 30
0.0
 10
6.7213734581
 20
59.7762328803
 30
0.0
 10
6.7204240355
 20
59.7806206277
 30
0.0
 10
6.7204247947
 20
59.7826538965
 30
0.0
  0
SPLINE
  5
4E6
100
AcDbEntity
  8
0
100
AcDbSpline
 62
7
  6
CONTINUOUS
 70
0
 71
3
 72
9
 73
5
 74
0
 42
0.0000001
 43
0.0000001
 44
0.0000000001
 40
0.0
 40
0.0
 40
0.0
 40
0.0
 40
0.4546021918
 40
1.0
 40
1.0
 40
1.0
 40
1.0
 10
40.3214984831
 20
59.5691376415
 30
0.0
 10
40.0252611117
 20
59.5503001024
 30
0.0
 10
39.37322444
 20
59.5151170331
 30
0.0
 10
38.7208476794
 20
59.4873943485
 30
0.0
 10
38.3649909656
 20
59.47366824
 30
0.0
  0
LINE
  5
4E7
100
AcDbEntity
  8
0
100
AcDbLine
 62
7
  6
CONTINUOUS
 10
30.8160933222
 20
59.3061582346
 11
30.6898168458
 21
59.3047137948
  0
LINE
  5
4E8
100
AcDbEntity
  8
0
100
AcDbLine
 62
7
  6
CONTINUOUS
 10
30.6898168458
 20
59.3047137948
 11
30.2196199631
 21
59.2996198518
  0
SPLINE
  5
4E9
100
AcDbEntity
  8
0
100
AcDbSpline
 62
7
  6
CONTINUOUS
 70
0
 71
3
 72
12
 73
8
 74
0
 42
0.0000001
 43
0.0000001
 44
0.0000000001
 40
0.0
 40
0.0
 40
0.0
 40
0.0
 40
0.0619359776
 40
0.1448019129
 40
0.3684287348
 40
0.6587436519
 40
1.0
 40
1.0
 40
1.0
 40
1.0
 10
40.9108037831
 20
60.6000399418
 30
0.0
 10
40.893344705
 20
60.598180863
 30
0.0
 10
40.8524192534
 20
60.5948771878
 30
0.0
 10
40.7481582221
 20
60.5886916222
 30
0.0
 10
40.5790753659
 20
60.5823536596
 30
0.0
 10
40.3367137834
 20
60.5764239751
 30
0.0
 10
40.1576897748
 20
60.5737933151
 30
0.0
 10
40.060955512
 20
60.5727150285
 30
0.0
  0
SPLINE
  5
4EA
100
AcDbEntity
  8
0
100
AcDbSpline
 62
7
  6
CONTINUOUS
 70
0
 71
3
 72
19
 73
15
 74
0
 42
0.0000001
 43
0.0000001
 44
0.0000000001
 40
0.0
 40
0.0
 40
0.0
 40
0.0
 40
0.2081517941
 40
0.3942320377
 40
0.5571096994
 40
0.6959729655
 40
0.810131289
 40
0.8577647912
 40
0.8990197657
 40
0.9338658956
 40
0.9622875954
 40
0.9842966353
 40
0.9929241934
 40
1.0
 40
1.0
 40
1.0
 40
1.0
 10
38.3431785264
 20
60.4224251793
 30
0.0
 10
38.5898370302
 20
60.4318984361
 30
0.0
 10
39.0569522792
 20
60.4511191846
 30
0.0
 10
39.7168501467
 20
60.4829300485
 30
0.0
 10
40.2944094021
 20
60.5159492228
 30
0.0
 10
40.7864481301
 20
60.5499627277
 30
0.0
 10
41.1417158791
 20
60.5803883807
 30
0.0
 10
41.3811620731
 20
60.6058512102
 30
0.0
 10
41.5267880832
 20
60.6239005576
 30
0.0
 10
41.6494318393
 20
60.6419925029
 30
0.0
 10
41.7489365361
 20
60.6600993203
 30
0.0
 10
41.8172070559
 20
60.6760617471
 30
0.0
 10
41.8598987069
 20
60.6894409514
 30
0.0
 10
41.877276664
 20
60.6962138908
 30
0.0
 10
41.884905447
 20
60.6997081687
 30
0.0
  0
SPLINE
  5
4EB
100
AcDbEntity
  8
0
100
AcDbSpline
 62
7
  6
CONTINUOUS
 70
0
 71
3
 72
12
 73
8
 74
0
 42
0.0000001
 43
0.0000001
 44
0.0000000001
 40
0.0
 40
0.0
 40
0.0
 40
0.0
 40
0.3379110016
 40
0.6253879672
 40
0.8494324965
 40
0.9344235197
 40
1.0
 40
1.0
 40
1.0
 40
1.0
 10
8.5671806047
 20
60.5660651569
 30
0.0
 10
8.4820375248
 20
60.5672136664
 30
0.0
 10
8.3244644396
 20
60.569877694
 30
0.0
 10
8.110487779
 20
60.5755218841
 30
0.0
 10
7.9602740244
 20
60.5814068223
 30
0.0
 10
7.8660393801
 20
60.5870066623
 30
0.0
 10
7.8282085161
 20
60.5899876109
 30
0.0
 10
7.8117651637
 20
60.5916256567
 30
0.0
  0
SPLINE
  5
4EC
100
AcDbEntity
  8
0
100
AcDbSpline
 62
7
  6
CONTINUOUS
 70
0
 71
3
 72
9
 73
5
 74
0
 42
0.0000001
 43
0.0000001
 44
0.0000000001
 40
0.0
 40
0.0
 40
0.0
 40
0.0
 40
0.2274032805
 40
1.0
 40
1.0
 40
1.0
 40
1.0
 10
14.1962299452
 20
60.3272038885
 30
0.0
 10
14.1755602203
 20
60.3276422944
 30
0.0
 10
14.0846584693
 20
60.3292255388
 30
0.0
 10
13.9937400334
 20
60.3297490406
 30
0.0
 10
13.9234993969
 20
60.3297133254
 30
0.0
  0
SPLINE
  5
4ED
100
AcDbEntity
  8
0
100
AcDbSpline
 62
7
  6
CONTINUOUS
 70
0
 71
3
 72
18
 73
14
 74
0
 42
0.0000001
 43
0.0000001
 44
0.0000000001
 40
0.0
 40
0.0
 40
0.0
 40
0.0
 40
0.0176174733
 40
0.0413582676
 40
0.0712755303
 40
0.1073633148
 40
0.149596567
 40
0.1979393014
 40
0.3126980766
 40
0.4510572315
 40
0.61231977
 40
0.7956741035
 40
1.0
 40
1.0
 40
1.0
 40
1.0
 10
6.7755852249
 20
60.6916959829
 30
0.0
 10
6.7961160096
 20
60.6841586434
 30
0.0
 10
6.8456806067
 20
60.6703165551
 30
0.0
 10
6.9322984053
 20
60.6522141391
 30
0.0
 10
7.0422571685
 20
60.6340717983
 30
0.0
 10
7.1754036343
 20
60.6159313529
 30
0.0
 10
7.3316159844
 20
60.5978776046
 30
0.0
 10
7.5852641467
 20
60.5725160468
 30
0.0
 10
7.9582989357
 20
60.5421768844
 30
0.0
 10
8.4716095148
 20
60.5082640481
 30
0.0
 10
9.0702935966
 20
60.4754062611
 30
0.0
 10
9.751033673
 20
60.4438156545
 30
0.0
 10
10.2319316396
 20
60.4247335555
 30
0.0
 10
10.4854114385
 20
60.4153433061
 30
0.0
  0
LINE
  5
4EE
100
AcDbEntity
  8
0
100
AcDbLine
 62
7
  6
CONTINUOUS
 10
37.6848978458
 20
58.5168879079
 11
37.9099777008
 21
59.1694504546
  0
LINE
  5
4EF
100
AcDbEntity
  8
0
100
AcDbLine
 62
7
  6
CONTINUOUS
 10
37.7626629051
 20
59.1641170676
 11
37.549919308
 21
58.519904881
  0
LINE
  5
4F0
100
AcDbEntity
  8
0
100
AcDbLine
 62
7
  6
CONTINUOUS
 10
32.4429243563
 20
58.3966376679
 11
32.456211969
 21
59.0421337742
  0
LINE
  5
4F1
100
AcDbEntity
  8
0
100
AcDbLine
 62
7
  6
CONTINUOUS
 10
32.6254292986
 20
59.0447317036
 11
32.612077085
 21
58.3870276008
  0
SPLINE
  5
4F2
100
AcDbEntity
  8
0
100
AcDbSpline
 62
7
  6
CONTINUOUS
 70
0
 71
3
 72
9
 73
5
 74
0
 42
0.0000001
 43
0.0000001
 44
0.0000000001
 40
0.0
 40
0.0
 40
0.0
 40
0.0
 40
0.2466305849
 40
1.0
 40
1.0
 40
1.0
 40
1.0
 10
37.3978001431
 20
58.4996987183
 30
0.0
 10
37.3966012819
 20
58.5053878228
 30
0.0
 10
37.3918856298
 20
58.5284857233
 30
0.0
 10
37.3876934879
 20
58.5516888146
 30
0.0
 10
37.384756442
 20
58.5692041451
 30
0.0
  0
SPLINE
  5
4F3
100
AcDbEntity
  8
0
100
AcDbSpline
 62
7
  6
CONTINUOUS
 70
0
 71
3
 72
10
 73
6
 74
0
 42
0.0000001
 43
0.0000001
 44
0.0000000001
 40
0.0
 40
0.0
 40
0.0
 40
0.0
 40
0.242700572
 40
0.4918976794
 40
1.0
 40
1.0
 40
1.0
 40
1.0
 10
37.384756442
 20
58.5692041451
 30
0.0
 10
37.3769751286
 20
58.6156086899
 30
0.0
 10
37.3642454542
 20
58.7101716702
 30
0.0
 10
37.3458777597
 20
58.9031906001
 30
0.0
 10
37.3382236629
 20
59.0498870188
 30
0.0
 10
37.3349643648
 20
59.1483390147
 30
0.0
  0
LINE
  5
4F4
100
AcDbEntity
  8
0
100
AcDbLine
 62
7
  6
CONTINUOUS
 10
11.1863785287
 20
58.5398947327
 11
10.9831627649
 21
59.1604052651
  0
LINE
  5
4F5
100
AcDbEntity
  8
0
100
AcDbLine
 62
7
  6
CONTINUOUS
 10
10.590713567
 20
59.1741167898
 11
10.8204201459
 21
58.5138588368
  0
LINE
  5
4F6
100
AcDbEntity
  8
0
100
AcDbLine
 62
7
  6
CONTINUOUS
 10
18.3529453786
 20
59.013621469
 11
18.453966703
 21
58.3760065621
  0
LINE
  5
4F7
100
AcDbEntity
  8
0
100
AcDbLine
 62
7
  6
CONTINUOUS
 10
20.1162150958
 20
59.005415462
 11
20.1989278032
 21
58.3326191863
  0
LINE
  5
4F8
100
AcDbEntity
  8
0
100
AcDbLine
 62
7
  6
CONTINUOUS
 10
20.8014886597
 20
58.0822918761
 11
21.0406054274
 21
58.0805988696
  0
LINE
  5
4F9
100
AcDbEntity
  8
0
100
AcDbLine
 62
7
  6
CONTINUOUS
 10
21.8972649709
 20
58.075552732
 11
22.2046770442
 21
58.0741228626
  0
LINE
  5
4FA
100
AcDbEntity
  8
0
100
AcDbLine
 62
7
  6
CONTINUOUS
 10
23.0029937627
 20
58.0713286431
 11
23.378349612
 21
58.0704676585
  0
SPLINE
  5
4FB
100
AcDbEntity
  8
0
100
AcDbSpline
 62
7
  6
CONTINUOUS
 70
0
 71
3
 72
10
 73
6
 74
0
 42
0.0000001
 43
0.0000001
 44
0.0000000001
 40
0.0
 40
0.0
 40
0.0
 40
0.0
 40
0.2490984249
 40
0.4990322675
 40
1.0
 40
1.0
 40
1.0
 40
1.0
 10
30.5951779127
 20
58.3553234579
 30
0.0
 10
30.6088384226
 20
58.3887932832
 30
0.0
 10
30.6330399801
 20
58.4571536707
 30
0.0
 10
30.6722818523
 20
58.5969300648
 30
0.0
 10
30.693710007
 20
58.7039636314
 30
0.0
 10
30.7054815145
 20
58.7757068926
 30
0.0
  0
LINE
  5
4FC
100
AcDbEntity
  8
0
100
AcDbLine
 62
7
  6
CONTINUOUS
 10
30.4150287627
 20
58.3654283698
 11
30.521883092
 21
59.0161926144
  0
SPLINE
  5
4FD
100
AcDbEntity
  8
0
100
AcDbSpline
 62
7
  6
CONTINUOUS
 70
0
 71
3
 72
9
 73
5
 74
0
 42
0.0000001
 43
0.0000001
 44
0.0000000001
 40
0.0
 40
0.0
 40
0.0
 40
0.0
 40
0.2670851641
 40
1.0
 40
1.0
 40
1.0
 40
1.0
 10
34.9569166097
 20
60.3350603438
 30
0.0
 10
34.9327720045
 20
60.3350603438
 30
0.0
 10
34.8423721939
 20
60.3348402744
 30
0.0
 10
34.7519708144
 20
60.3338697842
 30
0.0
 10
34.6857310466
 20
60.3324126351
 30
0.0
  0
LINE
  5
4FE
100
AcDbEntity
  8
0
100
AcDbLine
 62
7
  6
CONTINUOUS
 10
28.6630930687
 20
58.1756767281
 11
28.7703893295
 21
59.0076154863
  0
LINE
  5
4FF
100
AcDbEntity
  8
0
100
AcDbLine
 62
7
  6
CONTINUOUS
 10
25.2622323666
 20
58.0704671141
 11
25.6377628682
 21
58.0713284191
  0
LINE
  5
500
100
AcDbEntity
  8
0
100
AcDbLine
 62
7
  6
CONTINUOUS
 10
26.4353527806
 20
58.0741194163
 11
26.7432988765
 21
58.0755513988
  0
LINE
  5
501
100
AcDbEntity
  8
0
100
AcDbLine
 62
7
  6
CONTINUOUS
 10
27.5989090575
 20
58.0805898071
 11
27.8387092769
 21
58.0822871917
  0
LINE
  5
502
100
AcDbEntity
  8
0
100
AcDbLine
 62
7
  6
CONTINUOUS
 10
24.5079154125
 20
58.0511860173
 11
24.1329164514
 21
58.051186019
  0
LINE
  5
503
100
AcDbEntity
  8
0
100
AcDbLine
 62
7
  6
CONTINUOUS
 10
24.2651585489
 20
57.9519777349
 11
24.3204127873
 21
57.9519747556
  0
LINE
  5
504
100
AcDbEntity
  8
0
100
AcDbLine
 62
7
  6
CONTINUOUS
 10
24.3204127873
 20
57.9519747556
 11
24.3911267933
 21
57.9519796341
  0
SPLINE
  5
505
100
AcDbEntity
  8
0
100
AcDbSpline
 62
7
  6
CONTINUOUS
 70
0
 71
3
 72
10
 73
6
 74
0
 42
0.0000001
 43
0.0000001
 44
0.0000000001
 40
0.0
 40
0.0
 40
0.0
 40
0.0
 40
0.2492773906
 40
0.4992280973
 40
1.0
 40
1.0
 40
1.0
 40
1.0
 10
18.2643089215
 20
58.3733688535
 30
0.0
 10
18.2512775317
 20
58.4068977669
 30
0.0
 10
18.2281062651
 20
58.4751993191
 30
0.0
 10
18.1903959608
 20
58.614544011
 30
0.0
 10
18.1697665823
 20
58.7210690383
 30
0.0
 10
18.1584659312
 20
58.7924444878
 30
0.0
  0
LINE
  5
506
100
AcDbEntity
  8
0
100
AcDbLine
 62
7
  6
CONTINUOUS
 10
16.3933755591
 20
59.0388955654
 11
16.4065948787
 21
58.3958133269
  0
LINE
  5
507
100
AcDbEntity
  8
0
100
AcDbLine
 62
7
  6
CONTINUOUS
 10
16.2367479161
 20
58.3974719209
 11
16.2237399361
 21
59.0413908075
  0
SPLINE
  5
508
100
AcDbEntity
  8
0
100
AcDbSpline
 62
7
  6
CONTINUOUS
 70
0
 71
3
 72
12
 73
8
 74
0
 42
0.0000001
 43
0.0000001
 44
0.0000000001
 40
0.0
 40
0.0
 40
0.0
 40
0.0
 40
0.2569278806
 40
0.5110692656
 40
0.760376923
 40
0.881942239
 40
1.0
 40
1.0
 40
1.0
 40
1.0
 10
11.4158696525
 20
59.1450002167
 30
0.0
 10
11.4139223419
 20
59.0886754625
 30
0.0
 10
11.4087401547
 20
58.9766746113
 30
0.0
 10
11.39637529
 20
58.8103204533
 30
0.0
 10
11.3813179386
 20
58.6739947583
 30
0.0
 10
11.3651327508
 20
58.5679598441
 30
0.0
 10
11.3552535803
 20
58.5163101038
 30
0.0
 10
11.3496636955
 20
58.4910240444
 30
0.0
  0
SPLINE
  5
509
100
AcDbEntity
  8
0
100
AcDbSpline
 62
7
  6
CONTINUOUS
 70
0
 71
3
 72
14
 73
10
 74
0
 42
0.0000001
 43
0.0000001
 44
0.0000000001
 40
0.0
 40
0.0
 40
0.0
 40
0.0
 40
0.3760407519
 40
0.5326240333
 40
0.668129582
 40
0.7825080756
 40
0.8757691394
 40
0.9480883431
 40
1.0
 40
1.0
 40
1.0
 40
1.0
 10
14.6166321584
 20
39.2346381946
 30
0.0
 10
14.5617630787
 20
39.2398487904
 30
0.0
 10
14.4840995652
 20
39.2478905917
 30
0.0
 10
14.3869667614
 20
39.2603688389
 30
0.0
 10
14.3280385531
 20
39.269177072
 30
0.0
 10
14.2785195114
 20
39.2779954775
 30
0.0
 10
14.2384089017
 20
39.2867860033
 30
0.0
 10
14.2077567167
 20
39.2955257037
 30
0.0
 10
14.1907306038
 20
39.3022856496
 30
0.0
 10
14.1840940037
 20
39.3060068016
 30
0.0
  0
SPLINE
  5
50A
100
AcDbEntity
  8
0
100
AcDbSpline
 62
7
  6
CONTINUOUS
 70
0
 71
3
 72
9
 73
5
 74
0
 42
0.0000001
 43
0.0000001
 44
0.0000000001
 40
0.0
 40
0.0
 40
0.0
 40
0.0
 40
0.2709485072
 40
1.0
 40
1.0
 40
1.0
 40
1.0
 10
14.1840940037
 20
39.3060068016
 30
0.0
 10
14.1834898433
 20
39.3063455552
 30
0.0
 10
14.1812784217
 20
39.3076273456
 30
0.0
 10
14.1791404473
 20
39.3090428095
 30
0.0
 10
14.1776640563
 20
39.3101802603
 30
0.0
  0
SPLINE
  5
50B
100
AcDbEntity
  8
0
100
AcDbSpline
 62
7
  6
CONTINUOUS
 70
0
 71
3
 72
9
 73
5
 74
0
 42
0.0000001
 43
0.0000001
 44
0.0000000001
 40
0.0
 40
0.0
 40
0.0
 40
0.0
 40
0.311962107
 40
1.0
 40
1.0
 40
1.0
 40
1.0
 10
14.1776640563
 20
39.3101802603
 30
0.0
 10
14.1765492387
 20
39.3110391453
 30
0.0
 10
14.1731544471
 20
39.3139054499
 30
0.0
 10
14.1704183931
 20
39.3182370075
 30
0.0
 10
14.1704166906
 20
39.3213408385
 30
0.0
  0
SPLINE
  5
50C
100
AcDbEntity
  8
0
100
AcDbSpline
 62
7
  6
CONTINUOUS
 70
0
 71
3
 72
24
 73
20
 74
0
 42
0.0000001
 43
0.0000001
 44
0.0000000001
 40
0.0
 40
0.0
 40
0.0
 40
0.0
 40
0.2278937066
 40
0.4274102795
 40
0.5976693513
 40
0.671643611
 40
0.7381012381
 40
0.7969892436
 40
0.8482742279
 40
0.8919364531
 40
0.9279726877
 40
0.9431406368
 40
0.9564219937
 40
0.9678382334
 40
0.9774243877
 40
0.9852413489
 40
0.9914042288
 40
0.9961520683
 40
1.0
 40
1.0
 40
1.0
 40
1.0
 10
11.2784904267
 20
41.1166885663
 30
0.0
 10
11.1432795287
 20
41.1240308072
 30
0.0
 10
10.8897426273
 20
41.1387392963
 30
0.0
 10
10.5354325357
 20
41.162855719
 30
0.0
 10
10.2726191625
 20
41.1842290198
 30
0.0
 10
10.0888578486
 20
41.2019093877
 30
0.0
 10
9.9711078782
 20
41.214634132
 30
0.0
 10
9.8669366128
 20
41.2274357891
 30
0.0
 10
9.7764309168
 20
41.2402893874
 30
0.0
 10
9.6996687214
 20
41.2531753935
 30
0.0
 10
9.6444164147
 20
41.2644457303
 30
0.0
 10
9.6072306755
 20
41.2737093024
 30
0.0
 10
9.5844584779
 20
41.2802524367
 30
0.0
 10
9.5651538271
 20
41.2867881488
 30
0.0
 10
9.5493061907
 20
41.2933140246
 30
0.0
 10
9.5368744429
 20
41.2998261597
 30
0.0
 10
9.5278132303
 20
41.3063699949
 30
0.0
 10
9.5219599573
 20
41.313081549
 30
0.0
 10
9.5204178201
 20
41.3182057224
 30
0.0
 10
9.5204167919
 20
41.3204920899
 30
0.0
  0
SPLINE
  5
50D
100
AcDbEntity
  8
0
100
AcDbSpline
 62
7
  6
CONTINUOUS
 70
0
 71
3
 72
9
 73
5
 74
0
 42
0.0000001
 43
0.0000001
 44
0.0000000001
 40
0.0
 40
0.0
 40
0.0
 40
0.0
 40
0.2331156805
 40
1.0
 40
1.0
 40
1.0
 40
1.0
 10
7.2820691206
 20
39.1218893019
 30
0.0
 10
7.2854046939
 20
39.1160507926
 30
0.0
 10
7.2991318098
 20
39.0906735596
 30
0.0
 10
7.3106225238
 20
39.0641200107
 30
0.0
 10
7.3184415296
 20
39.043427451
 30
0.0
  0
SPLINE
  5
50E
100
AcDbEntity
  8
0
100
AcDbSpline
 62
7
  6
CONTINUOUS
 70
0
 71
3
 72
22
 73
18
 74
0
 42
0.0000001
 43
0.0000001
 44
0.0000000001
 40
0.0
 40
0.0
 40
0.0
 40
0.0
 40
0.0065720707
 40
0.0122636581
 40
0.0198124415
 40
0.0292817745
 40
0.0407007946
 40
0.0540839541
 40
0.0694384576
 40
0.106062305
 40
0.1505217304
 40
0.2027315495
 40
0.2625985324
 40
0.4048528069
 40
0.5761730231
 40
0.7752116258
 40
1.0
 40
1.0
 40
1.0
 40
1.0
 10
47.0701068885
 20
35.3200871301
 30
0.0
 10
47.0701084385
 20
35.3168390922
 30
0.0
 10
47.064349526
 20
35.3121130121
 30
0.0
 10
47.0558792009
 20
35.3081538166
 30
0.0
 10
47.0451400767
 20
35.3043323858
 30
0.0
 10
47.0316365656
 20
35.3006307947
 30
0.0
 10
47.0150966385
 20
35.2968687111
 30
0.0
 10
46.9956113931
 20
35.2931232562
 30
0.0
 10
46.9637427015
 20
35.2878120671
 30
0.0
 10
46.9165086808
 20
35.2813892847
 30
0.0
 10
46.8510348651
 20
35.2740857233
 30
0.0
 10
46.7740079754
 20
35.266849058
 30
0.0
 10
46.6487183934
 20
35.2567282235
 30
0.0
 10
46.4645349578
 20
35.244765104
 30
0.0
 10
46.2115306793
 20
35.2315983605
 30
0.0
 10
45.917659407
 20
35.2191142269
 30
0.0
 10
45.7083245376
 20
35.2117411455
 30
0.0
 10
45.5972883303
 20
35.2081411663
 30
0.0
  0
SPLINE
  5
50F
100
AcDbEntity
  8
0
100
AcDbSpline
 62
7
  6
CONTINUOUS
 70
0
 71
3
 72
22
 73
18
 74
0
 42
0.0000001
 43
0.0000001
 44
0.0000000001
 40
0.0
 40
0.0
 40
0.0
 40
0.0
 40
0.0066298267
 40
0.0123309688
 40
0.0198811433
 40
0.029345997
 40
0.0407562111
 40
0.054127405
 40
0.0694677363
 40
0.1060532815
 40
0.1504625633
 40
0.2026170961
 40
0.2624301319
 40
0.4045939326
 40
0.5758828057
 40
0.7749898847
 40
1.0
 40
1.0
 40
1.0
 40
1.0
 10
47.0701068896
 20
37.6191110692
 30
0.0
 10
47.0701053771
 20
37.6222870739
 30
0.0
 10
47.0645672684
 20
37.6269401854
 30
0.0
 10
47.056338783
 20
37.6308492685
 30
0.0
 10
47.0459511355
 20
37.6346084084
 30
0.0
 10
47.0328809082
 20
37.6382516656
 30
0.0
 10
47.016874436
 20
37.641953505
 30
0.0
 10
46.9980147841
 20
37.6456395903
 30
0.0
 10
46.9671688856
 20
37.6508663844
 30
0.0
 10
46.9214473943
 20
37.6571893502
 30
0.0
 10
46.8580653371
 20
37.6643822057
 30
0.0
 10
46.7834903574
 20
37.6715119744
 30
0.0
 10
46.6621561386
 20
37.6814887928
 30
0.0
 10
46.4837241974
 20
37.6932942392
 30
0.0
 10
46.2385247002
 20
37.7063065106
 30
0.0
 10
45.9535610605
 20
37.718669239
 30
0.0
 10
45.7505188108
 20
37.7259863742
 30
0.0
 10
45.642787561
 20
37.7295640705
 30
0.0
  0
SPLINE
  5
510
100
AcDbEntity
  8
0
100
AcDbSpline
 62
7
  6
CONTINUOUS
 70
0
 71
3
 72
9
 73
5
 74
0
 42
0.0000001
 43
0.0000001
 44
0.0000000001
 40
0.0
 40
0.0
 40
0.0
 40
0.0
 40
0.2103588247
 40
1.0
 40
1.0
 40
1.0
 40
1.0
 10
41.6277860607
 20
39.0780703277
 30
0.0
 10
41.6136447613
 20
39.0740997797
 30
0.0
 10
41.5471247181
 20
39.0528257995
 30
0.0
 10
41.4839252099
 20
39.020935146
 30
0.0
 10
41.4380044128
 20
38.9904184411
 30
0.0
  0
SPLINE
  5
511
100
AcDbEntity
  8
0
100
AcDbSpline
 62
7
  6
CONTINUOUS
 70
0
 71
3
 72
21
 73
17
 74
0
 42
0.0000001
 43
0.0000001
 44
0.0000000001
 40
0.0
 40
0.0
 40
0.0
 40
0.0
 40
0.0078564696
 40
0.0138517703
 40
0.0215576019
 40
0.0310771967
 40
0.042463221
 40
0.0709240677
 40
0.1070406194
 40
0.1508318892
 40
0.2022882459
 40
0.2613802799
 40
0.4022300513
 40
0.5728471322
 40
0.7724746233
 40
1.0
 40
1.0
 40
1.0
 40
1.0
 10
7.620838949
 20
41.324745297
 30
0.0
 10
7.620838453
 20
41.321768139
 30
0.0
 10
7.6170235413
 20
41.3170238056
 30
0.0
 10
7.6102673066
 20
41.3127478862
 30
0.0
 10
7.6022635462
 20
41.3089036102
 30
0.0
 10
7.5921098025
 20
41.3051389831
 30
0.0
 10
7.5742071308
 20
41.2996533945
 30
0.0
 10
7.5461604446
 20
41.2930867225
 30
0.0
 10
7.5057724733
 20
41.2856119357
 30
0.0
 10
7.45654891
 20
41.2781483776
 30
0.0
 10
7.3985354006
 20
41.2707017914
 30
0.0
 10
7.3038454657
 20
41.2602107049
 30
0.0
 10
7.163976762
 20
41.2476274675
 30
0.0
 10
6.9708114801
 20
41.2335060827
 30
0.0
 10
6.7447040851
 20
41.2197484963
 30
0.0
 10
6.583050927
 20
41.2113977925
 30
0.0
 10
6.496931703
 20
41.2072456523
 30
0.0
  0
SPLINE
  5
512
100
AcDbEntity
  8
0
100
AcDbSpline
 62
7
  6
CONTINUOUS
 70
0
 71
3
 72
10
 73
6
 74
0
 42
0.0000001
 43
0.0000001
 44
0.0000000001
 40
0.0
 40
0.0
 40
0.0
 40
0.0
 40
0.5793838137
 40
0.8179958982
 40
1.0
 40
1.0
 40
1.0
 40
1.0
 10
11.2034073681
 20
38.8754593314
 30
0.0
 10
11.0788118357
 20
38.8755025933
 30
0.0
 10
10.9028941316
 20
38.876693937
 30
0.0
 10
10.6878963395
 20
38.881382001
 30
0.0
 10
10.5974910986
 20
38.8845803172
 30
0.0
 10
10.5584039676
 20
38.8866078893
 30
0.0
  0
SPLINE
  5
513
100
AcDbEntity
  8
0
100
AcDbSpline
 62
7
  6
CONTINUOUS
 70
0
 71
3
 72
10
 73
6
 74
0
 42
0.0000001
 43
0.0000001
 44
0.0000000001
 40
0.0
 40
0.0
 40
0.0
 40
0.0
 40
0.2091168769
 40
0.4529452095
 40
1.0
 40
1.0
 40
1.0
 40
1.0
 10
40.8037861555
 20
38.8775241118
 30
0.0
 10
40.7380875018
 20
38.8754033519
 30
0.0
 10
40.595751748
 20
38.8718341712
 30
0.0
 10
40.2814551254
 20
38.866766022
 30
0.0
 10
40.0328460856
 20
38.8654491996
 30
0.0
 10
39.8608873134
 20
38.865508907
 30
0.0
  0
SPLINE
  5
514
100
AcDbEntity
  8
0
100
AcDbSpline
 62
7
  6
CONTINUOUS
 70
0
 71
3
 72
9
 73
5
 74
0
 42
0.0000001
 43
0.0000001
 44
0.0000000001
 40
0.0
 40
0.0
 40
0.0
 40
0.0
 40
0.2034329041
 40
1.0
 40
1.0
 40
1.0
 40
1.0
 10
34.4702359445
 20
39.319578795
 30
0.0
 10
34.4700521359
 20
39.3186803438
 30
0.0
 10
34.4684479628
 20
39.3143982345
 30
0.0
 10
34.4647890162
 20
39.311286597
 30
0.0
 10
34.4618592912
 20
39.3092102949
 30
0.0
  0
LINE
  5
515
100
AcDbEntity
  8
0
100
AcDbLine
 62
7
  6
CONTINUOUS
 10
34.4618592912
 20
39.3092102949
 11
34.457293123
 21
39.3063190108
  0
SPLINE
  5
516
100
AcDbEntity
  8
0
100
AcDbSpline
 62
7
  6
CONTINUOUS
 70
0
 71
3
 72
22
 73
18
 74
0
 42
0.0000001
 43
0.0000001
 44
0.0000000001
 40
0.0
 40
0.0
 40
0.0
 40
0.0
 40
0.0052582848
 40
0.0122003248
 40
0.0208739249
 40
0.0313014165
 40
0.0574454144
 40
0.0906321747
 40
0.1308184686
 40
0.1779328096
 40
0.2318712999
 40
0.2925232242
 40
0.3597542617
 40
0.4334054093
 40
0.5993049206
 40
0.7887774277
 40
1.0
 40
1.0
 40
1.0
 40
1.0
 10
34.457293123
 20
39.3063190108
 30
0.0
 10
34.452437955
 20
39.3035408015
 30
0.0
 10
34.4404920114
 20
39.2983203398
 30
0.0
 10
34.4193656489
 20
39.2914563031
 30
0.0
 10
34.3925157795
 20
39.2845579943
 30
0.0
 10
34.3454217284
 20
39.2745775961
 30
0.0
 10
34.2721417126
 20
39.2626515453
 30
0.0
 10
34.1671316977
 20
39.249148297
 30
0.0
 10
34.0396487908
 20
39.2357378394
 30
0.0
 10
33.8899804612
 20
39.2224567804
 30
0.0
 10
33.7184519452
 20
39.2093621305
 30
0.0
 10
33.5254535141
 20
39.1964968199
 30
0.0
 10
33.3114271586
 20
39.1838970686
 30
0.0
 10
32.9855138835
 20
39.1668097668
 30
0.0
 10
32.5295477109
 20
39.1467059153
 30
0.0
 10
31.9271855563
 20
39.1249129502
 30
0.0
 10
31.5011073035
 20
39.1121801069
 30
0.0
 10
31.2764898386
 20
39.1060224778
 30
0.0
  0
SPLINE
  5
517
100
AcDbEntity
  8
0
100
AcDbSpline
 62
7
  6
CONTINUOUS
 70
0
 71
3
 72
11
 73
7
 74
0
 42
0.0000001
 43
0.0000001
 44
0.0000000001
 40
0.0
 40
0.0
 40
0.0
 40
0.0
 40
0.1872618388
 40
0.4167655676
 40
0.6879333928
 40
1.0
 40
1.0
 40
1.0
 40
1.0
 10
38.7649825884
 20
41.2335053876
 30
0.0
 10
38.7041378614
 20
41.2249318218
 30
0.0
 10
38.5683436751
 20
41.2085634591
 30
0.0
 10
38.3436736972
 20
41.1866199914
 30
0.0
 10
38.0778627142
 20
41.1649673375
 30
0.0
 10
37.8869440266
 20
41.1517016404
 30
0.0
 10
37.7847627597
 20
41.1450473299
 30
0.0
  0
SPLINE
  5
518
100
AcDbEntity
  8
0
100
AcDbSpline
 62
7
  6
CONTINUOUS
 70
0
 71
3
 72
26
 73
22
 74
0
 42
0.0000001
 43
0.0000001
 44
0.0000000001
 40
0.0
 40
0.0
 40
0.0
 40
0.0
 40
0.1934107474
 40
0.3797931085
 40
0.4680718252
 40
0.5519377233
 40
0.630560706
 40
0.7031892241
 40
0.7691128429
 40
0.8277056769
 40
0.8783898809
 40
0.9206925938
 40
0.9385660631
 40
0.9542002836
 40
0.9675630352
 40
0.9786240023
 40
0.9873606654
 40
0.9937750179
 40
0.9979037877
 40
0.9991647099
 40
1.0
 40
1.0
 40
1.0
 40
1.0
 10
39.8430092461
 20
38.8218167127
 30
0.0
 10
40.0227118406
 20
38.8217543165
 30
0.0
 10
40.3755878818
 20
38.8226312983
 30
0.0
 10
40.8104727179
 20
38.8262453998
 30
0.0
 10
41.1435597916
 20
38.8306873714
 30
0.0
 10
41.3765211256
 20
38.8346376528
 30
0.0
 10
41.5949267774
 20
38.8392304899
 30
0.0
 10
41.7966437438
 20
38.8444133181
 30
0.0
 10
41.9797275298
 20
38.8501372405
 30
0.0
 10
42.1423945621
 20
38.8563311224
 30
0.0
 10
42.2830779343
 20
38.8629368004
 30
0.0
 10
42.3859075943
 20
38.8689851471
 30
0.0
 10
42.4561586174
 20
38.8741270455
 30
0.0
 10
42.4995503701
 20
38.8778214838
 30
0.0
 10
42.5365863951
 20
38.8815559296
 30
0.0
 10
42.5671609555
 20
38.8853178667
 30
0.0
 10
42.591253315
 20
38.8890666502
 30
0.0
 10
42.6087389802
 20
38.8927878485
 30
0.0
 10
42.6193224696
 20
38.8960870841
 30
0.0
 10
42.6242992265
 20
38.8990314272
 30
0.0
 10
42.6255813159
 20
38.9006813286
 30
0.0
 10
42.6257368691
 20
38.9014416681
 30
0.0
  0
SPLINE
  5
519
100
AcDbEntity
  8
0
100
AcDbSpline
 62
7
  6
CONTINUOUS
 70
0
 71
3
 72
12
 73
8
 74
0
 42
0.0000001
 43
0.0000001
 44
0.0000000001
 40
0.0
 40
0.0
 40
0.0
 40
0.0
 40
0.0830300751
 40
0.1820146793
 40
0.4206197511
 40
0.6995924374
 40
1.0
 40
1.0
 40
1.0
 40
1.0
 10
9.2505190994
 20
38.865212811
 30
0.0
 10
9.304014024
 20
38.8624378613
 30
0.0
 10
9.4213338757
 20
38.857336561
 30
0.0
 10
9.6925484708
 20
38.8482934766
 30
0.0
 10
10.0902430473
 20
38.8396968433
 30
0.0
 10
10.6179325151
 20
38.8333422336
 30
0.0
 10
10.9917213881
 20
38.8318344309
 30
0.0
 10
11.1855293007
 20
38.8317671371
 30
0.0
  0
SPLINE
  5
51A
100
AcDbEntity
  8
0
100
AcDbSpline
 62
7
  6
CONTINUOUS
 70
0
 71
3
 72
21
 73
17
 74
0
 42
0.0000001
 43
0.0000001
 44
0.0000000001
 40
0.0
 40
0.0
 40
0.0
 40
0.0
 40
0.2276258806
 40
0.4272510265
 40
0.5978095781
 40
0.7385691346
 40
0.7976161959
 40
0.8490322138
 40
0.8927890115
 40
0.9288824969
 40
0.9573384142
 40
0.9687316208
 40
0.9782662924
 40
0.9859952194
 40
0.9920247547
 40
1.0
 40
1.0
 40
1.0
 40
1.0
 10
6.5445328442
 20
41.4399186974
 30
0.0
 10
6.6270740717
 20
41.4358297384
 30
0.0
 10
6.7819770731
 20
41.4276131752
 30
0.0
 10
6.9986024585
 20
41.4140944721
 30
0.0
 10
7.1835934654
 20
41.400237546
 30
0.0
 10
7.3175049149
 20
41.3879019157
 30
0.0
 10
7.4081373299
 20
41.3776252273
 30
0.0
 10
7.4636555191
 20
41.3703341259
 30
0.0
 10
7.5107567657
 20
41.3630279368
 30
0.0
 10
7.5494003683
 20
41.3557125084
 30
0.0
 10
7.5762333518
 20
41.3492864152
 30
0.0
 10
7.5933580811
 20
41.3439212061
 30
0.0
 10
7.6030764706
 20
41.3402369373
 30
0.0
 10
7.6107339498
 20
41.3364773244
 30
0.0
 10
7.6172251811
 20
41.3322726207
 30
0.0
 10
7.6208394314
 20
41.3276408103
 30
0.0
 10
7.620838949
 20
41.324745297
 30
0.0
  0
SPLINE
  5
51B
100
AcDbEntity
  8
0
100
AcDbSpline
 62
7
  6
CONTINUOUS
 70
0
 71
3
 72
12
 73
8
 74
0
 42
0.0000001
 43
0.0000001
 44
0.0000000001
 40
0.0
 40
0.0
 40
0.0
 40
0.0
 40
0.3004075626
 40
0.5793802489
 40
0.8179853207
 40
0.9169699249
 40
1.0
 40
1.0
 40
1.0
 40
1.0
 10
11.1855293007
 20
37.3324036985
 30
0.0
 10
10.991721388
 20
37.3324709923
 30
0.0
 10
10.6179325151
 20
37.3339787951
 30
0.0
 10
10.0902430473
 20
37.3403334047
 30
0.0
 10
9.6925484708
 20
37.3489300381
 30
0.0
 10
9.4213338757
 20
37.3579731225
 30
0.0
 10
9.304014024
 20
37.3630744228
 30
0.0
 10
9.2505190994
 20
37.3658493724
 30
0.0
  0
SPLINE
  5
51C
100
AcDbEntity
  8
0
100
AcDbSpline
 62
7
  6
CONTINUOUS
 70
0
 71
3
 72
19
 73
15
 74
0
 42
0.0000001
 43
0.0000001
 44
0.0000000001
 40
0.0
 40
0.0
 40
0.0
 40
0.0
 40
0.0089545638
 40
0.0155685529
 40
0.0238603755
 40
0.0457712669
 40
0.0750251112
 40
0.1117305653
 40
0.1559098599
 40
0.2666266826
 40
0.4069313248
 40
0.576370891
 40
0.77435826
 40
1.0
 40
1.0
 40
1.0
 40
1.0
 10
9.5206790003
 20
41.323061374
 30
0.0
 10
9.5217942387
 20
41.3285126277
 30
0.0
 10
9.5292789516
 20
41.3362124411
 30
0.0
 10
9.5416911447
 20
41.3438912447
 30
0.0
 10
9.5625344591
 20
41.3536763278
 30
0.0
 10
9.5976961505
 20
41.3650942157
 30
0.0
 10
9.6507677904
 20
41.3781057647
 30
0.0
 10
9.7179717564
 20
41.3911125054
 30
0.0
 10
9.8355472567
 20
41.4099357106
 30
0.0
 10
10.0176551636
 20
41.4323158251
 30
0.0
 10
10.2777151564
 20
41.4574995656
 30
0.0
 10
10.5922461197
 20
41.482300596
 30
0.0
 10
10.9599697565
 20
41.5065998631
 30
0.0
 10
11.2227898504
 20
41.5214189944
 30
0.0
 10
11.3628036461
 20
41.5288092206
 30
0.0
  0
SPLINE
  5
51D
100
AcDbEntity
  8
0
100
AcDbSpline
 62
7
  6
CONTINUOUS
 70
0
 71
3
 72
26
 73
22
 74
0
 42
0.0000001
 43
0.0000001
 44
0.0000000001
 40
0.0
 40
0.0
 40
0.0
 40
0.0
 40
0.0008352902
 40
0.0020962128
 40
0.0062249839
 40
0.012639338
 40
0.0213760026
 40
0.0324369717
 40
0.0457997267
 40
0.0614339506
 40
0.0793074222
 40
0.1216101415
 40
0.1722943515
 40
0.2308871907
 40
0.2968108139
 40
0.3694393345
 40
0.4480623176
 40
0.531928214
 40
0.6202069296
 40
0.8065892722
 40
1.0
 40
1.0
 40
1.0
 40
1.0
 10
42.6257368691
 20
37.4020782295
 30
0.0
 10
42.6255813159
 20
37.4013178899
 30
0.0
 10
42.6242992257
 20
37.3996679884
 30
0.0
 10
42.619322467
 20
37.3967236454
 30
0.0
 10
42.6087389744
 20
37.3934244095
 30
0.0
 10
42.5912533052
 20
37.3897032108
 30
0.0
 10
42.5671609409
 20
37.3859544264
 30
0.0
 10
42.5365863742
 20
37.3821924886
 30
0.0
 10
42.4995503409
 20
37.3784580426
 30
0.0
 10
42.4561585798
 20
37.3747636042
 30
0.0
 10
42.3859075455
 20
37.3696217052
 30
0.0
 10
42.283077872
 20
37.3635733589
 30
0.0
 10
42.1423944835
 20
37.3569676805
 30
0.0
 10
41.9797274367
 20
37.3507737987
 30
0.0
 10
41.7966436394
 20
37.3450498765
 30
0.0
 10
41.5949266662
 20
37.3398670488
 30
0.0
 10
41.3765210133
 20
37.335274212
 30
0.0
 10
41.1435596816
 20
37.331323931
 30
0.0
 10
40.8104726277
 20
37.3268819604
 30
0.0
 10
40.3755878282
 20
37.3232678593
 30
0.0
 10
40.0227118224
 20
37.322390878
 30
0.0
 10
39.8430092461
 20
37.3224532741
 30
0.0
  0
SPLINE
  5
51E
100
AcDbEntity
  8
0
100
AcDbSpline
 62
7
  6
CONTINUOUS
 70
0
 71
3
 72
20
 73
16
 74
0
 42
0.0000001
 43
0.0000001
 44
0.0000000001
 40
0.0
 40
0.0
 40
0.0
 40
0.0
 40
0.0037445563
 40
0.0092143311
 40
0.0256789009
 40
0.0496828925
 40
0.0812599417
 40
0.1203595723
 40
0.1668581725
 40
0.2206194639
 40
0.2815031674
 40
0.4239496498
 40
0.5925909927
 40
0.7855135245
 40
1.0
 40
1.0
 40
1.0
 40
1.0
 10
41.3368576961
 20
38.9084846029
 30
0.0
 10
41.3363801094
 20
38.9080181389
 30
0.0
 10
41.3349388872
 20
38.9071678297
 30
0.0
 10
41.3306745378
 20
38.9055155374
 30
0.0
 10
41.3226607215
 20
38.9036553803
 30
0.0
 10
41.31000256
 20
38.9015317124
 30
0.0
 10
41.293246654
 20
38.8994188221
 30
0.0
 10
41.2724641013
 20
38.8973082998
 30
0.0
 10
41.2477044483
 20
38.8952252511
 30
0.0
 10
41.2190481735
 20
38.8931757188
 30
0.0
 10
41.1732994704
 20
38.8903525961
 30
0.0
 10
41.1070630416
 20
38.8870590044
 30
0.0
 10
41.0172754982
 20
38.8835143008
 30
0.0
 10
40.9146260769
 20
38.8802639055
 30
0.0
 10
40.8420152564
 20
38.8784076194
 30
0.0
 10
40.8037861555
 20
38.8775241118
 30
0.0
  0
SPLINE
  5
51F
100
AcDbEntity
  8
0
100
AcDbSpline
 62
7
  6
CONTINUOUS
 70
0
 71
3
 72
22
 73
18
 74
0
 42
0.0000001
 43
0.0000001
 44
0.0000000001
 40
0.0
 40
0.0
 40
0.0
 40
0.0
 40
0.2247883697
 40
0.4238269848
 40
0.5951472093
 40
0.7374014814
 40
0.7972684615
 40
0.8494782752
 40
0.893937697
 40
0.9305615462
 40
0.9459160508
 40
0.9592992097
 40
0.9707182283
 40
0.9801875594
 40
0.9877363412
 40
0.9934279277
 40
1.0
 40
1.0
 40
1.0
 40
1.0
 10
45.5972883303
 20
37.5071651054
 30
0.0
 10
45.7083245353
 20
37.5107650846
 30
0.0
 10
45.9176594085
 20
37.5181381665
 30
0.0
 10
46.2115306888
 20
37.5306223003
 30
0.0
 10
46.4645349762
 20
37.5437890442
 30
0.0
 10
46.6487184132
 20
37.5557521641
 30
0.0
 10
46.7740079901
 20
37.5658729983
 30
0.0
 10
46.8510348738
 20
37.5731096637
 30
0.0
 10
46.9165086859
 20
37.5804132256
 30
0.0
 10
46.9637427061
 20
37.5868360075
 30
0.0
 10
46.995611399
 20
37.5921471961
 30
0.0
 10
47.015096644
 20
37.595892651
 30
0.0
 10
47.031636569
 20
37.5996547344
 30
0.0
 10
47.0451400776
 20
37.6033563256
 30
0.0
 10
47.0558791994
 20
37.607177756
 30
0.0
 10
47.064349524
 20
37.6111369533
 30
0.0
 10
47.0701084364
 20
37.6158630305
 30
0.0
 10
47.0701068896
 20
37.6191110692
 30
0.0
  0
SPLINE
  5
520
100
AcDbEntity
  8
0
100
AcDbSpline
 62
7
  6
CONTINUOUS
 70
0
 71
3
 72
11
 73
7
 74
0
 42
0.0000001
 43
0.0000001
 44
0.0000000001
 40
0.0
 40
0.0
 40
0.0
 40
0.0
 40
0.316318722
 40
0.5889379007
 40
0.8170328168
 40
1.0
 40
1.0
 40
1.0
 40
1.0
 10
37.8563234278
 20
41.4948338709
 30
0.0
 10
37.9614001281
 20
41.487911112
 30
0.0
 10
38.1569801929
 20
41.4741274173
 30
0.0
 10
38.428048679
 20
41.4515502069
 30
0.0
 10
38.654508835
 20
41.4286828718
 30
0.0
 10
38.7903053251
 20
41.4115103429
 30
0.0
 10
38.8505384373
 20
41.4024486875
 30
0.0
  0
SPLINE
  5
521
100
AcDbEntity
  8
0
100
AcDbSpline
 62
7
  6
CONTINUOUS
 70
0
 71
3
 72
9
 73
5
 74
0
 42
0.0000001
 43
0.0000001
 44
0.0000000001
 40
0.0
 40
0.0
 40
0.0
 40
0.0
 40
0.3024245574
 40
1.0
 40
1.0
 40
1.0
 40
1.0
 10
34.4647717874
 20
39.3311889162
 30
0.0
 10
34.4656470547
 20
39.3304247647
 30
0.0
 10
34.4683877723
 20
39.3277891861
 30
0.0
 10
34.4704142107
 20
39.3240208959
 30
0.0
 10
34.4704156807
 20
39.3213408377
 30
0.0
  0
LINE
  5
522
100
AcDbEntity
  8
0
100
AcDbLine
 62
7
  6
CONTINUOUS
 10
11.3628036461
 20
39.5296579691
 11
11.2550618674
 21
39.5238667825
  0
SPLINE
  5
523
100
AcDbEntity
  8
0
100
AcDbSpline
 62
7
  6
CONTINUOUS
 70
0
 71
3
 72
9
 73
5
 74
0
 42
0.0000001
 43
0.0000001
 44
0.0000000001
 40
0.0
 40
0.0
 40
0.0
 40
0.0
 40
0.4999957748
 40
1.0
 40
1.0
 40
1.0
 40
1.0
 10
40.7850458623
 20
38.9339421028
 30
0.0
 10
40.8746058595
 20
38.9733120714
 30
0.0
 10
41.0596031355
 20
39.0396396392
 30
0.0
 10
41.2546839164
 20
39.0703216041
 30
0.0
 10
41.3524586131
 20
39.0737009146
 30
0.0
  0
SPLINE
  5
524
100
AcDbEntity
  8
0
100
AcDbSpline
 62
7
  6
CONTINUOUS
 70
0
 71
3
 72
9
 73
5
 74
0
 42
0.0000001
 43
0.0000001
 44
0.0000000001
 40
0.0
 40
0.0
 40
0.0
 40
0.0
 40
0.2094304109
 40
1.0
 40
1.0
 40
1.0
 40
1.0
 10
14.1705964268
 20
39.3231028811
 30
0.0
 10
14.170758884
 20
39.3238969671
 30
0.0
 10
14.172060548
 20
39.3275889379
 30
0.0
 10
14.1750107656
 20
39.3304282584
 30
0.0
 10
14.1774193359
 20
39.3323151167
 30
0.0
  0
LINE
  5
525
100
AcDbEntity
  8
0
100
AcDbLine
 62
7
  6
CONTINUOUS
 10
24.7954161857
 20
58.3380370213
 11
24.9578522922
 21
58.3381919242
  0
SPLINE
  5
526
100
AcDbEntity
  8
0
100
AcDbSpline
 62
7
  6
CONTINUOUS
 70
0
 71
3
 72
15
 73
11
 74
0
 42
0.0000001
 43
0.0000001
 44
0.0000000001
 40
0.0
 40
0.0
 40
0.0
 40
0.0
 40
0.1861843278
 40
0.3712446805
 40
0.4627178968
 40
0.5513694142
 40
0.6958032608
 40
0.7811149934
 40
0.8481071764
 40
1.0
 40
1.0
 40
1.0
 40
1.0
 10
11.0954440253
 20
45.0752707703
 30
0.0
 10
11.0954440253
 20
45.03982363
 30
0.0
 10
11.1081572748
 20
44.9685236279
 30
0.0
 10
11.1538914418
 20
44.891021383
 30
0.0
 10
11.2036515393
 20
44.8420157119
 30
0.0
 10
11.2546982329
 20
44.806740695
 30
0.0
 10
11.3114139024
 20
44.7832204268
 30
0.0
 10
11.3669515956
 20
44.7723046864
 30
0.0
 10
11.4244644935
 20
44.7653631017
 30
0.0
 10
11.4660580529
 20
44.7624825664
 30
0.0
 10
11.4949231669
 20
44.7607266622
 30
0.0
  0
SPLINE
  5
527
100
AcDbEntity
  8
0
100
AcDbSpline
 62
7
  6
CONTINUOUS
 70
0
 71
3
 72
12
 73
8
 74
0
 42
0.0000001
 43
0.0000001
 44
0.0000000001
 40
0.0
 40
0.0
 40
0.0
 40
0.0
 40
0.0911989547
 40
0.2001630827
 40
0.4567439327
 40
0.7359691494
 40
1.0
 40
1.0
 40
1.0
 40
1.0
 10
12.5927006415
 20
44.7053316504
 30
0.0
 10
12.6415386737
 20
44.7032548175
 30
0.0
 10
12.7487682874
 20
44.6996469207
 30
0.0
 10
12.9935157218
 20
44.6939172529
 30
0.0
 10
13.3390976904
 20
44.6899006845
 30
0.0
 10
13.7678110815
 20
44.6894572267
 30
0.0
 10
14.0589896427
 20
44.6922054357
 30
0.0
 10
14.2004888103
 20
44.6945852151
 30
0.0
  0
SPLINE
  5
528
100
AcDbEntity
  8
0
100
AcDbSpline
 62
7
  6
CONTINUOUS
 70
0
 71
3
 72
11
 73
7
 74
0
 42
0.0000001
 43
0.0000001
 44
0.0000000001
 40
0.0
 40
0.0
 40
0.0
 40
0.0
 40
0.2141355459
 40
0.4559529452
 40
0.7199266087
 40
1.0
 40
1.0
 40
1.0
 40
1.0
 10
15.2616987451
 20
44.6967351066
 30
0.0
 10
15.7169102057
 20
44.6823053914
 30
0.0
 10
16.6863356677
 20
44.6564728051
 30
0.0
 10
18.2172465032
 20
44.6264825178
 30
0.0
 10
19.8885332878
 20
44.6034339473
 30
0.0
 10
21.0456154912
 20
44.593296795
 30
0.0
 10
21.6412847372
 20
44.5894239218
 30
0.0
  0
SPLINE
  5
529
100
AcDbEntity
  8
0
100
AcDbSpline
 62
7
  6
CONTINUOUS
 70
0
 71
3
 72
27
 73
23
 74
0
 42
0.0000001
 43
0.0000001
 44
0.0000000001
 40
0.0
 40
0.0
 40
0.0
 40
0.0
 40
0.0418293012
 40
0.0836400218
 40
0.125210686
 40
0.1663312222
 40
0.1864240854
 40
0.205882517
 40
0.224048028
 40
0.2400019236
 40
0.2532815965
 40
0.2643707497
 40
0.2820692987
 40
0.3120788902
 40
0.3451767102
 40
0.3844881812
 40
0.4307643845
 40
0.4839599387
 40
0.5436949741
 40
0.6803693527
 40
0.8348462203
 40
1.0
 40
1.0
 40
1.0
 40
1.0
 10
21.8204161857
 20
44.8612580142
 30
0.0
 10
21.8204161857
 20
44.8392291403
 30
0.0
 10
21.8253413387
 20
44.7950364405
 30
0.0
 10
21.8468134367
 20
44.7321541856
 30
0.0
 10
21.8813044353
 20
44.6757734002
 30
0.0
 10
21.9191423619
 20
44.6364473828
 30
0.0
 10
21.9530908953
 20
44.6107886675
 30
0.0
 10
21.9792611804
 20
44.595215558
 30
0.0
 10
22.0047433577
 20
44.5830295646
 30
0.0
 10
22.0280278287
 20
44.5739722467
 30
0.0
 10
22.0483439065
 20
44.5677231529
 30
0.0
 10
22.069928774
 20
44.5626925367
 30
0.0
 10
22.1004026163
 20
44.5571121278
 30
0.0
 10
22.1427081821
 20
44.5522490378
 30
0.0
 10
22.1964814316
 20
44.5480297649
 30
0.0
 10
22.2588831356
 20
44.5443824164
 30
0.0
 10
22.3318968847
 20
44.5410601691
 30
0.0
 10
22.4156872251
 20
44.5380243619
 30
0.0
 10
22.547083654
 20
44.5342000553
 30
0.0
 10
22.7318387435
 20
44.5304452682
 30
0.0
 10
22.9721298064
 20
44.5275061833
 30
0.0
 10
23.1404583268
 20
44.5266015812
 30
0.0
 10
23.227434262
 20
44.5264061077
 30
0.0
  0
SPLINE
  5
52A
100
AcDbEntity
  8
0
100
AcDbSpline
 62
7
  6
CONTINUOUS
 70
0
 71
3
 72
20
 73
16
 74
0
 42
0.0000001
 43
0.0000001
 44
0.0000000001
 40
0.0
 40
0.0
 40
0.0
 40
0.0
 40
0.1654344575
 40
0.32016983
 40
0.4570746528
 40
0.5169065093
 40
0.5701842378
 40
0.6165267311
 40
0.6558931022
 40
0.6890196798
 40
0.7192346876
 40
0.7612916391
 40
0.8345431039
 40
0.916703098
 40
1.0
 40
1.0
 40
1.0
 40
1.0
 10
25.4133981094
 20
44.5264061077
 30
0.0
 10
25.5003973705
 20
44.5266016336
 30
0.0
 10
25.6687689136
 20
44.527506516
 30
0.0
 10
25.9091213458
 20
44.530447201
 30
0.0
 10
26.0939203691
 20
44.5342039424
 30
0.0
 10
26.2253443091
 20
44.5380307604
 30
0.0
 10
26.3091435788
 20
44.5410684636
 30
0.0
 10
26.3821603305
 20
44.5443934838
 30
0.0
 10
26.4445496766
 20
44.548042187
 30
0.0
 10
26.4984023976
 20
44.5522768283
 30
0.0
 10
26.5534845475
 20
44.5586030719
 30
0.0
 10
26.6285132645
 20
44.5752375656
 30
0.0
 10
26.7216680657
 20
44.6268947864
 30
0.0
 10
26.8008022996
 20
44.7292397545
 30
0.0
 10
26.8204161857
 20
44.8174534324
 30
0.0
 10
26.8204161857
 20
44.8612580142
 30
0.0
  0
SPLINE
  5
52B
100
AcDbEntity
  8
0
100
AcDbSpline
 62
7
  6
CONTINUOUS
 70
0
 71
3
 72
11
 73
7
 74
0
 42
0.0000001
 43
0.0000001
 44
0.0000000001
 40
0.0
 40
0.0
 40
0.0
 40
0.0
 40
0.2800733938
 40
0.5440470589
 40
0.7858644567
 40
1.0
 40
1.0
 40
1.0
 40
1.0
 10
26.9995477784
 20
44.5894239227
 30
0.0
 10
27.5952170258
 20
44.5932967962
 30
0.0
 10
28.7522992297
 20
44.6034339489
 30
0.0
 10
30.4235860083
 20
44.6264825201
 30
0.0
 10
31.9544968277
 20
44.656472808
 30
0.0
 10
32.9239222745
 20
44.6823053945
 30
0.0
 10
33.3791337265
 20
44.6967351098
 30
0.0
  0
SPLINE
  5
52C
100
AcDbEntity
  8
0
100
AcDbSpline
 62
7
  6
CONTINUOUS
 70
0
 71
3
 72
12
 73
8
 74
0
 42
0.0000001
 43
0.0000001
 44
0.0000000001
 40
0.0
 40
0.0
 40
0.0
 40
0.0
 40
0.264031099
 40
0.5432564035
 40
0.7998372089
 40
0.908801106
 40
1.0
 40
1.0
 40
1.0
 40
1.0
 10
34.440343561
 20
44.6945852151
 30
0.0
 10
34.5818428617
 20
44.6922054335
 30
0.0
 10
34.8730216032
 20
44.6894572249
 30
0.0
 10
35.3017351506
 20
44.6899006852
 30
0.0
 10
35.6473170185
 20
44.6939172636
 30
0.0
 10
35.8920642728
 20
44.6996469227
 30
0.0
 10
35.9992937302
 20
44.7032548189
 30
0.0
 10
36.0481317298
 20
44.7053316504
 30
0.0
  0
SPLINE
  5
52D
100
AcDbEntity
  8
0
100
AcDbSpline
 62
7
  6
CONTINUOUS
 70
0
 71
3
 72
15
 73
11
 74
0
 42
0.0000001
 43
0.0000001
 44
0.0000000001
 40
0.0
 40
0.0
 40
0.0
 40
0.0
 40
0.1519642794
 40
0.2189813468
 40
0.304009055
 40
0.4487367134
 40
0.5374537746
 40
0.6288822714
 40
0.8138618464
 40
1.0
 40
1.0
 40
1.0
 40
1.0
 10
37.1459092044
 20
44.7607266622
 30
0.0
 10
37.1747879668
 20
44.7624833966
 30
0.0
 10
37.2163994538
 20
44.7653625266
 30
0.0
 10
37.2738781921
 20
44.7723076896
 30
0.0
 10
37.3294070566
 20
44.783267573
 30
0.0
 10
37.3861923698
 20
44.8066804453
 30
0.0
 10
37.4372236466
 20
44.8420897509
 30
0.0
 10
37.4869916008
 20
44.8910624651
 30
0.0
 10
37.5326813591
 20
44.9685615378
 30
0.0
 10
37.545388346
 20
45.0398323362
 30
0.0
 10
37.545388346
 20
45.0752707703
 30
0.0
  0
SPLINE
  5
52E
100
AcDbEntity
  8
0
100
AcDbSpline
 62
7
  6
CONTINUOUS
 70
0
 71
3
 72
21
 73
17
 74
0
 42
0.0000001
 43
0.0000001
 44
0.0000000001
 40
0.0
 40
0.0
 40
0.0
 40
0.0
 40
0.0856270995
 40
0.161697032
 40
0.2309912553
 40
0.3007998304
 40
0.3415773358
 40
0.3930863563
 40
0.4631089685
 40
0.5064301803
 40
0.5544689451
 40
0.6060096486
 40
0.6598282638
 40
0.7712149679
 40
0.8850822044
 40
1.0
 40
1.0
 40
1.0
 40
1.0
 10
38.9835678347
 20
49.2792312925
 30
0.0
 10
39.0937999393
 20
49.287576021
 30
0.0
 10
39.3018703948
 20
49.3045807411
 30
0.0
 10
39.598645396
 20
49.3341301843
 30
0.0
 10
39.8742917334
 20
49.3688873371
 30
0.0
 10
40.1033470177
 20
49.4081500937
 30
0.0
 10
40.30711288
 20
49.4562308991
 30
0.0
 10
40.5076884387
 20
49.517576129
 30
0.0
 10
40.7044158801
 20
49.600333292
 30
0.0
 10
40.8874007749
 20
49.700373876
 30
0.0
 10
41.0413564357
 20
49.8024807688
 30
0.0
 10
41.195860521
 20
49.9268930349
 30
0.0
 10
41.3954011767
 20
50.1236404497
 30
0.0
 10
41.6108790273
 20
50.4161470635
 30
0.0
 10
41.7906802051
 20
50.8204360363
 30
0.0
 10
41.849340425
 20
51.1128592926
 30
0.0
 10
41.8622765844
 20
51.2606570426
 30
0.0
  0
SPLINE
  5
52F
100
AcDbEntity
  8
0
100
AcDbSpline
 62
7
  6
CONTINUOUS
 70
0
 71
3
 72
13
 73
9
 74
0
 42
0.0000001
 43
0.0000001
 44
0.0000000001
 40
0.0
 40
0.0
 40
0.0
 40
0.0
 40
0.2943250961
 40
0.5688175559
 40
0.6938000271
 40
0.8082848339
 40
0.9107697003
 40
1.0
 40
1.0
 40
1.0
 40
1.0
 10
25.0704148513
 20
48.9837626423
 30
0.0
 10
26.2890604545
 20
48.9854719379
 30
0.0
 10
28.6442313085
 20
48.9967379881
 30
0.0
 10
31.516721436
 20
49.031414432
 30
0.0
 10
33.6443833048
 20
49.0719066455
 30
0.0
 10
35.0598172762
 20
49.1064026075
 30
0.0
 10
36.3270379662
 20
49.1454945831
 30
0.0
 10
37.1202399756
 20
49.1765172913
 30
0.0
 10
37.4893177163
 20
49.1932347748
 30
0.0
  0
SPLINE
  5
530
100
AcDbEntity
  8
0
100
AcDbSpline
 62
7
  6
CONTINUOUS
 70
0
 71
3
 72
13
 73
9
 74
0
 42
0.0000001
 43
0.0000001
 44
0.0000000001
 40
0.0
 40
0.0
 40
0.0
 40
0.0
 40
0.0892326015
 40
0.1917219356
 40
0.3062171473
 40
0.4312079121
 40
0.7056905857
 40
1.0
 40
1.0
 40
1.0
 40
1.0
 10
11.1515160575
 20
49.1932347855
 30
0.0
 10
11.5206032662
 20
49.1765166102
 30
0.0
 10
12.3138332183
 20
49.1454933242
 30
0.0
 10
13.5811248459
 20
49.1063992665
 30
0.0
 10
14.9966545887
 20
49.0719024366
 30
0.0
 10
17.1243531376
 20
49.0314107667
 30
0.0
 10
19.9967718603
 20
48.9967370065
 30
0.0
 10
22.3518370013
 20
48.9854718875
 30
0.0
 10
23.5704175383
 20
48.9837626538
 30
0.0
  0
SPLINE
  5
531
100
AcDbEntity
  8
0
100
AcDbSpline
 62
7
  6
CONTINUOUS
 70
0
 71
3
 72
23
 73
19
 74
0
 42
0.0000001
 43
0.0000001
 44
0.0000000001
 40
0.0
 40
0.0
 40
0.0
 40
0.0
 40
0.1148479265
 40
0.1720718135
 40
0.2289202284
 40
0.3403028003
 40
0.3941771125
 40
0.4456894041
 40
0.5370713048
 40
0.5748395857
 40
0.6070707855
 40
0.6347023521
 40
0.6586434717
 40
0.6993018372
 40
0.7690669191
 40
0.8383332078
 40
0.9143869677
 40
1.0
 40
1.0
 40
1.0
 40
1.0
 10
6.7785557869
 20
51.2606570426
 30
0.0
 10
6.791488732
 20
51.1128960175
 30
0.0
 10
6.83563881
 20
50.8926502625
 30
0.0
 10
6.9411623118
 20
50.6160074529
 30
0.0
 10
7.073970969
 20
50.3563460609
 30
0.0
 10
7.2456000879
 20
50.123243275
 30
0.0
 10
7.4454691935
 20
49.926683908
 30
0.0
 10
7.6434331025
 20
49.7667486973
 30
0.0
 10
7.8445444131
 20
49.6459074073
 30
0.0
 10
8.0340420793
 20
49.5589068878
 30
0.0
 10
8.1518930294
 20
49.5138342126
 30
0.0
 10
8.2548800121
 20
49.4804570877
 30
0.0
 10
8.3694080405
 20
49.4476344344
 30
0.0
 10
8.5384600029
 20
49.4080576394
 30
0.0
 10
8.7673242456
 20
49.3687362961
 30
0.0
 10
9.0429727308
 20
49.334049725
 30
0.0
 10
9.3397779661
 20
49.3045039696
 30
0.0
 10
9.5478858795
 20
49.2875073628
 30
0.0
 10
9.6581397961
 20
49.2791646264
 30
0.0
  0
LINE
  5
532
100
AcDbEntity
  8
0
100
AcDbLine
 62
7
  6
CONTINUOUS
 10
38.185985
 20
58.5465337426
 11
38.0913189053
 21
58.5426854574
  0
LINE
  5
533
100
AcDbEntity
  8
0
100
AcDbLine
 62
7
  6
CONTINUOUS
 10
9.6891228277
 20
59.1384733347
 11
9.6230710528
 21
59.1357702026
  0
LINE
  5
534
100
AcDbEntity
  8
0
100
AcDbLine
 62
7
  6
CONTINUOUS
 10
37.5129955478
 20
58.520730444
 11
37.4443932231
 21
58.5182874601
  0
LINE
  5
535
100
AcDbEntity
  8
0
100
AcDbLine
 62
7
  6
CONTINUOUS
 10
9.0952793314
 20
59.1127603714
 11
8.9748875567
 21
59.1071205982
  0
LINE
  5
536
100
AcDbEntity
  8
0
100
AcDbLine
 62
7
  6
CONTINUOUS
 10
8.4998875567
 20
59.0831544807
 11
8.3924159702
 21
59.0772974116
  0
LINE
  5
537
100
AcDbEntity
  8
0
100
AcDbLine
 62
7
  6
CONTINUOUS
 10
36.7835134454
 20
58.496264576
 11
36.7067601307
 21
58.4938703379
  0
SPLINE
  5
538
100
AcDbEntity
  8
0
100
AcDbSpline
 62
7
  6
CONTINUOUS
 70
0
 71
3
 72
9
 73
5
 74
0
 42
0.0000001
 43
0.0000001
 44
0.0000000001
 40
0.0
 40
0.0
 40
0.0
 40
0.0
 40
0.2610893236
 40
1.0
 40
1.0
 40
1.0
 40
1.0
 10
6.4186235647
 20
58.88775532
 30
0.0
 10
6.4166693815
 20
58.8872126009
 30
0.0
 10
6.4091928085
 20
58.8851048294
 30
0.0
 10
6.401749745
 20
58.8828769628
 30
0.0
 10
6.3962770851
 20
58.8811460387
 30
0.0
  0
SPLINE
  5
539
100
AcDbEntity
  8
0
100
AcDbSpline
 62
7
  6
CONTINUOUS
 70
0
 71
3
 72
9
 73
5
 74
0
 42
0.0000001
 43
0.0000001
 44
0.0000000001
 40
0.0
 40
0.0
 40
0.0
 40
0.0
 40
0.270603107
 40
1.0
 40
1.0
 40
1.0
 40
1.0
 10
6.3341441123
 20
58.8535316014
 30
0.0
 10
6.3334214051
 20
58.8529928653
 30
0.0
 10
6.3307896647
 20
58.850951955
 30
0.0
 10
6.3283161951
 20
58.8486943142
 30
0.0
 10
6.3266846383
 20
58.8468938964
 30
0.0
  0
LINE
  5
53A
100
AcDbEntity
  8
0
100
AcDbLine
 62
7
  6
CONTINUOUS
 10
36.0006624472
 20
58.473240905
 11
35.8820426584
 21
58.4700045528
  0
LINE
  5
53B
100
AcDbEntity
  8
0
100
AcDbLine
 62
7
  6
CONTINUOUS
 10
35.1677948413
 20
58.451758022
 11
35.0421627679
 21
58.4487545943
  0
LINE
  5
53C
100
AcDbEntity
  8
0
100
AcDbLine
 62
7
  6
CONTINUOUS
 10
34.2884770947
 20
58.43190792
 11
34.1563707126
 21
58.4291502778
  0
LINE
  5
53D
100
AcDbEntity
  8
0
100
AcDbLine
 62
7
  6
CONTINUOUS
 10
11.8942260446
 20
58.4951093341
 11
11.8573189259
 21
58.496264576
  0
LINE
  5
53E
100
AcDbEntity
  8
0
100
AcDbLine
 62
7
  6
CONTINUOUS
 10
33.3664745809
 20
58.4137756001
 11
33.2284595899
 21
58.4112755522
  0
LINE
  5
53F
100
AcDbEntity
  8
0
100
AcDbLine
 62
7
  6
CONTINUOUS
 10
17.3784950519
 20
58.3810133085
 11
17.230458618
 21
58.3829672002
  0
LINE
  5
540
100
AcDbEntity
  8
0
100
AcDbLine
 62
7
  6
CONTINUOUS
 10
18.4082869622
 20
58.3687553781
 11
18.2561806078
 21
58.3704230463
  0
LINE
  5
541
100
AcDbEntity
  8
0
100
AcDbLine
 62
7
  6
CONTINUOUS
 10
19.4633955176
 20
58.3584856586
 11
19.3078705853
 21
58.3598599623
  0
LINE
  5
542
100
AcDbEntity
  8
0
100
AcDbLine
 62
7
  6
CONTINUOUS
 10
20.5393025811
 20
58.3502481268
 11
20.3810250526
 21
58.3513231809
  0
LINE
  5
543
100
AcDbEntity
  8
0
100
AcDbLine
 62
7
  6
CONTINUOUS
 10
32.4057354563
 20
58.3974387078
 11
32.2624028578
 21
58.3952069597
  0
LINE
  5
544
100
AcDbEntity
  8
0
100
AcDbLine
 62
7
  6
CONTINUOUS
 10
21.6314009535
 20
58.3440780569
 11
21.4710485975
 21
58.3448492579
  0
LINE
  5
545
100
AcDbEntity
  8
0
100
AcDbLine
 62
7
  6
CONTINUOUS
 10
22.735014102
 20
58.3400018701
 11
22.5732735719
 21
58.3404659157
  0
LINE
  5
546
100
AcDbEntity
  8
0
100
AcDbLine
 62
7
  6
CONTINUOUS
 10
23.8454161857
 20
58.3380370213
 11
23.6829800791
 21
58.3381919242
  0
LINE
  5
547
100
AcDbEntity
  8
0
100
AcDbLine
 62
7
  6
CONTINUOUS
 10
26.0675587995
 20
58.3404659157
 11
25.9058182693
 21
58.3400018701
  0
LINE
  5
548
100
AcDbEntity
  8
0
100
AcDbLine
 62
7
  6
CONTINUOUS
 10
27.1697837739
 20
58.3448492579
 11
27.0094314178
 21
58.3440780569
  0
LINE
  5
549
100
AcDbEntity
  8
0
100
AcDbLine
 62
7
  6
CONTINUOUS
 10
31.4103737533
 20
58.3829672002
 11
31.2623373195
 21
58.3810133085
  0
LINE
  5
54A
100
AcDbEntity
  8
0
100
AcDbLine
 62
7
  6
CONTINUOUS
 10
28.2598073188
 20
58.3513231809
 11
28.1015297902
 21
58.3502481268
  0
LINE
  5
54B
100
AcDbEntity
  8
0
100
AcDbLine
 62
7
  6
CONTINUOUS
 10
29.3329617861
 20
58.3598599623
 11
29.1774368537
 21
58.3584856586
  0
LINE
  5
54C
100
AcDbEntity
  8
0
100
AcDbLine
 62
7
  6
CONTINUOUS
 10
30.3846517636
 20
58.3704230463
 11
30.2325454091
 21
58.3687553781
  0
SPLINE
  5
54D
100
AcDbEntity
  8
0
100
AcDbSpline
 62
7
  6
CONTINUOUS
 70
0
 71
3
 72
15
 73
11
 74
0
 42
0.0000001
 43
0.0000001
 44
0.0000000001
 40
0.0
 40
0.0
 40
0.0
 40
0.0
 40
0.0510516861
 40
0.0833486272
 40
0.1214346167
 40
0.2163726109
 40
0.3370573395
 40
0.4818701329
 40
0.6451720997
 40
1.0
 40
1.0
 40
1.0
 40
1.0
 10
26.9995800001
 20
44.5894399177
 30
0.0
 10
27.0030803841
 20
44.5895233761
 30
0.0
 10
27.0086732729
 20
44.5921481202
 30
0.0
 10
27.014656237
 20
44.5979043293
 30
0.0
 10
27.0215801114
 20
44.6069549531
 30
0.0
 10
27.0295126886
 20
44.6225551804
 30
0.0
 10
27.0377194098
 20
44.6459142829
 30
0.0
 10
27.0447974684
 20
44.6744934347
 30
0.0
 10
27.0530388179
 20
44.7192218458
 30
0.0
 10
27.0570624875
 20
44.7545821859
 30
0.0
 10
27.059006745
 20
44.7788402599
 30
0.0
  0
SPLINE
  5
54E
100
AcDbEntity
  8
0
100
AcDbSpline
 62
7
  6
CONTINUOUS
 70
0
 71
3
 72
15
 73
11
 74
0
 42
0.0000001
 43
0.0000001
 44
0.0000000001
 40
0.0
 40
0.0
 40
0.0
 40
0.0
 40
0.0575127676
 40
0.12687066
 40
0.2155292384
 40
0.3263250505
 40
0.460726991
 40
0.6191295754
 40
0.800665705
 40
1.0
 40
1.0
 40
1.0
 40
1.0
 10
26.8204227177
 20
44.8666939899
 30
0.0
 10
26.8211311819
 20
44.8616574278
 30
0.0
 10
26.8256201905
 20
44.8509050357
 30
0.0
 10
26.8392283137
 20
44.837211432
 30
0.0
 10
26.8591600755
 20
44.8240819674
 30
0.0
 10
26.8860371289
 20
44.8116451144
 30
0.0
 10
26.9199980956
 20
44.8004771663
 30
0.0
 10
26.9608798404
 20
44.7908982194
 30
0.0
 10
27.0079690954
 20
44.7831650433
 30
0.0
 10
27.0415143906
 20
44.7798165681
 30
0.0
 10
27.0591046851
 20
44.7786620278
 30
0.0
  0
SPLINE
  5
54F
100
AcDbEntity
  8
0
100
AcDbSpline
 62
7
  6
CONTINUOUS
 70
0
 71
3
 72
14
 73
10
 74
0
 42
0.0000001
 43
0.0000001
 44
0.0000000001
 40
0.0
 40
0.0
 40
0.0
 40
0.0
 40
0.0778016948
 40
0.1673948777
 40
0.2745764911
 40
0.4002374752
 40
0.5422883105
 40
0.6944666278
 40
1.0
 40
1.0
 40
1.0
 40
1.0
 10
34.1458401737
 20
44.6995418805
 30
0.0
 10
34.1367045291
 20
44.6997246813
 30
0.0
 10
34.1169873478
 20
44.703863746
 30
0.0
 10
34.089126685
 20
44.7211109426
 30
0.0
 10
34.0634246167
 20
44.7494110984
 30
0.0
 10
34.0408322162
 20
44.7874726025
 30
0.0
 10
34.0229438333
 20
44.8336204728
 30
0.0
 10
34.0056899586
 20
44.9020346485
 30
0.0
 10
34.001038587
 20
44.9560414431
 30
0.0
 10
34.0010385836
 20
44.991925019
 30
0.0
  0
SPLINE
  5
550
100
AcDbEntity
  8
0
100
AcDbSpline
 62
7
  6
CONTINUOUS
 70
0
 71
3
 72
9
 73
5
 74
0
 42
0.0000001
 43
0.0000001
 44
0.0000000001
 40
0.0
 40
0.0
 40
0.0
 40
0.0
 40
0.7364532655
 40
1.0
 40
1.0
 40
1.0
 40
1.0
 10
7.2766628526
 20
58.2310847682
 30
0.0
 10
7.2752620062
 20
58.2310701237
 30
0.0
 10
7.2733360611
 20
58.2314643995
 30
0.0
 10
7.271611531
 20
58.2322667844
 30
0.0
 10
7.2711682083
 20
58.2325008789
 30
0.0
  0
SPLINE
  5
551
100
AcDbEntity
  8
0
100
AcDbSpline
 62
7
  6
CONTINUOUS
 70
0
 71
3
 72
9
 73
5
 74
0
 42
0.0000001
 43
0.0000001
 44
0.0000000001
 40
0.0
 40
0.0
 40
0.0
 40
0.0
 40
0.4032676733
 40
1.0
 40
1.0
 40
1.0
 40
1.0
 10
7.2711682083
 20
58.2325008789
 30
0.0
 10
7.2669564624
 20
58.2347248713
 30
0.0
 10
7.2593219854
 20
58.2446418209
 30
0.0
 10
7.2551587501
 20
58.2556132745
 30
0.0
 10
7.2530761725
 20
58.2623463784
 30
0.0
  0
SPLINE
  5
552
100
AcDbEntity
  8
0
100
AcDbSpline
 62
7
  6
CONTINUOUS
 70
0
 71
3
 72
9
 73
5
 74
0
 42
0.0000001
 43
0.0000001
 44
0.0000000001
 40
0.0
 40
0.0
 40
0.0
 40
0.0
 40
0.2149976948
 40
1.0
 40
1.0
 40
1.0
 40
1.0
 10
6.9345320448
 20
58.2639175293
 30
0.0
 10
6.9338528074
 20
58.2639117567
 30
0.0
 10
6.9306718372
 20
58.2643938779
 30
0.0
 10
6.9281351925
 20
58.2667578656
 30
0.0
 10
6.9265727535
 20
58.2686839569
 30
0.0
  0
SPLINE
  5
553
100
AcDbEntity
  8
0
100
AcDbSpline
 62
7
  6
CONTINUOUS
 70
0
 71
3
 72
9
 73
5
 74
0
 42
0.0000001
 43
0.0000001
 44
0.0000000001
 40
0.0
 40
0.0
 40
0.0
 40
0.0
 40
0.4215797648
 40
1.0
 40
1.0
 40
1.0
 40
1.0
 10
6.9265727535
 20
58.2686839569
 30
0.0
 10
6.9240176286
 20
58.2718337784
 30
0.0
 10
6.9196970915
 20
58.2806145602
 30
0.0
 10
6.9169243874
 20
58.2898188902
 30
0.0
 10
6.9155842005
 20
58.2952198677
 30
0.0
  0
SPLINE
  5
554
100
AcDbEntity
  8
0
100
AcDbSpline
 62
7
  6
CONTINUOUS
 70
0
 71
3
 72
9
 73
5
 74
0
 42
0.0000001
 43
0.0000001
 44
0.0000000001
 40
0.0
 40
0.0
 40
0.0
 40
0.0
 40
0.4761903246
 40
1.0
 40
1.0
 40
1.0
 40
1.0
 10
41.3112926043
 20
58.8500485944
 30
0.0
 10
41.3109615957
 20
58.8504426321
 30
0.0
 10
41.3098977823
 20
58.8508534774
 30
0.0
 10
41.3089084023
 20
58.851278554
 30
0.0
 10
41.308461253
 20
58.8516256925
 30
0.0
  0
SPLINE
  5
555
100
AcDbEntity
  8
0
100
AcDbSpline
 62
7
  6
CONTINUOUS
 70
0
 71
3
 72
10
 73
6
 74
0
 42
0.0000001
 43
0.0000001
 44
0.0000000001
 40
0.0
 40
0.0
 40
0.0
 40
0.0
 40
0.3680654016
 40
0.646143494
 40
1.0
 40
1.0
 40
1.0
 40
1.0
 10
6.6668607856
 20
58.2973318999
 30
0.0
 10
6.6651398229
 20
58.2973203617
 30
0.0
 10
6.6623993486
 20
58.2995364838
 30
0.0
 10
6.6600184589
 20
58.3034414686
 30
0.0
 10
6.6587863589
 20
58.3061666627
 30
0.0
 10
6.6581797509
 20
58.3077060154
 30
0.0
  0
SPLINE
  5
556
100
AcDbEntity
  8
0
100
AcDbSpline
 62
7
  6
CONTINUOUS
 70
0
 71
3
 72
9
 73
5
 74
0
 42
0.0000001
 43
0.0000001
 44
0.0000000001
 40
0.0
 40
0.0
 40
0.0
 40
0.0
 40
0.2098881507
 40
1.0
 40
1.0
 40
1.0
 40
1.0
 10
6.6581797509
 20
58.3077060154
 30
0.0
 10
6.6576230622
 20
58.3091186909
 30
0.0
 10
6.6552448045
 20
58.3159567931
 30
0.0
 10
6.6536676104
 20
58.3230463921
 30
0.0
 10
6.6526223912
 20
58.3286659642
 30
0.0
  0
SPLINE
  5
557
100
AcDbEntity
  8
0
100
AcDbSpline
 62
7
  6
CONTINUOUS
 70
0
 71
3
 72
10
 73
6
 74
0
 42
0.0000001
 43
0.0000001
 44
0.0000000001
 40
0.0
 40
0.0
 40
0.0
 40
0.0
 40
0.1154910246
 40
0.3116438378
 40
1.0
 40
1.0
 40
1.0
 40
1.0
 10
6.474792413
 20
58.3311847371
 30
0.0
 10
6.4740552137
 20
58.3311809149
 30
0.0
 10
6.4722749624
 20
58.3325831347
 30
0.0
 10
6.4696362136
 20
58.3383257182
 30
0.0
 10
6.4683474938
 20
58.3439270184
 30
0.0
 10
6.4675145335
 20
58.3482413003
 30
0.0
  0
SPLINE
  5
558
100
AcDbEntity
  8
0
100
AcDbSpline
 62
7
  6
CONTINUOUS
 70
0
 71
3
 72
9
 73
5
 74
0
 42
0.0000001
 43
0.0000001
 44
0.0000000001
 40
0.0
 40
0.0
 40
0.0
 40
0.0
 40
0.2268605964
 40
1.0
 40
1.0
 40
1.0
 40
1.0
 10
6.4675145335
 20
58.3482413003
 30
0.0
 10
6.4673071067
 20
58.3493156584
 30
0.0
 10
6.4664469906
 20
58.3540618824
 30
0.0
 10
6.4657724805
 20
58.3588403717
 30
0.0
 10
6.4653167873
 20
58.3625414464
 30
0.0
  0
SPLINE
  5
559
100
AcDbEntity
  8
0
100
AcDbSpline
 62
7
  6
CONTINUOUS
 70
0
 71
3
 72
12
 73
8
 74
0
 42
0.0000001
 43
0.0000001
 44
0.0000000001
 40
0.0
 40
0.0
 40
0.0
 40
0.0
 40
0.0287414374
 40
0.0814940039
 40
0.2735550428
 40
0.5825915303
 40
1.0
 40
1.0
 40
1.0
 40
1.0
 10
6.3591467331
 20
58.36533104
 30
0.0
 10
6.3589249864
 20
58.3653300226
 30
0.0
 10
6.3583955264
 20
58.3658348302
 30
0.0
 10
6.3576434078
 20
58.3677544874
 30
0.0
 10
6.3567296908
 20
58.371999857
 30
0.0
 10
6.3558332351
 20
58.3789980825
 30
0.0
 10
6.355327971
 20
58.3845917913
 30
0.0
 10
6.3550773037
 20
58.387802457
 30
0.0
  0
SPLINE
  5
55A
100
AcDbEntity
  8
0
100
AcDbSpline
 62
7
  6
CONTINUOUS
 70
0
 71
3
 72
9
 73
5
 74
0
 42
0.0000001
 43
0.0000001
 44
0.0000000001
 40
0.0
 40
0.0
 40
0.0
 40
0.0
 40
0.4889024346
 40
1.0
 40
1.0
 40
1.0
 40
1.0
 10
38.1734365985
 20
49.3910256747
 30
0.0
 10
38.2999573112
 20
49.4620698227
 30
0.0
 10
38.5482222339
 20
49.6269886922
 30
0.0
 10
38.7666512389
 20
49.8305807431
 30
0.0
 10
38.867482713
 20
49.9439070486
 30
0.0
  0
SPLINE
  5
55B
100
AcDbEntity
  8
0
100
AcDbSpline
 62
7
  6
CONTINUOUS
 70
0
 71
3
 72
14
 73
10
 74
0
 42
0.0000001
 43
0.0000001
 44
0.0000000001
 40
0.0
 40
0.0
 40
0.0
 40
0.0
 40
0.3020260803
 40
0.4421898009
 40
0.5740497767
 40
0.6966506425
 40
0.8091182968
 40
0.9104636772
 40
1.0
 40
1.0
 40
1.0
 40
1.0
 10
24.875529329
 20
49.7085839086
 30
0.0
 10
24.8975879982
 20
49.6551223715
 30
0.0
 10
24.9310222599
 20
49.5773242331
 30
0.0
 10
24.9745243013
 20
49.4763781011
 30
0.0
 10
25.003867602
 20
49.4067396931
 30
0.0
 10
25.0296483948
 20
49.3413697765
 30
0.0
 10
25.0507662772
 20
49.2804718414
 30
0.0
 10
25.0658437727
 20
49.224318767
 30
0.0
 10
25.0704084982
 20
49.1877855855
 30
0.0
 10
25.0704080764
 20
49.1706406938
 30
0.0
  0
LINE
  5
55C
100
AcDbEntity
  8
0
100
AcDbLine
 62
7
  6
CONTINUOUS
 10
24.3204161857
 20
49.7083302167
 11
24.8755289907
 21
49.708592342
  0
SPLINE
  5
55D
100
AcDbEntity
  8
0
100
AcDbSpline
 62
7
  6
CONTINUOUS
 70
0
 71
3
 72
9
 73
5
 74
0
 42
0.0000001
 43
0.0000001
 44
0.0000000001
 40
0.0
 40
0.0
 40
0.0
 40
0.0
 40
0.4967442452
 40
1.0
 40
1.0
 40
1.0
 40
1.0
 10
11.1515243834
 20
49.1932395476
 30
0.0
 10
11.0329137626
 20
49.1986176002
 30
0.0
 10
10.7945920949
 20
49.2380785154
 30
0.0
 10
10.5722609371
 20
49.3321359432
 30
0.0
 10
10.4673764409
 20
49.3910312373
 30
0.0
  0
SPLINE
  5
55E
100
AcDbEntity
  8
0
100
AcDbSpline
 62
7
  6
CONTINUOUS
 70
0
 71
3
 72
33
 73
29
 74
0
 42
0.0000001
 43
0.0000001
 44
0.0000000001
 40
0.0
 40
0.0
 40
0.0
 40
0.0
 40
0.000799027
 40
0.0013386504
 40
0.0019981268
 40
0.0037121458
 40
0.0059836053
 40
0.0088271516
 40
0.0122490014
 40
0.0162517879
 40
0.0208363686
 40
0.031747865
 40
0.0449653123
 40
0.0604620281
 40
0.0782061343
 40
0.0981547325
 40
0.1202622956
 40
0.1444779821
 40
0.1707422796
 40
0.2291668844
 40
0.2949782096
 40
0.3675479895
 40
0.4461823444
 40
0.5301263233
 40
0.6185768673
 40
0.7106857353
 40
0.8055631838
 40
1.0
 40
1.0
 40
1.0
 40
1.0
 10
41.8622606536
 20
51.2606570438
 30
0.0
 10
41.8618528662
 20
51.2559943659
 30
0.0
 10
41.857291501
 20
51.2487354884
 30
0.0
 10
41.8483699545
 20
51.2412874018
 30
0.0
 10
41.8338358591
 20
51.2321783455
 30
0.0
 10
41.8087348738
 20
51.2214560029
 30
0.0
 10
41.7706030822
 20
51.2092805046
 30
0.0
 10
41.7220805477
 20
51.1970844124
 30
0.0
 10
41.6631801501
 20
51.1848471934
 30
0.0
 10
41.5938960748
 20
51.1726176628
 30
0.0
 10
41.4809867813
 20
51.1553246065
 30
0.0
 10
41.3140684367
 20
51.1344149012
 30
0.0
 10
41.0831596202
 20
51.1106746898
 30
0.0
 10
40.812024116
 20
51.087206904
 30
0.0
 10
40.501308951
 20
51.0640878114
 30
0.0
 10
40.1517474707
 20
51.0413927646
 30
0.0
 10
39.7641778881
 20
51.0191921345
 30
0.0
 10
39.3395292219
 20
50.9975486882
 30
0.0
 10
38.7022576102
 20
50.9684644026
 30
0.0
 10
37.8213155091
 20
50.9344418916
 30
0.0
 10
36.6690561005
 20
50.8978850702
 30
0.0
 10
35.3982678015
 20
50.8647026938
 30
0.0
 10
34.0211471069
 20
50.8352330092
 30
0.0
 10
32.5509070359
 20
50.809778762
 30
0.0
 10
31.0016621113
 20
50.7885972797
 30
0.0
 10
29.388313689
 20
50.7719003163
 30
0.0
 10
27.1541002099
 20
50.7557133836
 30
0.0
 10
25.4593725159
 20
50.7509603702
 30
0.0
 10
24.3204161857
 20
50.7509603702
 30
0.0
  0
SPLINE
  5
55F
100
AcDbEntity
  8
0
100
AcDbSpline
 62
7
  6
CONTINUOUS
 70
0
 71
3
 72
33
 73
29
 74
0
 42
0.0000001
 43
0.0000001
 44
0.0000000001
 40
0.0
 40
0.0
 40
0.0
 40
0.0
 40
0.0007990426
 40
0.001338685
 40
0.0019981744
 40
0.0037121685
 40
0.0059835911
 40
0.0088271108
 40
0.0122489325
 40
0.0162516774
 40
0.0208361912
 40
0.031747592
 40
0.0449648674
 40
0.0604607704
 40
0.0782031818
 40
0.0981498564
 40
0.1202559461
 40
0.1444699869
 40
0.1707326286
 40
0.2291533593
 40
0.2949614648
 40
0.3675291323
 40
0.4461628966
 40
0.5301082643
 40
0.6185598535
 40
0.7106692636
 40
0.8055540684
 40
1.0
 40
1.0
 40
1.0
 40
1.0
 10
6.3965929168
 20
55.6247783247
 30
0.0
 10
6.397010033
 20
55.6200140618
 30
0.0
 10
6.4016717037
 20
55.6125974992
 30
0.0
 10
6.410788095
 20
55.604987554
 30
0.0
 10
6.4256389838
 20
55.5956805671
 30
0.0
 10
6.4512861636
 20
55.5847247154
 30
0.0
 10
6.4902478034
 20
55.5722842392
 30
0.0
 10
6.5398263579
 20
55.5598226137
 30
0.0
 10
6.6000087312
 20
55.5473188909
 30
0.0
 10
6.6708006348
 20
55.5348229786
 30
0.0
 10
6.7861672763
 20
55.517153097
 30
0.0
 10
6.9567182996
 20
55.4957881404
 30
0.0
 10
7.1926487809
 20
55.4715317529
 30
0.0
 10
7.4696722923
 20
55.4475538328
 30
0.0
 10
7.7871268261
 20
55.4239323531
 30
0.0
 10
8.1442696318
 20
55.4007444835
 30
0.0
 10
8.5402484991
 20
55.3780623221
 30
0.0
 10
8.9741153746
 20
55.3559478552
 30
0.0
 10
9.6252207476
 20
55.3262309205
 30
0.0
 10
10.525293156
 20
55.2914679817
 30
0.0
 10
11.7025881496
 20
55.2541159131
 30
0.0
 10
13.0010126392
 20
55.2202099517
 30
0.0
 10
14.4081125215
 20
55.1900968268
 30
0.0
 10
15.9103783974
 20
55.1640874031
 30
0.0
 10
17.4933762485
 20
55.1424433306
 30
0.0
 10
19.1419091817
 20
55.125380621
 30
0.0
 10
21.4248749575
 20
55.1088408119
 30
0.0
 10
23.1566042856
 20
55.1039824411
 30
0.0
 10
24.3204161857
 20
55.1039829928
 30
0.0
  0
SPLINE
  5
560
100
AcDbEntity
  8
0
100
AcDbSpline
 62
7
  6
CONTINUOUS
 70
0
 71
3
 72
23
 73
19
 74
0
 42
0.0000001
 43
0.0000001
 44
0.0000000001
 40
0.0
 40
0.0
 40
0.0
 40
0.0
 40
0.0070752874
 40
0.0097584347
 40
0.0128735167
 40
0.0204626462
 40
0.0299281237
 40
0.0413064455
 40
0.0546158537
 40
0.0698655135
 40
0.1061978362
 40
0.1503049627
 40
0.202135948
 40
0.2616181889
 40
0.4031996443
 40
0.5741943224
 40
0.7735522342
 40
1.0
 40
1.0
 40
1.0
 40
1.0
 10
42.3204045982
 20
57.3684941049
 30
0.0
 10
42.3204039067
 20
57.3600076613
 30
0.0
 10
42.3103101191
 20
57.3499476804
 30
0.0
 10
42.2975522308
 20
57.3419188724
 30
0.0
 10
42.2832224311
 20
57.3344133143
 30
0.0
 10
42.2607696447
 20
57.3254434256
 30
0.0
 10
42.2282140676
 20
57.3151502466
 30
0.0
 10
42.1885548755
 20
57.3048647254
 30
0.0
 10
42.1417633354
 20
57.2945589505
 30
0.0
 10
42.0653024396
 20
57.2799676584
 30
0.0
 10
41.951872891
 20
57.2622647748
 30
0.0
 10
41.7944976961
 20
57.2421000071
 30
0.0
 10
41.6091493416
 20
57.2220585897
 30
0.0
 10
41.3071165038
 20
57.1939082375
 30
0.0
 10
40.8620817044
 20
57.1603876055
 30
0.0
 10
40.2491640931
 20
57.1231129343
 30
0.0
 10
39.5342211726
 20
57.0872405453
 30
0.0
 10
39.0239369723
 20
57.0657463805
 30
0.0
 10
38.7525316967
 20
57.055139587
 30
0.0
  0
SPLINE
  5
561
100
AcDbEntity
  8
0
100
AcDbSpline
 62
7
  6
CONTINUOUS
 70
0
 71
3
 72
11
 73
7
 74
0
 42
0.0000001
 43
0.0000001
 44
0.0000000001
 40
0.0
 40
0.0
 40
0.0
 40
0.0
 40
0.2228984501
 40
0.4687902359
 40
0.730401686
 40
1.0
 40
1.0
 40
1.0
 40
1.0
 10
35.7675637761
 20
56.9638434758
 30
0.0
 10
34.9172273751
 20
56.9434315083
 30
0.0
 10
33.1286468724
 20
56.9083237324
 30
0.0
 10
30.3416577904
 20
56.8716586381
 30
0.0
 10
27.3763066387
 20
56.8491762956
 30
0.0
 10
25.3492044048
 20
56.8441505065
 30
0.0
 10
24.3204161857
 20
56.8441505288
 30
0.0
  0
SPLINE
  5
562
100
AcDbEntity
  8
0
100
AcDbSpline
 62
7
  6
CONTINUOUS
 70
0
 71
3
 72
13
 73
9
 74
0
 42
0.0000001
 43
0.0000001
 44
0.0000000001
 40
0.0
 40
0.0
 40
0.0
 40
0.0
 40
0.2611656596
 40
0.515132002
 40
0.6390976343
 40
0.7607890392
 40
0.8808668443
 40
1.0
 40
1.0
 40
1.0
 40
1.0
 10
37.3982697491
 20
45.0563987197
 30
0.0
 10
37.3982697491
 20
45.0192581129
 30
0.0
 10
37.3859007293
 20
44.9453839096
 30
0.0
 10
37.339937157
 20
44.8645321354
 30
0.0
 10
37.2887133866
 20
44.8147322767
 30
0.0
 10
37.2447816971
 20
44.7862255976
 30
0.0
 10
37.1966612928
 20
44.7674086291
 30
0.0
 10
37.1628189159
 20
44.761772741
 30
0.0
 10
37.1459087592
 20
44.7607339229
 30
0.0
  0
SPLINE
  5
563
100
AcDbEntity
  8
0
100
AcDbSpline
 62
7
  6
CONTINUOUS
 70
0
 71
3
 72
13
 73
9
 74
0
 42
0.0000001
 43
0.0000001
 44
0.0000000001
 40
0.0
 40
0.0
 40
0.0
 40
0.0
 40
0.2710350724
 40
0.5292642
 40
0.6522807907
 40
0.7709810634
 40
0.8864376933
 40
1.0
 40
1.0
 40
1.0
 40
1.0
 10
36.2828851337
 20
45.0001220066
 30
0.0
 10
36.2828851337
 20
44.962714472
 30
0.0
 10
36.2716226843
 20
44.8891383928
 30
0.0
 10
36.2290646731
 20
44.8075587304
 30
0.0
 10
36.1810312502
 20
44.7574615993
 30
0.0
 10
36.1401362832
 20
44.7292681095
 30
0.0
 10
36.095327985
 20
44.7110474106
 30
0.0
 10
36.0637905267
 20
44.706011932
 30
0.0
 10
36.0481315251
 20
44.7053364171
 30
0.0
  0
SPLINE
  5
564
100
AcDbEntity
  8
0
100
AcDbSpline
 62
7
  6
CONTINUOUS
 70
0
 71
3
 72
14
 73
10
 74
0
 42
0.0000001
 43
0.0000001
 44
0.0000000001
 40
0.0
 40
0.0
 40
0.0
 40
0.0
 40
0.3189034269
 40
0.4666091517
 40
0.601619461
 40
0.7217222653
 40
0.8262502844
 40
0.9172782368
 40
1.0
 40
1.0
 40
1.0
 40
1.0
 10
34.295388346
 20
44.9869745481
 30
0.0
 10
34.295388346
 20
44.9495049166
 30
0.0
 10
34.3003940363
 20
44.8944116409
 30
0.0
 10
34.3181589986
 20
44.8258651156
 30
0.0
 10
34.3357433586
 20
44.781758306
 30
0.0
 10
34.3572720307
 20
44.7451598104
 30
0.0
 10
34.3822401786
 20
44.7172947738
 30
0.0
 10
34.4101358373
 20
44.6992979932
 30
0.0
 10
34.4306256973
 20
44.6947588225
 30
0.0
 10
34.4403436001
 20
44.6945875122
 30
0.0
  0
SPLINE
  5
565
100
AcDbEntity
  8
0
100
AcDbSpline
 62
7
  6
CONTINUOUS
 70
0
 71
3
 72
12
 73
8
 74
0
 42
0.0000001
 43
0.0000001
 44
0.0000000001
 40
0.0
 40
0.0
 40
0.0
 40
0.0
 40
0.0900271495
 40
0.1986008247
 40
0.4555615057
 40
0.7355353275
 40
1.0
 40
1.0
 40
1.0
 40
1.0
 10
36.2828851338
 20
45.0001220066
 30
0.0
 10
36.2232888833
 20
44.9975876814
 30
0.0
 10
36.0917693565
 20
44.9931733408
 30
0.0
 10
35.7900035807
 20
44.9861246415
 30
0.0
 10
35.3623174555
 20
44.981167444
 30
0.0
 10
34.8313210166
 20
44.9806252454
 30
0.0
 10
34.4705922434
 20
44.9840279112
 30
0.0
 10
34.2953882427
 20
44.9869745498
 30
0.0
  0
SPLINE
  5
566
100
AcDbEntity
  8
0
100
AcDbSpline
 62
7
  6
CONTINUOUS
 70
0
 71
3
 72
11
 73
7
 74
0
 42
0.0000001
 43
0.0000001
 44
0.0000000001
 40
0.0
 40
0.0
 40
0.0
 40
0.0
 40
0.2642054013
 40
0.5256078638
 40
0.7713363707
 40
1.0
 40
1.0
 40
1.0
 40
1.0
 10
33.5772005131
 20
44.888465382
 30
0.0
 10
33.5704587402
 20
44.8635001894
 30
0.0
 10
33.5514120973
 20
44.8152314609
 30
0.0
 10
33.5075439533
 20
44.7524653967
 30
0.0
 10
33.4477787896
 20
44.7097241088
 30
0.0
 10
33.4014976739
 20
44.6976065439
 30
0.0
 10
33.3791327129
 20
44.6967654176
 30
0.0
  0
LINE
  5
567
100
AcDbEntity
  8
0
100
AcDbLine
 62
7
  6
CONTINUOUS
 10
39.2745999578
 20
59.0685840087
 11
39.3512128279
 21
59.0644087017
  0
SPLINE
  5
568
100
AcDbEntity
  8
0
100
AcDbSpline
 62
7
  6
CONTINUOUS
 70
0
 71
3
 72
11
 73
7
 74
0
 42
0.0000001
 43
0.0000001
 44
0.0000000001
 40
0.0
 40
0.0
 40
0.0
 40
0.0
 40
0.2130867423
 40
0.445836384
 40
0.7075036248
 40
1.0
 40
1.0
 40
1.0
 40
1.0
 10
11.494246645
 20
46.6411394128
 30
0.0
 10
11.4911512434
 20
46.6413104267
 30
0.0
 10
11.4847029623
 20
46.6428163049
 30
0.0
 10
11.4757381563
 20
46.6481005439
 30
0.0
 10
11.4673677829
 20
46.6560086839
 30
0.0
 10
11.4624419013
 20
46.6624258173
 30
0.0
 10
11.4600406706
 20
46.665939039
 30
0.0
  0
LINE
  5
569
100
AcDbEntity
  8
0
100
AcDbLine
 62
7
  6
CONTINUOUS
 10
12.0502991683
 20
46.6130737713
 11
9.7733478133
 21
49.9439053227
  0
LINE
  5
56A
100
AcDbEntity
  8
0
100
AcDbLine
 62
7
  6
CONTINUOUS
 10
9.3329165306
 20
49.8040775358
 11
11.4718032946
 21
46.6739755052
  0
SPLINE
  5
56B
100
AcDbEntity
  8
0
100
AcDbSpline
 62
7
  6
CONTINUOUS
 70
0
 71
3
 72
17
 73
13
 74
0
 42
0.0000001
 43
0.0000001
 44
0.0000000001
 40
0.0
 40
0.0
 40
0.0
 40
0.0
 40
0.0392778688
 40
0.0816441572
 40
0.1290599782
 40
0.1817326455
 40
0.2998336525
 40
0.4299382636
 40
0.5674032522
 40
0.7093554346
 40
0.8540030341
 40
1.0
 40
1.0
 40
1.0
 40
1.0
 10
12.0502991683
 20
46.6130737713
 30
0.0
 10
12.0548208001
 20
46.6128646024
 30
0.0
 10
12.06438718
 20
46.6143211097
 30
0.0
 10
12.0775610256
 20
46.6216943361
 30
0.0
 10
12.0895117571
 20
46.633120572
 30
0.0
 10
12.1044334474
 20
46.6534659695
 30
0.0
 10
12.1194749272
 20
46.6849767834
 30
0.0
 10
12.1330335695
 20
46.7273660421
 30
0.0
 10
12.1430823857
 20
46.7735408544
 30
0.0
 10
12.1499757561
 20
46.8219554357
 30
0.0
 10
12.1539860506
 20
46.8716738997
 30
0.0
 10
12.1548592757
 20
46.9051752869
 30
0.0
 10
12.154859172
 20
46.9220002954
 30
0.0
  0
LINE
  5
56C
100
AcDbEntity
  8
0
100
AcDbLine
 62
7
  6
CONTINUOUS
 10
39.7713870836
 20
59.0395889246
 11
39.8384615192
 21
59.0352765939
  0
SPLINE
  5
56D
100
AcDbEntity
  8
0
100
AcDbSpline
 62
7
  6
CONTINUOUS
 70
0
 71
3
 72
11
 73
7
 74
0
 42
0.0000001
 43
0.0000001
 44
0.0000000001
 40
0.0
 40
0.0
 40
0.0
 40
0.0
 40
0.2472183384
 40
0.4966609814
 40
0.747655326
 40
1.0
 40
1.0
 40
1.0
 40
1.0
 10
22.290315362
 20
48.991961474
 30
0.0
 10
22.1914730655
 20
48.7413898116
 30
0.0
 10
22.0431400924
 20
48.2182737772
 30
0.0
 10
21.9078990431
 20
47.4142889195
 30
0.0
 10
21.834459744
 20
46.5966317881
 30
0.0
 10
21.8204136647
 20
46.0480597491
 30
0.0
 10
21.8204161822
 20
45.7731121075
 30
0.0
  0
SPLINE
  5
56E
100
AcDbEntity
  8
0
100
AcDbSpline
 62
7
  6
CONTINUOUS
 70
0
 71
3
 72
15
 73
11
 74
0
 42
0.0000001
 43
0.0000001
 44
0.0000000001
 40
0.0
 40
0.0
 40
0.0
 40
0.0
 40
0.0625333449
 40
0.1250941016
 40
0.2498668069
 40
0.3748464783
 40
0.4999150209
 40
0.6250129551
 40
0.7501103869
 40
1.0
 40
1.0
 40
1.0
 40
1.0
 10
23.7643382992
 20
46.416072388
 30
0.0
 10
23.755909271
 20
46.4160818209
 30
0.0
 10
23.7389965722
 20
46.4178199737
 30
0.0
 10
23.7066761341
 20
46.4279455516
 30
0.0
 10
23.6706862168
 20
46.4512810002
 30
0.0
 10
23.6368650639
 20
46.4893465452
 30
0.0
 10
23.6110991148
 20
46.5331408261
 30
0.0
 10
23.5922707877
 20
46.5802617723
 30
0.0
 10
23.5752027509
 20
46.6455914281
 30
0.0
 10
23.5704171188
 20
46.6963645399
 30
0.0
 10
23.570417429
 20
46.7300478158
 30
0.0
  0
SPLINE
  5
56F
100
AcDbEntity
  8
0
100
AcDbSpline
 62
7
  6
CONTINUOUS
 70
0
 71
3
 72
11
 73
7
 74
0
 42
0.0000001
 43
0.0000001
 44
0.0000000001
 40
0.0
 40
0.0
 40
0.0
 40
0.0
 40
0.2499983942
 40
0.4375000061
 40
0.6250008703
 40
1.0
 40
1.0
 40
1.0
 40
1.0
 10
24.8764659699
 20
46.4160619459
 30
0.0
 10
24.8763739447
 20
46.6904370145
 30
0.0
 10
24.8760437751
 20
47.1705964081
 30
0.0
 10
24.8759447097
 20
47.8565394917
 30
0.0
 10
24.8761387987
 20
48.6796718091
 30
0.0
 10
24.8756285895
 20
49.297019606
 30
0.0
 10
24.875529329
 20
49.7085839086
 30
0.0
  0
LINE
  5
570
100
AcDbEntity
  8
0
100
AcDbLine
 62
7
  6
CONTINUOUS
 10
24.3204161857
 20
46.4157616628
 11
24.876494484
 21
46.4160723884
  0
LINE
  5
571
100
AcDbEntity
  8
0
100
AcDbLine
 62
7
  6
CONTINUOUS
 10
23.7643382992
 20
46.416072388
 11
24.3204161857
 21
46.4157616628
  0
SPLINE
  5
572
100
AcDbEntity
  8
0
100
AcDbSpline
 62
7
  6
CONTINUOUS
 70
0
 71
3
 72
11
 73
7
 74
0
 42
0.0000001
 43
0.0000001
 44
0.0000000001
 40
0.0
 40
0.0
 40
0.0
 40
0.0
 40
0.2499999362
 40
0.4374991966
 40
0.625000561
 40
1.0
 40
1.0
 40
1.0
 40
1.0
 10
23.7653031036
 20
49.7085854353
 30
0.0
 10
23.7652369324
 20
49.4342085525
 30
0.0
 10
23.764893772
 20
48.9540498498
 30
0.0
 10
23.7647701939
 20
48.2681068233
 30
0.0
 10
23.7649682783
 20
47.4449758577
 30
0.0
 10
23.7645044408
 20
46.8276268997
 30
0.0
 10
23.7643664062
 20
46.4160620973
 30
0.0
  0
SPLINE
  5
573
100
AcDbEntity
  8
0
100
AcDbSpline
 62
7
  6
CONTINUOUS
 70
0
 71
3
 72
15
 73
11
 74
0
 42
0.0000001
 43
0.0000001
 44
0.0000000001
 40
0.0
 40
0.0
 40
0.0
 40
0.0
 40
0.0625325344
 40
0.1250939673
 40
0.2498661816
 40
0.3748456573
 40
0.4999144291
 40
0.6250124162
 40
0.7501102417
 40
1.0
 40
1.0
 40
1.0
 40
1.0
 10
24.8764659699
 20
46.4160619459
 30
0.0
 10
24.8848946733
 20
46.41607138
 30
0.0
 10
24.9018061469
 20
46.4178153085
 30
0.0
 10
24.9341276839
 20
46.4279312953
 30
0.0
 10
24.9701219993
 20
46.4512595602
 30
0.0
 10
25.0039477124
 20
46.4893191586
 30
0.0
 10
25.0297181335
 20
46.5331095107
 30
0.0
 10
25.04854971
 20
46.5802277979
 30
0.0
 10
25.0656249054
 20
46.645554005
 30
0.0
 10
25.070408577
 20
46.6963265088
 30
0.0
 10
25.0704080764
 20
46.7300089428
 30
0.0
  0
SPLINE
  5
574
100
AcDbEntity
  8
0
100
AcDbSpline
 62
7
  6
CONTINUOUS
 70
0
 71
3
 72
11
 73
7
 74
0
 42
0.0000001
 43
0.0000001
 44
0.0000000001
 40
0.0
 40
0.0
 40
0.0
 40
0.0
 40
0.249903274
 40
0.4996151289
 40
0.7498921845
 40
1.0
 40
1.0
 40
1.0
 40
1.0
 10
23.1837743664
 20
57.885023676
 30
0.0
 10
23.1746589202
 20
57.8809629541
 30
0.0
 10
23.1550670842
 20
57.8756057134
 30
0.0
 10
23.1247005728
 20
57.876661103
 30
0.0
 10
23.0960081418
 20
57.8866881148
 30
0.0
 10
23.0796575188
 20
57.8987809988
 30
0.0
 10
23.0726096676
 20
57.9058571342
 30
0.0
  0
SPLINE
  5
575
100
AcDbEntity
  8
0
100
AcDbSpline
 62
7
  6
CONTINUOUS
 70
0
 71
3
 72
9
 73
5
 74
0
 42
0.0000001
 43
0.0000001
 44
0.0000000001
 40
0.0
 40
0.0
 40
0.0
 40
0.0
 40
0.4989374804
 40
1.0
 40
1.0
 40
1.0
 40
1.0
 10
21.992549295
 20
57.8821299103
 30
0.0
 10
21.9765077113
 20
57.8785852413
 30
0.0
 10
21.941974834
 20
57.8797040168
 30
0.0
 10
21.9124495785
 20
57.8976149172
 30
0.0
 10
21.9008571213
 20
57.9093544219
 30
0.0
  0
SPLINE
  5
576
100
AcDbEntity
  8
0
100
AcDbSpline
 62
7
  6
CONTINUOUS
 70
0
 71
3
 72
9
 73
5
 74
0
 42
0.0000001
 43
0.0000001
 44
0.0000000001
 40
0.0
 40
0.0
 40
0.0
 40
0.0
 40
0.4980754149
 40
1.0
 40
1.0
 40
1.0
 40
1.0
 10
20.823280753
 20
57.8864138256
 30
0.0
 10
20.8083137229
 20
57.8842215196
 30
0.0
 10
20.7767540012
 20
57.8870831763
 30
0.0
 10
20.7501058156
 20
57.9041609674
 30
0.0
 10
20.7394654984
 20
57.9150766518
 30
0.0
  0
SPLINE
  5
577
100
AcDbEntity
  8
0
100
AcDbSpline
 62
7
  6
CONTINUOUS
 70
0
 71
3
 72
12
 73
8
 74
0
 42
0.0000001
 43
0.0000001
 44
0.0000000001
 40
0.0
 40
0.0
 40
0.0
 40
0.0
 40
0.1241585004
 40
0.2493007574
 40
0.5001763836
 40
0.7506385058
 40
1.0
 40
1.0
 40
1.0
 40
1.0
 10
35.4630048507
 20
49.122613423
 30
0.0
 10
35.3986539604
 20
48.995899464
 30
0.0
 10
35.2759396543
 20
48.7381394687
 30
0.0
 10
35.0501733884
 20
48.2119121337
 30
0.0
 10
34.7965171357
 20
47.5408016857
 30
0.0
 10
34.5279051511
 20
46.724368052
 30
0.0
 10
34.3697687444
 20
46.1743872446
 30
0.0
 10
34.2953505395
 20
45.8988280504
 30
0.0
  0
SPLINE
  5
578
100
AcDbEntity
  8
0
100
AcDbSpline
 62
7
  6
CONTINUOUS
 70
0
 71
3
 72
17
 73
13
 74
0
 42
0.0000001
 43
0.0000001
 44
0.0000000001
 40
0.0
 40
0.0
 40
0.0
 40
0.0
 40
0.0392509015
 40
0.0816146051
 40
0.1290417891
 40
0.1817181844
 40
0.2998286414
 40
0.4299380937
 40
0.5674055149
 40
0.7093589831
 40
0.8540054981
 40
1.0
 40
1.0
 40
1.0
 40
1.0
 10
36.5905073521
 20
46.6130824898
 30
0.0
 10
36.585988653
 20
46.6128734565
 30
0.0
 10
36.5764241372
 20
46.614323387
 30
0.0
 10
36.5632551137
 20
46.6217048064
 30
0.0
 10
36.5513060118
 20
46.6331345483
 30
0.0
 10
36.5363860804
 20
46.653486263
 30
0.0
 10
36.521346749
 20
46.6850014508
 30
0.0
 10
36.5077902548
 20
46.7273952949
 30
0.0
 10
36.4977440235
 20
46.7735734466
 30
0.0
 10
36.4908515806
 20
46.8219903339
 30
0.0
 10
36.4868446199
 20
46.8717108148
 30
0.0
 10
36.4859759745
 20
46.9052131214
 30
0.0
 10
36.4859760618
 20
46.9220384857
 30
0.0
  0
SPLINE
  5
579
100
AcDbEntity
  8
0
100
AcDbSpline
 62
7
  6
CONTINUOUS
 70
0
 71
3
 72
9
 73
5
 74
0
 42
0.0000001
 43
0.0000001
 44
0.0000000001
 40
0.0
 40
0.0
 40
0.0
 40
0.0
 40
0.4968882733
 40
1.0
 40
1.0
 40
1.0
 40
1.0
 10
19.6724813995
 20
57.8937352394
 30
0.0
 10
19.6582252907
 20
57.8921828498
 30
0.0
 10
19.6283979787
 20
57.8958638513
 30
0.0
 10
19.6034525696
 20
57.9125141908
 30
0.0
 10
19.5934080561
 20
57.9229993204
 30
0.0
  0
LINE
  5
57A
100
AcDbEntity
  8
0
100
AcDbLine
 62
7
  6
CONTINUOUS
 10
37.1690290329
 20
46.6739772812
 11
39.3079255002
 21
49.8040884878
  0
LINE
  5
57B
100
AcDbEntity
  8
0
100
AcDbLine
 62
7
  6
CONTINUOUS
 10
38.867482713
 20
49.9439070486
 11
36.5905342761
 21
46.613072773
  0
SPLINE
  5
57C
100
AcDbEntity
  8
0
100
AcDbSpline
 62
7
  6
CONTINUOUS
 70
0
 71
3
 72
11
 73
7
 74
0
 42
0.0000001
 43
0.0000001
 44
0.0000000001
 40
0.0
 40
0.0
 40
0.0
 40
0.0
 40
0.2130043593
 40
0.4457244263
 40
0.7074419657
 40
1.0
 40
1.0
 40
1.0
 40
1.0
 10
37.1465828262
 20
46.6411293704
 30
0.0
 10
37.1496774798
 20
46.6413003431
 30
0.0
 10
37.1561242361
 20
46.6428122886
 30
0.0
 10
37.1650857484
 20
46.6481010184
 30
0.0
 10
37.173462529
 20
46.6560062898
 30
0.0
 10
37.1783902014
 20
46.6624259757
 30
0.0
 10
37.1807921375
 20
46.6659405494
 30
0.0
  0
SPLINE
  5
57D
100
AcDbEntity
  8
0
100
AcDbSpline
 62
7
  6
CONTINUOUS
 70
0
 71
3
 72
9
 73
5
 74
0
 42
0.0000001
 43
0.0000001
 44
0.0000000001
 40
0.0
 40
0.0
 40
0.0
 40
0.0
 40
0.5032559993
 40
1.0
 40
1.0
 40
1.0
 40
1.0
 10
38.1734493387
 20
49.391036248
 30
0.0
 10
38.0685668642
 20
49.3321426948
 30
0.0
 10
37.8462444917
 20
49.2380787354
 30
0.0
 10
37.6079273661
 20
49.1986195264
 30
0.0
 10
37.489319491
 20
49.193240473
 30
0.0
  0
SPLINE
  5
57E
100
AcDbEntity
  8
0
100
AcDbSpline
 62
7
  6
CONTINUOUS
 70
0
 71
3
 72
12
 73
8
 74
0
 42
0.0000001
 43
0.0000001
 44
0.0000000001
 40
0.0
 40
0.0
 40
0.0
 40
0.0
 40
0.1039925111
 40
0.2237491066
 40
0.4860279362
 40
0.7518051668
 40
1.0
 40
1.0
 40
1.0
 40
1.0
 10
33.5775359836
 20
44.8882908556
 30
0.0
 10
33.5925205757
 20
44.8904010539
 30
0.0
 10
33.6246507299
 20
44.8957217271
 30
0.0
 10
33.6940829074
 20
44.9092015306
 30
0.0
 10
33.7859577236
 20
44.9304655642
 30
0.0
 10
33.8950642756
 20
44.9596654231
 30
0.0
 10
33.9669941116
 20
44.9803309614
 30
0.0
 10
34.0011949938
 20
44.9919355369
 30
0.0
  0
SPLINE
  5
57F
100
AcDbEntity
  8
0
100
AcDbSpline
 62
7
  6
CONTINUOUS
 70
0
 71
3
 72
12
 73
8
 74
0
 42
0.0000001
 43
0.0000001
 44
0.0000000001
 40
0.0
 40
0.0
 40
0.0
 40
0.0
 40
0.2523865229
 40
0.5340529971
 40
0.7970059032
 40
0.9075381764
 40
1.0
 40
1.0
 40
1.0
 40
1.0
 10
34.2953875756
 20
45.8988138819
 30
0.0
 10
34.2666524664
 20
45.9116471583
 30
0.0
 10
34.2046616482
 20
45.936174085
 30
0.0
 10
34.1099400716
 20
45.9664423953
 30
0.0
 10
34.0304844213
 20
45.9858837047
 30
0.0
 10
33.9731888067
 20
45.9956345559
 30
0.0
 10
33.9480165008
 20
45.9984893518
 30
0.0
 10
33.9365174081
 20
45.9993228641
 30
0.0
  0
LINE
  5
580
100
AcDbEntity
  8
0
100
AcDbLine
 62
7
  6
CONTINUOUS
 10
33.5775359836
 20
44.8882908556
 11
33.9361713881
 21
45.9995015877
  0
SPLINE
  5
581
100
AcDbEntity
  8
0
100
AcDbSpline
 62
7
  6
CONTINUOUS
 70
0
 71
3
 72
10
 73
6
 74
0
 42
0.0000001
 43
0.0000001
 44
0.0000000001
 40
0.0
 40
0.0
 40
0.0
 40
0.0
 40
0.2500093364
 40
0.6249932359
 40
1.0
 40
1.0
 40
1.0
 40
1.0
 10
27.0607905406
 20
45.8838694481
 30
0.0
 10
27.0605743827
 20
45.7917655278
 30
0.0
 10
27.0600638629
 20
45.5615166774
 30
0.0
 10
27.0599371629
 20
45.1931136276
 30
0.0
 10
27.059423398
 20
44.9168152537
 30
0.0
 10
27.0591046851
 20
44.7786620278
 30
0.0
  0
SPLINE
  5
582
100
AcDbEntity
  8
0
100
AcDbSpline
 62
7
  6
CONTINUOUS
 70
0
 71
3
 72
12
 73
8
 74
0
 42
0.0000001
 43
0.0000001
 44
0.0000000001
 40
0.0
 40
0.0
 40
0.0
 40
0.0
 40
0.2476288031
 40
0.4972741965
 40
0.7484777373
 40
0.8743535198
 40
1.0
 40
1.0
 40
1.0
 40
1.0
 10
33.936516951
 20
45.9993228219
 30
0.0
 10
34.0227047117
 20
46.2659453182
 30
0.0
 10
34.2057333319
 20
46.798217996
 30
0.0
 10
34.5132877929
 20
47.5875920213
 30
0.0
 10
34.8016511762
 20
48.2359267611
 30
0.0
 10
35.0566107868
 20
48.7445537131
 30
0.0
 10
35.1937138171
 20
48.9940925034
 30
0.0
 10
35.2652359083
 20
49.1169695089
 30
0.0
  0
SPLINE
  5
583
100
AcDbEntity
  8
0
100
AcDbSpline
 62
7
  6
CONTINUOUS
 70
0
 71
3
 72
11
 73
7
 74
0
 42
0.0000001
 43
0.0000001
 44
0.0000000001
 40
0.0
 40
0.0
 40
0.0
 40
0.0
 40
0.2140270541
 40
0.455832301
 40
0.7198500634
 40
1.0
 40
1.0
 40
1.0
 40
1.0
 10
33.5772006743
 20
44.8884653872
 30
0.0
 10
33.112334577
 20
44.8737296281
 30
0.0
 10
32.1221086378
 20
44.8473449645
 30
0.0
 10
30.5581023023
 20
44.8167086403
 30
0.0
 10
28.8502680697
 20
44.7931576504
 30
0.0
 10
27.6677840287
 20
44.7827983556
 30
0.0
 10
27.05900647
 20
44.7788402581
 30
0.0
  0
SPLINE
  5
584
100
AcDbEntity
  8
0
100
AcDbSpline
 62
7
  6
CONTINUOUS
 70
0
 71
3
 72
9
 73
5
 74
0
 42
0.0000001
 43
0.0000001
 44
0.0000000001
 40
0.0
 40
0.0
 40
0.0
 40
0.0
 40
0.4953369514
 40
1.0
 40
1.0
 40
1.0
 40
1.0
 10
18.5430560471
 20
57.9034754802
 30
0.0
 10
18.5293704772
 20
57.9022977689
 30
0.0
 10
18.5008088536
 20
57.9064788565
 30
0.0
 10
18.4771622399
 20
57.9228771564
 30
0.0
 10
18.4675923883
 20
57.9330885017
 30
0.0
  0
SPLINE
  5
585
100
AcDbEntity
  8
0
100
AcDbSpline
 62
7
  6
CONTINUOUS
 70
0
 71
3
 72
14
 73
10
 74
0
 42
0.0000001
 43
0.0000001
 44
0.0000000001
 40
0.0
 40
0.0
 40
0.0
 40
0.0
 40
0.3331661634
 40
0.4905058422
 40
0.6326656912
 40
0.7543360137
 40
0.8540090273
 40
0.9334940647
 40
1.0
 40
1.0
 40
1.0
 40
1.0
 10
27.0608892683
 20
45.8836863023
 30
0.0
 10
27.0297645872
 20
45.8813163826
 30
0.0
 10
26.9840136649
 20
45.8751185075
 30
0.0
 10
26.9266493369
 20
45.8599416827
 30
0.0
 10
26.8895946052
 20
45.8461050613
 30
0.0
 10
26.8595042973
 20
45.829879374
 30
0.0
 10
26.8373162484
 20
45.8121310525
 30
0.0
 10
26.8236710917
 20
45.793097722
 30
0.0
 10
26.820416243
 20
45.7793284189
 30
0.0
 10
26.8204161857
 20
45.7730973902
 30
0.0
  0
SPLINE
  5
586
100
AcDbEntity
  8
0
100
AcDbSpline
 62
7
  6
CONTINUOUS
 70
0
 71
3
 72
16
 73
12
 74
0
 42
0.0000001
 43
0.0000001
 44
0.0000000001
 40
0.0
 40
0.0
 40
0.0
 40
0.0
 40
0.1944996065
 40
0.3811317648
 40
0.5524134709
 40
0.7022916656
 40
0.8254241035
 40
0.9173085557
 40
0.9750836398
 40
0.9910858392
 40
1.0
 40
1.0
 40
1.0
 40
1.0
 10
25.4358008011
 20
44.817692184
 30
0.0
 10
25.4358008011
 20
44.7986211075
 30
0.0
 10
25.4355263055
 20
44.7612493503
 30
0.0
 10
25.4343077532
 20
44.7070973246
 30
0.0
 10
25.4323227098
 20
44.6573382756
 30
0.0
 10
25.4296730148
 20
44.6138682003
 30
0.0
 10
25.4264545486
 20
44.5781795706
 30
0.0
 10
25.4229475379
 20
44.5517670467
 30
0.0
 10
25.4193899961
 20
44.5356640266
 30
0.0
 10
25.4163516915
 20
44.5283150945
 30
0.0
 10
25.414272135
 20
44.5264140446
 30
0.0
 10
25.4133981053
 20
44.5264078923
 30
0.0
  0
SPLINE
  5
587
100
AcDbEntity
  8
0
100
AcDbSpline
 62
7
  6
CONTINUOUS
 70
0
 71
3
 72
16
 73
12
 74
0
 42
0.0000001
 43
0.0000001
 44
0.0000000001
 40
0.0
 40
0.0
 40
0.0
 40
0.0
 40
0.1944996065
 40
0.3811317648
 40
0.5524134709
 40
0.7022916656
 40
0.8254241035
 40
0.9173085557
 40
0.9750836398
 40
0.9910858392
 40
1.0
 40
1.0
 40
1.0
 40
1.0
 10
23.2050315703
 20
44.817692184
 30
0.0
 10
23.2050315703
 20
44.7986211075
 30
0.0
 10
23.2053060658
 20
44.7612493503
 30
0.0
 10
23.2065246181
 20
44.7070973246
 30
0.0
 10
23.2085096615
 20
44.6573382756
 30
0.0
 10
23.2111593566
 20
44.6138682003
 30
0.0
 10
23.2143778227
 20
44.5781795706
 30
0.0
 10
23.2178848334
 20
44.5517670467
 30
0.0
 10
23.2214423752
 20
44.5356640266
 30
0.0
 10
23.2244806798
 20
44.5283150945
 30
0.0
 10
23.2265602363
 20
44.5264140446
 30
0.0
 10
23.227434266
 20
44.5264078923
 30
0.0
  0
SPLINE
  5
588
100
AcDbEntity
  8
0
100
AcDbSpline
 62
7
  6
CONTINUOUS
 70
0
 71
3
 72
24
 73
20
 74
0
 42
0.0000001
 43
0.0000001
 44
0.0000000001
 40
0.0
 40
0.0
 40
0.0
 40
0.0
 40
0.198626325
 40
0.3876047643
 40
0.4762939522
 40
0.5601143551
 40
0.6383561485
 40
0.7103338579
 40
0.7753920611
 40
0.832992749
 40
0.8826294829
 40
0.9238679411
 40
0.956386804
 40
0.9692827364
 40
0.9798992401
 40
0.988231528
 40
0.9942878161
 40
0.9981160611
 40
1.0
 40
1.0
 40
1.0
 40
1.0
 10
23.2050315704
 20
44.817692184
 30
0.0
 10
23.1131807127
 20
44.8178986136
 30
0.0
 10
22.9339411842
 20
44.8187827231
 30
0.0
 10
22.7136987726
 20
44.8211268263
 30
0.0
 10
22.5465555953
 20
44.8237528585
 30
0.0
 10
22.4306217714
 20
44.8260031452
 30
0.0
 10
22.3224240221
 20
44.8285541077
 30
0.0
 10
22.2229125179
 20
44.8313803019
 30
0.0
 10
22.1329583252
 20
44.8344594203
 30
0.0
 10
22.0533512308
 20
44.8377565803
 30
0.0
 10
21.9847767969
 20
44.8412348435
 30
0.0
 10
21.9278323582
 20
44.8448603767
 30
0.0
 10
21.8878846252
 20
44.848154668
 30
0.0
 10
21.8621344358
 20
44.8509526963
 30
0.0
 10
21.8475163116
 20
44.8529283481
 30
0.0
 10
21.8361664051
 20
44.8548103428
 30
0.0
 10
21.8278316178
 20
44.856865478
 30
0.0
 10
21.8229221522
 20
44.8584227631
 30
0.0
 10
21.820416187
 20
44.8603868213
 30
0.0
 10
21.8204161857
 20
44.8612580142
 30
0.0
  0
SPLINE
  5
589
100
AcDbEntity
  8
0
100
AcDbSpline
 62
7
  6
CONTINUOUS
 70
0
 71
3
 72
15
 73
11
 74
0
 42
0.0000001
 43
0.0000001
 44
0.0000000001
 40
0.0
 40
0.0
 40
0.0
 40
0.0
 40
0.3548216285
 40
0.5181216611
 40
0.662934001
 40
0.7836198842
 40
0.878560295
 40
0.9166478281
 40
0.948946355
 40
1.0
 40
1.0
 40
1.0
 40
1.0
 10
21.5818257334
 20
44.7788402592
 30
0.0
 10
21.5837699391
 20
44.7545828714
 30
0.0
 10
21.5877934814
 20
44.7192234677
 30
0.0
 10
21.5960344874
 20
44.6744960878
 30
0.0
 10
21.6031122564
 20
44.6459172801
 30
0.0
 10
21.6113186304
 20
44.6225581072
 30
0.0
 10
21.6192508988
 20
44.606957566
 30
0.0
 10
21.6261744856
 20
44.597906404
 30
0.0
 10
21.6321572361
 20
44.5921496141
 30
0.0
 10
21.6377498262
 20
44.5895240457
 30
0.0
 10
21.6412502928
 20
44.589439971
 30
0.0
  0
SPLINE
  5
58A
100
AcDbEntity
  8
0
100
AcDbSpline
 62
7
  6
CONTINUOUS
 70
0
 71
3
 72
11
 73
7
 74
0
 42
0.0000001
 43
0.0000001
 44
0.0000000001
 40
0.0
 40
0.0
 40
0.0
 40
0.0
 40
0.2801499362
 40
0.5441676984
 40
0.7859729455
 40
1.0
 40
1.0
 40
1.0
 40
1.0
 10
21.5818259666
 20
44.7788402577
 30
0.0
 10
20.9730484069
 20
44.7827983557
 30
0.0
 10
19.7905643634
 20
44.7931576495
 30
0.0
 10
18.0827301264
 20
44.8167086393
 30
0.0
 10
16.5187237853
 20
44.8473449636
 30
0.0
 10
15.5284978418
 20
44.8737296261
 30
0.0
 10
15.0636317422
 20
44.8884653857
 30
0.0
  0
SPLINE
  5
58B
100
AcDbEntity
  8
0
100
AcDbSpline
 62
7
  6
CONTINUOUS
 70
0
 71
3
 72
14
 73
10
 74
0
 42
0.0000001
 43
0.0000001
 44
0.0000000001
 40
0.0
 40
0.0
 40
0.0
 40
0.0
 40
0.30553155
 40
0.4577092094
 40
0.5997599078
 40
0.7254213188
 40
0.8326037792
 40
0.9221978605
 40
1.0
 40
1.0
 40
1.0
 40
1.0
 10
14.6397937891
 20
44.991925019
 30
0.0
 10
14.6397937853
 20
44.9560419631
 30
0.0
 10
14.6351425446
 20
44.902035931
 30
0.0
 10
14.6178891702
 20
44.8336225711
 30
0.0
 10
14.6000012718
 20
44.7874750238
 30
0.0
 10
14.5774094486
 20
44.7494134721
 30
0.0
 10
14.5517079441
 20
44.7211129381
 30
0.0
 10
14.5238478448
 20
44.703864936
 30
0.0
 10
14.504130851
 20
44.6997251155
 30
0.0
 10
14.4949952396
 20
44.6995419414
 30
0.0
  0
SPLINE
  5
58C
100
AcDbEntity
  8
0
100
AcDbSpline
 62
7
  6
CONTINUOUS
 70
0
 71
3
 72
13
 73
9
 74
0
 42
0.0000001
 43
0.0000001
 44
0.0000000001
 40
0.0
 40
0.0
 40
0.0
 40
0.0
 40
0.2710350724
 40
0.5292642
 40
0.6522807907
 40
0.7709810634
 40
0.8864376933
 40
1.0
 40
1.0
 40
1.0
 40
1.0
 10
12.3579472376
 20
45.0001220066
 30
0.0
 10
12.3579472376
 20
44.962714472
 30
0.0
 10
12.369209687
 20
44.8891383928
 30
0.0
 10
12.4117676982
 20
44.8075587304
 30
0.0
 10
12.4598011211
 20
44.7574615993
 30
0.0
 10
12.5006960881
 20
44.7292681095
 30
0.0
 10
12.5455043863
 20
44.7110474106
 30
0.0
 10
12.5770418446
 20
44.706011932
 30
0.0
 10
12.5927008462
 20
44.7053364171
 30
0.0
  0
SPLINE
  5
58D
100
AcDbEntity
  8
0
100
AcDbSpline
 62
7
  6
CONTINUOUS
 70
0
 71
3
 72
12
 73
8
 74
0
 42
0.0000001
 43
0.0000001
 44
0.0000000001
 40
0.0
 40
0.0
 40
0.0
 40
0.0
 40
0.2644646713
 40
0.5444384933
 40
0.8013991749
 40
0.9099728504
 40
1.0
 40
1.0
 40
1.0
 40
1.0
 10
14.3454441486
 20
44.9869745502
 30
0.0
 10
14.1702401469
 20
44.9840279115
 30
0.0
 10
13.8095113708
 20
44.9806252454
 30
0.0
 10
13.2785149268
 20
44.981167444
 30
0.0
 10
12.8508287966
 20
44.9861246414
 30
0.0
 10
12.5490630171
 20
44.9931733408
 30
0.0
 10
12.4175434887
 20
44.9975876814
 30
0.0
 10
12.3579472375
 20
45.0001220066
 30
0.0
  0
SPLINE
  5
58E
100
AcDbEntity
  8
0
100
AcDbSpline
 62
7
  6
CONTINUOUS
 70
0
 71
3
 72
13
 73
9
 74
0
 42
0.0000001
 43
0.0000001
 44
0.0000000001
 40
0.0
 40
0.0
 40
0.0
 40
0.0
 40
0.2611656596
 40
0.515132002
 40
0.6390976343
 40
0.7607890392
 40
0.8808668443
 40
1.0
 40
1.0
 40
1.0
 40
1.0
 10
11.2425626222
 20
45.0563987197
 30
0.0
 10
11.2425626222
 20
45.0192581129
 30
0.0
 10
11.254931642
 20
44.9453839096
 30
0.0
 10
11.3008952143
 20
44.8645321354
 30
0.0
 10
11.3521189847
 20
44.8147322767
 30
0.0
 10
11.3960506742
 20
44.7862255976
 30
0.0
 10
11.4441710785
 20
44.7674086291
 30
0.0
 10
11.4780134554
 20
44.761772741
 30
0.0
 10
11.4949236121
 20
44.7607339229
 30
0.0
  0
SPLINE
  5
58F
100
AcDbEntity
  8
0
100
AcDbSpline
 62
7
  6
CONTINUOUS
 70
0
 71
3
 72
9
 73
5
 74
0
 42
0.0000001
 43
0.0000001
 44
0.0000000001
 40
0.0
 40
0.0
 40
0.0
 40
0.0
 40
0.2610893236
 40
1.0
 40
1.0
 40
1.0
 40
1.0
 10
42.2222088066
 20
58.7783587842
 30
0.0
 10
42.2241629898
 20
58.7789015033
 30
0.0
 10
42.2316395628
 20
58.7810092747
 30
0.0
 10
42.2390826264
 20
58.7832371414
 30
0.0
 10
42.2445552862
 20
58.7849680655
 30
0.0
  0
SPLINE
  5
590
100
AcDbEntity
  8
0
100
AcDbSpline
 62
7
  6
CONTINUOUS
 70
0
 71
3
 72
12
 73
8
 74
0
 42
0.0000001
 43
0.0000001
 44
0.0000000001
 40
0.0
 40
0.0
 40
0.0
 40
0.0
 40
0.2493653502
 40
0.4998303806
 40
0.7507065386
 40
0.8758484799
 40
1.0
 40
1.0
 40
1.0
 40
1.0
 10
14.3454817598
 20
45.8988281076
 30
0.0
 10
14.2710167564
 20
46.174560598
 30
0.0
 10
14.1127758031
 20
46.7248848459
 30
0.0
 10
13.8439665287
 20
47.5418177661
 30
0.0
 10
13.5900999467
 20
48.2133237158
 30
0.0
 10
13.3641343891
 20
48.739839578
 30
0.0
 10
13.2412960005
 20
48.9977258022
 30
0.0
 10
13.1768756086
 20
49.1244932678
 30
0.0
  0
SPLINE
  5
591
100
AcDbEntity
  8
0
100
AcDbSpline
 62
7
  6
CONTINUOUS
 70
0
 71
3
 72
14
 73
10
 74
0
 42
0.0000001
 43
0.0000001
 44
0.0000000001
 40
0.0
 40
0.0
 40
0.0
 40
0.0
 40
0.2481698977
 40
0.3800475099
 40
0.5139681499
 40
0.6472777682
 40
0.7762659955
 40
0.8960929948
 40
1.0
 40
1.0
 40
1.0
 40
1.0
 10
14.6396375286
 20
44.9919357376
 30
0.0
 10
14.6738229146
 20
44.9802942377
 30
0.0
 10
14.7270237056
 20
44.9650279267
 30
0.0
 10
14.7991938886
 20
44.9454326055
 30
0.0
 10
14.8554053706
 20
44.9308126779
 30
0.0
 10
14.911476019
 20
44.9173653006
 30
0.0
 10
14.9658181933
 20
44.9055540888
 30
0.0
 10
15.0161788706
 20
44.8956351701
 30
0.0
 10
15.0483064841
 20
44.8902722158
 30
0.0
 10
15.0632964661
 20
44.8882909012
 30
0.0
  0
SPLINE
  5
592
100
AcDbEntity
  8
0
100
AcDbSpline
 62
7
  6
CONTINUOUS
 70
0
 71
3
 72
12
 73
8
 74
0
 42
0.0000001
 43
0.0000001
 44
0.0000000001
 40
0.0
 40
0.0
 40
0.0
 40
0.0
 40
0.0924616377
 40
0.2029937376
 40
0.4659464645
 40
0.747613095
 40
1.0
 40
1.0
 40
1.0
 40
1.0
 10
14.7043150632
 20
45.9993228702
 30
0.0
 10
14.6928159918
 20
45.9984893623
 30
0.0
 10
14.667643726
 20
45.9956345773
 30
0.0
 10
14.610348167
 20
45.9858837494
 30
0.0
 10
14.5308925252
 20
45.9664424586
 30
0.0
 10
14.4361708874
 20
45.9361741446
 30
0.0
 10
14.3741799951
 20
45.9116471958
 30
0.0
 10
14.3454448376
 20
45.8988138994
 30
0.0
  0
SPLINE
  5
593
100
AcDbEntity
  8
0
100
AcDbSpline
 62
7
  6
CONTINUOUS
 70
0
 71
3
 72
10
 73
6
 74
0
 42
0.0000001
 43
0.0000001
 44
0.0000000001
 40
0.0
 40
0.0
 40
0.0
 40
0.0
 40
0.2500091537
 40
0.6249931475
 40
1.0
 40
1.0
 40
1.0
 40
1.0
 10
21.5817277512
 20
44.7786620004
 30
0.0
 10
21.5815153071
 20
44.8707658631
 30
0.0
 10
21.5810070965
 20
45.1010146858
 30
0.0
 10
21.5808760652
 20
45.4694177328
 30
0.0
 10
21.5803662167
 20
45.7457161879
 30
0.0
 10
21.5800419804
 20
45.8838694351
 30
0.0
  0
LINE
  5
594
100
AcDbEntity
  8
0
100
AcDbLine
 62
7
  6
CONTINUOUS
 10
14.7046611246
 20
45.9995016167
 11
15.0632964661
 21
44.8882909012
  0
SPLINE
  5
595
100
AcDbEntity
  8
0
100
AcDbSpline
 62
7
  6
CONTINUOUS
 70
0
 71
3
 72
13
 73
9
 74
0
 42
0.0000001
 43
0.0000001
 44
0.0000000001
 40
0.0
 40
0.0
 40
0.0
 40
0.0
 40
0.2512804291
 40
0.5014912387
 40
0.6262819567
 40
0.7509004972
 40
0.8754249218
 40
1.0
 40
1.0
 40
1.0
 40
1.0
 10
21.5799426021
 20
45.8836862684
 30
0.0
 10
21.5795039885
 20
46.1490461332
 30
0.0
 10
21.5948052204
 20
46.6788164827
 30
0.0
 10
21.660217287
 20
47.3376911519
 30
0.0
 10
21.7467148184
 20
47.8583462453
 30
0.0
 10
21.8312623104
 20
48.2442941868
 30
0.0
 10
21.9391444253
 20
48.6241894018
 30
0.0
 10
22.0301760357
 20
48.871437289
 30
0.0
 10
22.0818142529
 20
48.9924343562
 30
0.0
  0
SPLINE
  5
596
100
AcDbEntity
  8
0
100
AcDbSpline
 62
7
  6
CONTINUOUS
 70
0
 71
3
 72
15
 73
11
 74
0
 42
0.0000001
 43
0.0000001
 44
0.0000000001
 40
0.0
 40
0.0
 40
0.0
 40
0.0
 40
0.1993153606
 40
0.3808857736
 40
0.5392655651
 40
0.6736392424
 40
0.7844161226
 40
0.8730712985
 40
0.9424842957
 40
1.0
 40
1.0
 40
1.0
 40
1.0
 10
21.5817277512
 20
44.7786620004
 30
0.0
 10
21.5993087708
 20
44.779929219
 30
0.0
 10
21.6328471987
 20
44.7832862696
 30
0.0
 10
21.6799648816
 20
44.7908565553
 30
0.0
 10
21.7208450502
 20
44.8004516081
 30
0.0
 10
21.7547878818
 20
44.8116533485
 30
0.0
 10
21.7816622801
 20
44.8240808186
 30
0.0
 10
21.8016069919
 20
44.8372001117
 30
0.0
 10
21.8152051861
 20
44.8509107597
 30
0.0
 10
21.8196985764
 20
44.8616650161
 30
0.0
 10
21.820409057
 20
44.8667016035
 30
0.0
  0
SPLINE
  5
597
100
AcDbEntity
  8
0
100
AcDbSpline
 62
7
  6
CONTINUOUS
 70
0
 71
3
 72
14
 73
10
 74
0
 42
0.0000001
 43
0.0000001
 44
0.0000000001
 40
0.0
 40
0.0
 40
0.0
 40
0.0
 40
0.0665058858
 40
0.1459908564
 40
0.2456637903
 40
0.3673340446
 40
0.5094938656
 40
0.6668335749
 40
1.0
 40
1.0
 40
1.0
 40
1.0
 10
21.8204161857
 20
45.7730973791
 30
0.0
 10
21.8204161301
 20
45.7793284002
 30
0.0
 10
21.8171612941
 20
45.7930976867
 30
0.0
 10
21.8035161697
 20
45.8121310033
 30
0.0
 10
21.7813281594
 20
45.8298793188
 30
0.0
 10
21.7512378894
 20
45.8461050068
 30
0.0
 10
21.7141831875
 20
45.8599416356
 30
0.0
 10
21.6568188689
 20
45.8751184795
 30
0.0
 10
21.6110679427
 20
45.8813163656
 30
0.0
 10
21.5799432528
 20
45.8836862921
 30
0.0
  0
SPLINE
  5
598
100
AcDbEntity
  8
0
100
AcDbSpline
 62
7
  6
CONTINUOUS
 70
0
 71
3
 72
11
 73
7
 74
0
 42
0.0000001
 43
0.0000001
 44
0.0000000001
 40
0.0
 40
0.0
 40
0.0
 40
0.0
 40
0.2501078164
 40
0.5003848741
 40
0.7500967287
 40
1.0
 40
1.0
 40
1.0
 40
1.0
 10
25.5682226972
 20
57.9058571276
 30
0.0
 10
25.5611748464
 20
57.8987809927
 30
0.0
 10
25.5448242239
 20
57.8866881102
 30
0.0
 10
25.5161317941
 20
57.8766611015
 30
0.0
 10
25.4857652849
 20
57.8756057144
 30
0.0
 10
25.4661734509
 20
57.8809629557
 30
0.0
 10
25.4570580055
 20
57.8850236772
 30
0.0
  0
SPLINE
  5
599
100
AcDbEntity
  8
0
100
AcDbSpline
 62
7
  6
CONTINUOUS
 70
0
 71
3
 72
12
 73
8
 74
0
 42
0.0000001
 43
0.0000001
 44
0.0000000001
 40
0.0
 40
0.0
 40
0.0
 40
0.0
 40
0.2476290775
 40
0.4972757345
 40
0.7484805681
 40
0.8743562014
 40
1.0
 40
1.0
 40
1.0
 40
1.0
 10
14.7043155207
 20
45.9993228268
 30
0.0
 10
14.6180768308
 20
46.2661028749
 30
0.0
 10
14.434933623
 20
46.7986892566
 30
0.0
 10
14.1271676215
 20
47.5885209171
 30
0.0
 10
13.8385835162
 20
48.2372192301
 30
0.0
 10
13.5834104947
 20
48.7461131083
 30
0.0
 10
13.4461747354
 20
48.9957672034
 30
0.0
 10
13.3745860062
 20
49.1186989323
 30
0.0
  0
SPLINE
  5
59A
100
AcDbEntity
  8
0
100
AcDbSpline
 62
7
  6
CONTINUOUS
 70
0
 71
3
 72
11
 73
7
 74
0
 42
0.0000001
 43
0.0000001
 44
0.0000000001
 40
0.0
 40
0.0
 40
0.0
 40
0.0
 40
0.252345453
 40
0.503339841
 40
0.7527818976
 40
1.0
 40
1.0
 40
1.0
 40
1.0
 10
26.8204161891
 20
45.7731122014
 30
0.0
 10
26.8204187995
 20
46.0480581282
 30
0.0
 10
26.8063733503
 20
46.5966258824
 30
0.0
 10
26.7329355175
 20
47.4142760457
 30
0.0
 10
26.5976920036
 20
48.2182510925
 30
0.0
 10
26.4493738254
 20
48.7413656268
 30
0.0
 10
26.3505307618
 20
48.9919340103
 30
0.0
  0
SPLINE
  5
59B
100
AcDbEntity
  8
0
100
AcDbSpline
 62
7
  6
CONTINUOUS
 70
0
 71
3
 72
13
 73
9
 74
0
 42
0.0000001
 43
0.0000001
 44
0.0000000001
 40
0.0
 40
0.0
 40
0.0
 40
0.0
 40
0.2512803921
 40
0.5014911979
 40
0.6262819218
 40
0.7509004681
 40
0.875424919
 40
1.0
 40
1.0
 40
1.0
 40
1.0
 10
27.0608899191
 20
45.8836862775
 30
0.0
 10
27.0613285349
 20
46.1490431349
 30
0.0
 10
27.0460274882
 20
46.6788075187
 30
0.0
 10
26.9806169222
 20
47.3376747942
 30
0.0
 10
26.8941220737
 20
47.8583243888
 30
0.0
 10
26.8095764187
 20
48.2442681531
 30
0.0
 10
26.7016979998
 20
48.6241601444
 30
0.0
 10
26.6106638247
 20
48.8714036456
 30
0.0
 10
26.5590304218
 20
48.9924011705
 30
0.0
  0
SPLINE
  5
59C
100
AcDbEntity
  8
0
100
AcDbSpline
 62
7
  6
CONTINUOUS
 70
0
 71
3
 72
9
 73
5
 74
0
 42
0.0000001
 43
0.0000001
 44
0.0000000001
 40
0.0
 40
0.0
 40
0.0
 40
0.0
 40
0.5010625207
 40
1.0
 40
1.0
 40
1.0
 40
1.0
 10
26.7399752435
 20
57.9093544153
 30
0.0
 10
26.7283827873
 20
57.8976149116
 30
0.0
 10
26.6988575327
 20
57.8797040145
 30
0.0
 10
26.6643246586
 20
57.8785852419
 30
0.0
 10
26.6482830765
 20
57.8821299112
 30
0.0
  0
SPLINE
  5
59D
100
AcDbEntity
  8
0
100
AcDbSpline
 62
7
  6
CONTINUOUS
 70
0
 71
3
 72
9
 73
5
 74
0
 42
0.0000001
 43
0.0000001
 44
0.0000000001
 40
0.0
 40
0.0
 40
0.0
 40
0.0
 40
0.5019245859
 40
1.0
 40
1.0
 40
1.0
 40
1.0
 10
27.9013668665
 20
57.9150766452
 30
0.0
 10
27.8907265503
 20
57.9041609618
 30
0.0
 10
27.8640783657
 20
57.8870831738
 30
0.0
 10
27.832518647
 20
57.8842215198
 30
0.0
 10
27.8175516184
 20
57.8864138262
 30
0.0
  0
SPLINE
  5
59E
100
AcDbEntity
  8
0
100
AcDbSpline
 62
7
  6
CONTINUOUS
 70
0
 71
3
 72
9
 73
5
 74
0
 42
0.0000001
 43
0.0000001
 44
0.0000000001
 40
0.0
 40
0.0
 40
0.0
 40
0.0
 40
0.5031117273
 40
1.0
 40
1.0
 40
1.0
 40
1.0
 10
29.0474243089
 20
57.9229993138
 30
0.0
 10
29.0373797963
 20
57.9125141851
 30
0.0
 10
29.0124343883
 20
57.8958638486
 30
0.0
 10
28.9826070792
 20
57.8921828498
 30
0.0
 10
28.9683509719
 20
57.8937352399
 30
0.0
  0
LINE
  5
59F
100
AcDbEntity
  8
0
100
AcDbLine
 62
7
  6
CONTINUOUS
 10
40.1409448146
 20
58.5829596234
 11
40.2484164011
 21
58.5888166925
  0
SPLINE
  5
5A0
100
AcDbEntity
  8
0
100
AcDbSpline
 62
7
  6
CONTINUOUS
 70
0
 71
3
 72
9
 73
5
 74
0
 42
0.0000001
 43
0.0000001
 44
0.0000000001
 40
0.0
 40
0.0
 40
0.0
 40
0.0
 40
0.504663049
 40
1.0
 40
1.0
 40
1.0
 40
1.0
 10
30.1732399768
 20
57.933088495
 30
0.0
 10
30.1636701261
 20
57.9228771508
 30
0.0
 10
30.1400235136
 20
57.9064788538
 30
0.0
 10
30.1114618927
 20
57.9022977688
 30
0.0
 10
30.0977763242
 20
57.9034754805
 30
0.0
  0
LINE
  5
5A1
100
AcDbEntity
  8
0
100
AcDbLine
 62
7
  6
CONTINUOUS
 10
39.5455530399
 20
58.5533537328
 11
39.6659448146
 21
58.5589935059
  0
LINE
  5
5A2
100
AcDbEntity
  8
0
100
AcDbLine
 62
7
  6
CONTINUOUS
 10
38.8849648919
 20
58.5249455747
 11
39.0177613186
 21
58.5303439015
  0
LINE
  5
5A3
100
AcDbEntity
  8
0
100
AcDbLine
 62
7
  6
CONTINUOUS
 10
38.1620091103
 20
58.4978567973
 11
38.3066415343
 21
58.5029905613
  0
LINE
  5
5A4
100
AcDbEntity
  8
0
100
AcDbLine
 62
7
  6
CONTINUOUS
 10
9.2896195434
 20
59.0644087017
 11
9.3662324135
 21
59.0685840087
  0
LINE
  5
5A5
100
AcDbEntity
  8
0
100
AcDbLine
 62
7
  6
CONTINUOUS
 10
8.8023708522
 20
59.0352765939
 11
8.8694452877
 21
59.0395889246
  0
LINE
  5
5A6
100
AcDbEntity
  8
0
100
AcDbLine
 62
7
  6
CONTINUOUS
 10
37.3797815027
 20
58.4722033988
 11
37.5356305859
 21
58.4770506165
  0
LINE
  5
5A7
100
AcDbEntity
  8
0
100
AcDbLine
 62
7
  6
CONTINUOUS
 10
36.541631688
 20
58.4480952311
 11
36.7080300606
 21
58.4526351459
  0
SPLINE
  5
5A8
100
AcDbEntity
  8
0
100
AcDbSpline
 62
7
  6
CONTINUOUS
 70
0
 71
3
 72
9
 73
5
 74
0
 42
0.0000001
 43
0.0000001
 44
0.0000000001
 40
0.0
 40
0.0
 40
0.0
 40
0.0
 40
0.2389374435
 40
1.0
 40
1.0
 40
1.0
 40
1.0
 10
6.3962770851
 20
58.7849680655
 30
0.0
 10
6.3980467518
 20
58.7844083452
 30
0.0
 10
6.4054650175
 20
58.7821033586
 30
0.0
 10
6.4129272068
 20
58.7799407865
 30
0.0
 10
6.4186235647
 20
58.7783587842
 30
0.0
  0
SPLINE
  5
5A9
100
AcDbEntity
  8
0
100
AcDbSpline
 62
7
  6
CONTINUOUS
 70
0
 71
3
 72
9
 73
5
 74
0
 42
0.0000001
 43
0.0000001
 44
0.0000000001
 40
0.0
 40
0.0
 40
0.0
 40
0.0
 40
0.5967323483
 40
1.0
 40
1.0
 40
1.0
 40
1.0
 10
41.3877561968
 20
58.2623463716
 30
0.0
 10
41.3856736192
 20
58.2556132681
 30
0.0
 10
41.3815103844
 20
58.2446418159
 30
0.0
 10
41.3738759066
 20
58.2347248679
 30
0.0
 10
41.3696641607
 20
58.232500877
 30
0.0
  0
SPLINE
  5
5AA
100
AcDbEntity
  8
0
100
AcDbSpline
 62
7
  6
CONTINUOUS
 70
0
 71
3
 72
9
 73
5
 74
0
 42
0.0000001
 43
0.0000001
 44
0.0000000001
 40
0.0
 40
0.0
 40
0.0
 40
0.0
 40
0.26354672
 40
1.0
 40
1.0
 40
1.0
 40
1.0
 10
41.3696641607
 20
58.232500877
 30
0.0
 10
41.3692208382
 20
58.2322667828
 30
0.0
 10
41.3674963087
 20
58.2314643988
 30
0.0
 10
41.3655703645
 20
58.2310701237
 30
0.0
 10
41.3641695187
 20
58.2310847683
 30
0.0
  0
LINE
  5
5AB
100
AcDbEntity
  8
0
100
AcDbLine
 62
7
  6
CONTINUOUS
 10
35.6511487523
 20
58.425635529
 11
35.8273838709
 21
58.4298487003
  0
SPLINE
  5
5AC
100
AcDbEntity
  8
0
100
AcDbSpline
 62
7
  6
CONTINUOUS
 70
0
 71
3
 72
9
 73
5
 74
0
 42
0.0000001
 43
0.0000001
 44
0.0000000001
 40
0.0
 40
0.0
 40
0.0
 40
0.0
 40
0.5784202549
 40
1.0
 40
1.0
 40
1.0
 40
1.0
 10
41.7252481691
 20
58.2952198609
 30
0.0
 10
41.7239079823
 20
58.2898188838
 30
0.0
 10
41.7211352784
 20
58.2806145549
 30
0.0
 10
41.7168147411
 20
58.2718337741
 30
0.0
 10
41.7142596161
 20
58.2686839536
 30
0.0
  0
SPLINE
  5
5AD
100
AcDbEntity
  8
0
100
AcDbSpline
 62
7
  6
CONTINUOUS
 70
0
 71
3
 72
9
 73
5
 74
0
 42
0.0000001
 43
0.0000001
 44
0.0000000001
 40
0.0
 40
0.0
 40
0.0
 40
0.0
 40
0.3027264548
 40
1.0
 40
1.0
 40
1.0
 40
1.0
 10
41.7142596161
 20
58.2686839536
 30
0.0
 10
41.7136597961
 20
58.2679445279
 30
0.0
 10
41.7115812879
 20
58.2656319932
 30
0.0
 10
41.7084932794
 20
58.263898892
 30
0.0
 10
41.7063003265
 20
58.2639175294
 30
0.0
  0
SPLINE
  5
5AE
100
AcDbEntity
  8
0
100
AcDbSpline
 62
7
  6
CONTINUOUS
 70
0
 71
3
 72
11
 73
7
 74
0
 42
0.0000001
 43
0.0000001
 44
0.0000000001
 40
0.0
 40
0.0
 40
0.0
 40
0.0
 40
0.2680501168
 40
0.5287481044
 40
0.7749747841
 40
1.0
 40
1.0
 40
1.0
 40
1.0
 10
24.3204161857
 20
56.8441505288
 30
0.0
 10
23.3307424913
 20
56.8441507667
 30
0.0
 10
21.3785367586
 20
56.8488087482
 30
0.0
 10
18.5172992081
 20
56.8696595196
 30
0.0
 10
15.8150528376
 20
56.9037221678
 30
0.0
 10
14.0754213987
 20
56.9362762533
 30
0.0
 10
13.2448155659
 20
56.9551623059
 30
0.0
  0
LINE
  5
5AF
100
AcDbEntity
  8
0
100
AcDbLine
 62
7
  6
CONTINUOUS
 10
13.2448155659
 20
56.9551623059
 11
13.0292025148
 21
56.9601426725
  0
SPLINE
  5
5B0
100
AcDbEntity
  8
0
100
AcDbSpline
 62
7
  6
CONTINUOUS
 70
0
 71
3
 72
23
 73
19
 74
0
 42
0.0000001
 43
0.0000001
 44
0.0000000001
 40
0.0
 40
0.0
 40
0.0
 40
0.0
 40
0.2264213931
 40
0.425776358
 40
0.5967784422
 40
0.7383733566
 40
0.7978625662
 40
0.8497005214
 40
0.8938130049
 40
0.9301480399
 40
0.9453982482
 40
0.9587078094
 40
0.9700859687
 40
0.9795510073
 40
0.9871392819
 40
0.990253397
 40
0.9929351186
 40
1.0
 40
1.0
 40
1.0
 40
1.0
 10
9.9038622788
 20
57.0545320039
 30
0.0
 10
9.6313131826
 20
57.0651515253
 30
0.0
 10
9.118853795
 20
57.0866756401
 30
0.0
 10
8.4008388865
 20
57.1226027585
 30
0.0
 10
7.7852419776
 20
57.1599443368
 30
0.0
 10
7.3382420824
 20
57.1935301421
 30
0.0
 10
7.0348633685
 20
57.2217386846
 30
0.0
 10
6.8486848949
 20
57.2418222424
 30
0.0
 10
6.6906048974
 20
57.2620301504
 30
0.0
 10
6.576668285
 20
57.2797719727
 30
0.0
 10
6.49986655
 20
57.2943956712
 30
0.0
 10
6.4528671189
 20
57.3047242809
 30
0.0
 10
6.4130313353
 20
57.315032489
 30
0.0
 10
6.3803298665
 20
57.3253485933
 30
0.0
 10
6.3577754757
 20
57.3343374872
 30
0.0
 10
6.3433795549
 20
57.3418601549
 30
0.0
 10
6.3305725713
 20
57.3499017519
 30
0.0
 10
6.3204270797
 20
57.3599834774
 30
0.0
 10
6.3204277731
 20
57.3684941049
 30
0.0
  0
LINE
  5
5B1
100
AcDbEntity
  8
0
100
AcDbLine
 62
7
  6
CONTINUOUS
 10
8.3924159702
 20
58.5888166925
 11
8.4998875567
 21
58.5829596234
  0
SPLINE
  5
5B2
100
AcDbEntity
  8
0
100
AcDbSpline
 62
7
  6
CONTINUOUS
 70
0
 71
3
 72
33
 73
29
 74
0
 42
0.0000001
 43
0.0000001
 44
0.0000000001
 40
0.0
 40
0.0
 40
0.0
 40
0.0
 40
0.1944349516
 40
0.2893116412
 40
0.3814148773
 40
0.4698603525
 40
0.5538015429
 40
0.6324348373
 40
0.7050048385
 40
0.7708167283
 40
0.8292433963
 40
0.8555098581
 40
0.879727437
 40
0.9018361207
 40
0.9217861922
 40
0.9395314438
 40
0.9550295507
 40
0.9682489577
 40
0.9791619276
 40
0.9837469302
 40
0.9877500257
 40
0.9911721166
 40
0.9940158796
 40
0.9962875725
 40
0.9980018235
 40
0.9986613549
 40
0.9992009976
 40
1.0
 40
1.0
 40
1.0
 40
1.0
 10
24.3204161857
 20
55.1039829928
 30
0.0
 10
25.4841624129
 20
55.1039827418
 30
0.0
 10
27.2157775199
 20
55.108839805
 30
0.0
 10
29.4985921484
 20
55.1253781652
 30
0.0
 10
31.1470030515
 20
55.1424377683
 30
0.0
 10
32.7299024504
 20
55.1640786662
 30
0.0
 10
34.2321040107
 20
55.1900854788
 30
0.0
 10
35.6391901678
 20
55.2201952415
 30
0.0
 10
36.9376486045
 20
55.2540981765
 30
0.0
 10
38.1150158569
 20
55.2914496308
 30
0.0
 10
39.0151693808
 20
55.326213282
 30
0.0
 10
39.666354423
 20
55.3559304953
 30
0.0
 10
40.1002809533
 20
55.3780451608
 30
0.0
 10
40.496316793
 20
55.4007302758
 30
0.0
 10
40.853512535
 20
55.4239187902
 30
0.0
 10
41.171017606
 20
55.4475422044
 30
0.0
 10
41.4480839869
 20
55.4715230138
 30
0.0
 10
41.6840498312
 20
55.495781017
 30
0.0
 10
41.854625953
 20
55.5171475076
 30
0.0
 10
41.9700069271
 20
55.5348190712
 30
0.0
 10
42.0408054043
 20
55.5473159583
 30
0.0
 10
42.1009928486
 20
55.5598206344
 30
0.0
 10
42.1505760535
 20
55.5722830741
 30
0.0
 10
42.1895421847
 20
55.5847244138
 30
0.0
 10
42.2151933258
 20
55.5956797354
 30
0.0
 10
42.2300460387
 20
55.6049872484
 30
0.0
 10
42.239162474
 20
55.612597184
 30
0.0
 10
42.2438233427
 20
55.6200142337
 30
0.0
 10
42.2442396712
 20
55.6247783247
 30
0.0
  0
SPLINE
  5
5B3
100
AcDbEntity
  8
0
100
AcDbSpline
 62
7
  6
CONTINUOUS
 70
0
 71
3
 72
9
 73
5
 74
0
 42
0.0000001
 43
0.0000001
 44
0.0000000001
 40
0.0
 40
0.0
 40
0.0
 40
0.0
 40
0.2885537663
 40
1.0
 40
1.0
 40
1.0
 40
1.0
 10
41.9882099789
 20
58.3286659574
 30
0.0
 10
41.9878283234
 20
58.3266140047
 30
0.0
 10
41.9863888075
 20
58.3195302975
 30
0.0
 10
41.9845392748
 20
58.3124936627
 30
0.0
 10
41.9826526195
 20
58.3077060115
 30
0.0
  0
SPLINE
  5
5B4
100
AcDbEntity
  8
0
100
AcDbSpline
 62
7
  6
CONTINUOUS
 70
0
 71
3
 72
10
 73
6
 74
0
 42
0.0000001
 43
0.0000001
 44
0.0000000001
 40
0.0
 40
0.0
 40
0.0
 40
0.0
 40
0.3538565118
 40
0.631934597
 40
1.0
 40
1.0
 40
1.0
 40
1.0
 10
41.9826526195
 20
58.3077060115
 30
0.0
 10
41.9820460115
 20
58.3061666591
 30
0.0
 10
41.9808139117
 20
58.3034414658
 30
0.0
 10
41.9784330222
 20
58.2995364823
 30
0.0
 10
41.975692548
 20
58.2973203615
 30
0.0
 10
41.9739715857
 20
58.2973319
 30
0.0
  0
LINE
  5
5B5
100
AcDbEntity
  8
0
100
AcDbLine
 62
7
  6
CONTINUOUS
 10
8.9748875567
 20
58.5589935059
 11
9.0952793314
 21
58.5533537328
  0
LINE
  5
5B6
100
AcDbEntity
  8
0
100
AcDbLine
 62
7
  6
CONTINUOUS
 10
34.7121458802
 20
58.4049204684
 11
34.897463079
 21
58.4087888547
  0
LINE
  5
5B7
100
AcDbEntity
  8
0
100
AcDbLine
 62
7
  6
CONTINUOUS
 10
9.6230710528
 20
58.5303439015
 11
9.7558674795
 21
58.5249455747
  0
LINE
  5
5B8
100
AcDbEntity
  8
0
100
AcDbLine
 62
7
  6
CONTINUOUS
 10
10.334190837
 20
58.5029905613
 11
10.4788232611
 21
58.4978567973
  0
SPLINE
  5
5B9
100
AcDbEntity
  8
0
100
AcDbSpline
 62
7
  6
CONTINUOUS
 70
0
 71
3
 72
9
 73
5
 74
0
 42
0.0000001
 43
0.0000001
 44
0.0000000001
 40
0.0
 40
0.0
 40
0.0
 40
0.0
 40
0.2723910521
 40
1.0
 40
1.0
 40
1.0
 40
1.0
 10
42.1755155832
 20
58.3625414396
 30
0.0
 10
42.1753550363
 20
58.3612375006
 30
0.0
 10
42.1747333484
 20
58.3564547475
 30
0.0
 10
42.1739831078
 20
58.3516870362
 30
0.0
 10
42.1733178374
 20
58.3482412966
 30
0.0
  0
SPLINE
  5
5BA
100
AcDbEntity
  8
0
100
AcDbSpline
 62
7
  6
CONTINUOUS
 70
0
 71
3
 72
10
 73
6
 74
0
 42
0.0000001
 43
0.0000001
 44
0.0000000001
 40
0.0
 40
0.0
 40
0.0
 40
0.0
 40
0.6883561847
 40
0.8845089823
 40
1.0
 40
1.0
 40
1.0
 40
1.0
 10
42.1733178374
 20
58.3482412966
 30
0.0
 10
42.1724848772
 20
58.3439270154
 30
0.0
 10
42.1711961576
 20
58.3383257162
 30
0.0
 10
42.1685574088
 20
58.3325831337
 30
0.0
 10
42.1667771574
 20
58.3311809147
 30
0.0
 10
42.1660399583
 20
58.3311847373
 30
0.0
  0
LINE
  5
5BB
100
AcDbEntity
  8
0
100
AcDbLine
 62
7
  6
CONTINUOUS
 10
11.1052017854
 20
58.4770506165
 11
11.2610508686
 21
58.4722033988
  0
SPLINE
  5
5BC
100
AcDbEntity
  8
0
100
AcDbSpline
 62
7
  6
CONTINUOUS
 70
0
 71
3
 72
33
 73
29
 74
0
 42
0.0000001
 43
0.0000001
 44
0.0000000001
 40
0.0
 40
0.0
 40
0.0
 40
0.0
 40
0.1944368162
 40
0.2893142647
 40
0.3814231327
 40
0.4698736767
 40
0.5538176556
 40
0.6324520105
 40
0.7050217904
 40
0.7708331156
 40
0.8292577204
 40
0.8555220179
 40
0.8797377044
 40
0.9018452675
 40
0.9217938657
 40
0.9395379719
 40
0.9550346877
 40
0.968252135
 40
0.9791636314
 40
0.9837482121
 40
0.9877509986
 40
0.9911728484
 40
0.9940163947
 40
0.9962878542
 40
0.9980018732
 40
0.9986613496
 40
0.999200973
 40
1.0
 40
1.0
 40
1.0
 40
1.0
 10
24.3204161857
 20
50.7509603702
 30
0.0
 10
23.1814598554
 20
50.7509603702
 30
0.0
 10
21.4867321615
 20
50.7557133836
 30
0.0
 10
19.2525186823
 20
50.7719003163
 30
0.0
 10
17.63917026
 20
50.7885972797
 30
0.0
 10
16.0899253355
 20
50.809778762
 30
0.0
 10
14.6196852645
 20
50.8352330092
 30
0.0
 10
13.2425645698
 20
50.8647026938
 30
0.0
 10
11.9717762708
 20
50.8978850702
 30
0.0
 10
10.8195168622
 20
50.9344418916
 30
0.0
 10
9.9385747611
 20
50.9684644026
 30
0.0
 10
9.3013031494
 20
50.9975486882
 30
0.0
 10
8.8766544833
 20
51.0191921345
 30
0.0
 10
8.4890849006
 20
51.0413927646
 30
0.0
 10
8.1395234203
 20
51.0640878114
 30
0.0
 10
7.8288082553
 20
51.087206904
 30
0.0
 10
7.5576727512
 20
51.1106746898
 30
0.0
 10
7.3267639347
 20
51.1344149012
 30
0.0
 10
7.15984559
 20
51.1553246065
 30
0.0
 10
7.0469362965
 20
51.1726176628
 30
0.0
 10
6.9776522213
 20
51.1848471934
 30
0.0
 10
6.9187518237
 20
51.1970844124
 30
0.0
 10
6.8702292891
 20
51.2092805046
 30
0.0
 10
6.8320974975
 20
51.2214560029
 30
0.0
 10
6.8069965122
 20
51.2321783455
 30
0.0
 10
6.7924624168
 20
51.2412874018
 30
0.0
 10
6.7835408703
 20
51.2487354884
 30
0.0
 10
6.7789795051
 20
51.2559943659
 30
0.0
 10
6.7785717177
 20
51.2606570438
 30
0.0
  0
LINE
  5
5BD
100
AcDbEntity
  8
0
100
AcDbLine
 62
7
  6
CONTINUOUS
 10
23.7653033806
 20
49.708592342
 11
24.3204161857
 21
49.7083302167
  0
LINE
  5
5BE
100
AcDbEntity
  8
0
100
AcDbLine
 62
7
  6
CONTINUOUS
 10
11.9328023107
 20
58.4526351459
 11
12.0992006833
 21
58.4480952311
  0
SPLINE
  5
5BF
100
AcDbEntity
  8
0
100
AcDbSpline
 62
7
  6
CONTINUOUS
 70
0
 71
3
 72
14
 73
10
 74
0
 42
0.0000001
 43
0.0000001
 44
0.0000000001
 40
0.0
 40
0.0
 40
0.0
 40
0.0
 40
0.0895377304
 40
0.1908873139
 40
0.3033606083
 40
0.4259580898
 40
0.5578146974
 40
0.6979769051
 40
1.0
 40
1.0
 40
1.0
 40
1.0
 10
23.5704236651
 20
49.1706551587
 30
0.0
 10
23.5704234038
 20
49.1877999691
 30
0.0
 10
23.5749840268
 20
49.2243337249
 30
0.0
 10
23.5900601998
 20
49.2804887283
 30
0.0
 10
23.6111915657
 20
49.3413819624
 30
0.0
 10
23.6369788982
 20
49.4067474244
 30
0.0
 10
23.666328894
 20
49.4763796135
 30
0.0
 10
23.7098247102
 20
49.5773243231
 30
0.0
 10
23.743245079
 20
49.6551255308
 30
0.0
 10
23.7653031036
 20
49.7085854353
 30
0.0
  0
SPLINE
  5
5C0
100
AcDbEntity
  8
0
100
AcDbSpline
 62
7
  6
CONTINUOUS
 70
0
 71
3
 72
9
 73
5
 74
0
 42
0.0000001
 43
0.0000001
 44
0.0000000001
 40
0.0
 40
0.0
 40
0.0
 40
0.0
 40
0.5111140833
 40
1.0
 40
1.0
 40
1.0
 40
1.0
 10
9.7733478133
 20
49.9439053227
 30
0.0
 10
9.8741840352
 20
49.8305737794
 30
0.0
 10
10.0926307922
 20
49.6269958169
 30
0.0
 10
10.3408852873
 20
49.462055435
 30
0.0
 10
10.4674031962
 20
49.3910120737
 30
0.0
  0
LINE
  5
5C1
100
AcDbEntity
  8
0
100
AcDbLine
 62
7
  6
CONTINUOUS
 10
12.8134485004
 20
58.4298487003
 11
12.989683619
 21
58.425635529
  0
LINE
  5
5C2
100
AcDbEntity
  8
0
100
AcDbLine
 62
7
  6
CONTINUOUS
 10
33.7286440262
 20
58.3860387544
 11
33.9222497485
 21
58.3895457907
  0
LINE
  5
5C3
100
AcDbEntity
  8
0
100
AcDbLine
 62
7
  6
CONTINUOUS
 10
13.7433692923
 20
58.4087888547
 11
13.9286864911
 21
58.4049204684
  0
LINE
  5
5C4
100
AcDbEntity
  8
0
100
AcDbLine
 62
7
  6
CONTINUOUS
 10
14.7185826228
 20
58.3895457907
 11
14.9121883452
 21
58.3860387544
  0
SPLINE
  5
5C5
100
AcDbEntity
  8
0
100
AcDbSpline
 62
7
  6
CONTINUOUS
 70
0
 71
3
 72
12
 73
8
 74
0
 42
0.0000001
 43
0.0000001
 44
0.0000000001
 40
0.0
 40
0.0
 40
0.0
 40
0.0
 40
0.4174084993
 40
0.7264449941
 40
0.9185060153
 40
0.9712585695
 40
1.0
 40
1.0
 40
1.0
 40
1.0
 10
42.2857550675
 20
58.3878024541
 30
0.0
 10
42.2855044002
 20
58.3845917886
 30
0.0
 10
42.2849991361
 20
58.3789980801
 30
0.0
 10
42.2841026805
 20
58.3719998553
 30
0.0
 10
42.2831889635
 20
58.3677544865
 30
0.0
 10
42.282436845
 20
58.3658348298
 30
0.0
 10
42.2819073849
 20
58.3653300226
 30
0.0
 10
42.2816856382
 20
58.3653310401
 30
0.0
  0
LINE
  5
5C6
100
AcDbEntity
  8
0
100
AcDbLine
 62
7
  6
CONTINUOUS
 10
15.7349124788
 20
58.37220191
 11
15.9359776752
 21
58.3690712414
  0
LINE
  5
5C7
100
AcDbEntity
  8
0
100
AcDbLine
 62
7
  6
CONTINUOUS
 10
16.7880067796
 20
58.3568314818
 11
16.9956704581
 21
58.3540905868
  0
LINE
  5
5C8
100
AcDbEntity
  8
0
100
AcDbLine
 62
7
  6
CONTINUOUS
 10
17.873356014
 20
58.3435003246
 11
18.0867289267
 21
58.3411609402
  0
LINE
  5
5C9
100
AcDbEntity
  8
0
100
AcDbLine
 62
7
  6
CONTINUOUS
 10
32.7048546961
 20
58.3690712414
 11
32.9059198926
 21
58.37220191
  0
LINE
  5
5CA
100
AcDbEntity
  8
0
100
AcDbLine
 62
7
  6
CONTINUOUS
 10
18.9863125498
 20
58.3322655245
 11
19.2044810012
 21
58.3303376682
  0
LINE
  5
5CB
100
AcDbEntity
  8
0
100
AcDbLine
 62
7
  6
CONTINUOUS
 10
20.1221105362
 20
58.3231751905
 11
20.3441402956
 21
58.3216671178
  0
LINE
  5
5CC
100
AcDbEntity
  8
0
100
AcDbLine
 62
7
  6
CONTINUOUS
 10
21.275886312
 20
58.316268249
 11
21.5008266138
 21
58.3151864177
  0
LINE
  5
5CD
100
AcDbEntity
  8
0
100
AcDbLine
 62
7
  6
CONTINUOUS
 10
22.4426992321
 20
58.3115742765
 11
22.6695868474
 21
58.3109233191
  0
LINE
  5
5CE
100
AcDbEntity
  8
0
100
AcDbLine
 62
7
  6
CONTINUOUS
 10
23.6175528245
 20
58.3091133732
 11
23.8454161857
 21
58.3088960773
  0
SPLINE
  5
5CF
100
AcDbEntity
  8
0
100
AcDbSpline
 62
7
  6
CONTINUOUS
 70
0
 71
3
 72
14
 73
10
 74
0
 42
0.0000001
 43
0.0000001
 44
0.0000000001
 40
0.0
 40
0.0
 40
0.0
 40
0.0
 40
0.0827217632
 40
0.1737497156
 40
0.2782777347
 40
0.398380539
 40
0.5333908483
 40
0.6810965731
 40
1.0
 40
1.0
 40
1.0
 40
1.0
 10
14.2004887712
 20
44.6945875122
 30
0.0
 10
14.210206674
 20
44.6947588225
 30
0.0
 10
14.230696534
 20
44.6992979932
 30
0.0
 10
14.2585921928
 20
44.7172947738
 30
0.0
 10
14.2835603406
 20
44.7451598104
 30
0.0
 10
14.3050890128
 20
44.781758306
 30
0.0
 10
14.3226733727
 20
44.8258651156
 30
0.0
 10
14.340438335
 20
44.8944116409
 30
0.0
 10
14.3454440253
 20
44.9495049166
 30
0.0
 10
14.3454440253
 20
44.9869745481
 30
0.0
  0
LINE
  5
5D0
100
AcDbEntity
  8
0
100
AcDbLine
 62
7
  6
CONTINUOUS
 10
24.7954161857
 20
58.3088960773
 11
25.0232795469
 21
58.3091133732
  0
LINE
  5
5D1
100
AcDbEntity
  8
0
100
AcDbLine
 62
7
  6
CONTINUOUS
 10
31.6451619132
 20
58.3540905868
 11
31.8528255917
 21
58.3568314818
  0
LINE
  5
5D2
100
AcDbEntity
  8
0
100
AcDbLine
 62
7
  6
CONTINUOUS
 10
25.9712455239
 20
58.3109233191
 11
26.1981331392
 21
58.3115742765
  0
SPLINE
  5
5D3
100
AcDbEntity
  8
0
100
AcDbSpline
 62
7
  6
CONTINUOUS
 70
0
 71
3
 72
11
 73
7
 74
0
 42
0.0000001
 43
0.0000001
 44
0.0000000001
 40
0.0
 40
0.0
 40
0.0
 40
0.0
 40
0.228663648
 40
0.4743921616
 40
0.7357946145
 40
1.0
 40
1.0
 40
1.0
 40
1.0
 10
15.2616998028
 20
44.6967654131
 30
0.0
 10
15.2393348359
 20
44.6976065395
 30
0.0
 10
15.1930537091
 20
44.7097241022
 30
0.0
 10
15.1332885242
 20
44.752465386
 30
0.0
 10
15.0894203607
 20
44.8152314519
 30
0.0
 10
15.0703737086
 20
44.8635001847
 30
0.0
 10
15.0636319326
 20
44.8884653797
 30
0.0
  0
LINE
  5
5D4
100
AcDbEntity
  8
0
100
AcDbLine
 62
7
  6
CONTINUOUS
 10
27.1400057575
 20
58.3151864177
 11
27.3649460593
 21
58.316268249
  0
LINE
  5
5D5
100
AcDbEntity
  8
0
100
AcDbLine
 62
7
  6
CONTINUOUS
 10
28.2966920757
 20
58.3216671178
 11
28.5187218351
 21
58.3231751905
  0
LINE
  5
5D6
100
AcDbEntity
  8
0
100
AcDbLine
 62
7
  6
CONTINUOUS
 10
29.4363513701
 20
58.3303376682
 11
29.6545198216
 21
58.3322655245
  0
SPLINE
  5
5D7
100
AcDbEntity
  8
0
100
AcDbSpline
 62
7
  6
CONTINUOUS
 70
0
 71
3
 72
24
 73
20
 74
0
 42
0.0000001
 43
0.0000001
 44
0.0000000001
 40
0.0
 40
0.0
 40
0.0
 40
0.0
 40
0.001883939
 40
0.005712184
 40
0.0117684721
 40
0.0201007599
 40
0.0307172635
 40
0.0436131959
 40
0.0761320588
 40
0.117370517
 40
0.167007251
 40
0.2246079389
 40
0.2896661421
 40
0.3616438515
 40
0.4398856449
 40
0.5237060478
 40
0.6123952356
 40
0.801373675
 40
1.0
 40
1.0
 40
1.0
 40
1.0
 10
26.8204161857
 20
44.8612580142
 30
0.0
 10
26.8204161842
 20
44.8603868212
 30
0.0
 10
26.8179102189
 20
44.8584227633
 30
0.0
 10
26.8130007532
 20
44.8568654779
 30
0.0
 10
26.804665966
 20
44.8548103429
 30
0.0
 10
26.7933160595
 20
44.8529283481
 30
0.0
 10
26.7786979355
 20
44.8509526963
 30
0.0
 10
26.7529477461
 20
44.848154668
 30
0.0
 10
26.7130000131
 20
44.8448603767
 30
0.0
 10
26.6560555744
 20
44.8412348435
 30
0.0
 10
26.5874811405
 20
44.8377565803
 30
0.0
 10
26.5078740461
 20
44.8344594203
 30
0.0
 10
26.4179198534
 20
44.8313803019
 30
0.0
 10
26.3184083492
 20
44.8285541077
 30
0.0
 10
26.2102105999
 20
44.8260031452
 30
0.0
 10
26.094276776
 20
44.8237528585
 30
0.0
 10
25.9271335987
 20
44.8211268263
 30
0.0
 10
25.7068911871
 20
44.8187827231
 30
0.0
 10
25.5276516587
 20
44.8178986136
 30
0.0
 10
25.4358008009
 20
44.817692184
 30
0.0
  0
LINE
  5
5D8
100
AcDbEntity
  8
0
100
AcDbLine
 62
7
  6
CONTINUOUS
 10
30.5541034446
 20
58.3411609402
 11
30.7674763573
 21
58.3435003246
  0
SPLINE
  5
5D9
100
AcDbEntity
  8
0
100
AcDbSpline
 62
7
  6
CONTINUOUS
 70
0
 71
3
 72
16
 73
12
 74
0
 42
0.0000001
 43
0.0000001
 44
0.0000000001
 40
0.0
 40
0.0
 40
0.0
 40
0.0
 40
0.2020872401
 40
0.3841673824
 40
0.5448877715
 40
0.6832616195
 40
0.7985202605
 40
0.8900129774
 40
0.9572515827
 40
0.9816770215
 40
1.0
 40
1.0
 40
1.0
 40
1.0
 10
12.1517275672
 20
9.1341561286
 30
0.0
 10
12.0944933444
 20
9.132243747
 30
0.0
 10
11.9856999039
 20
9.12833668
 30
0.0
 10
11.8314294822
 20
9.1218252573
 30
0.0
 10
11.6952459196
 20
9.115002294
 30
0.0
 10
11.5780420818
 20
9.1079166744
 30
0.0
 10
11.4805039344
 20
9.1006579431
 30
0.0
 10
11.4032187405
 20
9.0932471858
 30
0.0
 10
11.3517028821
 20
9.0866505481
 30
0.0
 10
11.3210656602
 20
9.0809074544
 30
0.0
 10
11.3092902421
 20
9.077979678
 30
0.0
 10
11.3043460615
 20
9.0763939614
 30
0.0
  0
SPLINE
  5
5DA
100
AcDbEntity
  8
0
100
AcDbSpline
 62
7
  6
CONTINUOUS
 70
0
 71
3
 72
8
 73
4
 74
0
 42
0.0000001
 43
0.0000001
 44
0.0000000001
 40
0.0
 40
0.0
 40
0.0
 40
0.0
 40
1.0
 40
1.0
 40
1.0
 40
1.0
 10
12.1517491923
 20
9.1341569586
 30
0.0
 10
12.2942364788
 20
9.3201073032
 30
0.0
 10
12.4398314518
 20
9.5037701962
 30
0.0
 10
12.5900463395
 20
9.683535724
 30
0.0
  0
SPLINE
  5
5DB
100
AcDbEntity
  8
0
100
AcDbSpline
 62
7
  6
CONTINUOUS
 70
0
 71
3
 72
20
 73
16
 74
0
 42
0.0000001
 43
0.0000001
 44
0.0000000001
 40
0.0
 40
0.0
 40
0.0
 40
0.0
 40
0.2200726516
 40
0.4157612797
 40
0.5851215532
 40
0.7268118874
 40
0.7869236512
 40
0.8397249418
 40
0.8851238987
 40
0.9230348232
 40
0.9533887238
 40
0.976186095
 40
0.991533334
 40
0.9965435549
 40
1.0
 40
1.0
 40
1.0
 40
1.0
 10
12.5899289325
 20
9.9922487224
 30
0.0
 10
12.5309953209
 20
9.9903963769
 30
0.0
 10
12.419666988
 20
9.9865966172
 30
0.0
 10
12.2630293873
 20
9.9801612163
 30
0.0
 10
12.1274304519
 20
9.9733576004
 30
0.0
 10
12.0281753986
 20
9.9671716389
 30
0.0
 10
11.9601601166
 20
9.9619447728
 30
0.0
 10
11.9179104369
 20
9.9581904279
 30
0.0
 10
11.8816365804
 20
9.9543996839
 30
0.0
 10
11.8514261136
 20
9.950581551
 30
0.0
 10
11.8273061448
 20
9.9467752357
 30
0.0
 10
11.8093744911
 20
9.9429754444
 30
0.0
 10
11.798214709
 20
9.9396291187
 30
0.0
 10
11.7925695289
 20
9.9366629432
 30
0.0
 10
11.7908183492
 20
9.9351013503
 30
0.0
 10
11.790353943
 20
9.9343001501
 30
0.0
  0
SPLINE
  5
5DC
100
AcDbEntity
  8
0
100
AcDbSpline
 62
7
  6
CONTINUOUS
 70
0
 71
3
 72
37
 73
33
 74
0
 42
0.0000001
 43
0.0000001
 44
0.0000000001
 40
0.0
 40
0.0
 40
0.0
 40
0.0
 40
0.000742385
 40
0.0013286484
 40
0.0020893376
 40
0.0030335483
 40
0.0041658887
 40
0.0054888896
 40
0.0070037118
 40
0.0106100722
 40
0.0149852955
 40
0.0201268842
 40
0.026030761
 40
0.040094007
 40
0.0571040157
 40
0.076973007
 40
0.0995941551
 40
0.1248475452
 40
0.1525962114
 40
0.1826918375
 40
0.2149706933
 40
0.2492595589
 40
0.2853717319
 40
0.3622779108
 40
0.444026619
 40
0.5288502652
 40
0.6149145098
 40
0.7003578387
 40
0.7833322952
 40
0.8620438544
 40
0.9347909962
 40
1.0
 40
1.0
 40
1.0
 40
1.0
 10
36.8204024163
 20
62.8313595538
 30
0.0
 10
36.8203974299
 20
62.8366459717
 30
0.0
 10
36.8129609555
 20
62.8449293073
 30
0.0
 10
36.8004452051
 20
62.852211214
 30
0.0
 10
36.785373124
 20
62.8588914799
 30
0.0
 10
36.7662890822
 20
62.8654119363
 30
0.0
 10
36.7429720226
 20
62.8720132895
 30
0.0
 10
36.7154783568
 20
62.8785971923
 30
0.0
 10
36.6705422951
 20
62.8879333567
 30
0.0
 10
36.6038580066
 20
62.8992663609
 30
0.0
 10
36.51130132
 20
62.9121998866
 30
0.0
 10
36.4022430479
 20
62.9250718158
 30
0.0
 10
36.2243617742
 20
62.9431840402
 30
0.0
 10
35.9619237082
 20
62.9648375856
 30
0.0
 10
35.599971462
 20
62.9890384103
 30
0.0
 10
35.1769211823
 20
63.0124905218
 30
0.0
 10
34.6950526783
 20
63.0350545429
 30
0.0
 10
34.156976937
 20
63.0565702081
 30
0.0
 10
33.5655972119
 20
63.076913042
 30
0.0
 10
32.9241234735
 20
63.0959574552
 30
0.0
 10
32.2360217266
 20
63.1135977298
 30
0.0
 10
31.505029131
 20
63.1297302048
 30
0.0
 10
30.4562603808
 20
63.1495267159
 30
0.0
 10
29.0694888964
 20
63.169581653
 30
0.0
 10
27.3357846819
 20
63.1860717429
 30
0.0
 10
25.5368113716
 20
63.1950640553
 30
0.0
 10
23.7115075486
 20
63.1963556794
 30
0.0
 10
21.8993823397
 20
63.189915753
 30
0.0
 10
20.1396586682
 20
63.1758922927
 30
0.0
 10
18.4704210582
 20
63.1546137934
 30
0.0
 10
16.9278077042
 20
63.1265746693
 30
0.0
 10
15.9457287383
 20
63.1023572712
 30
0.0
 10
15.4815814208
 20
63.0888365677
 30
0.0
  0
SPLINE
  5
5DD
100
AcDbEntity
  8
0
100
AcDbSpline
 62
7
  6
CONTINUOUS
 70
0
 71
3
 72
18
 73
14
 74
0
 42
0.0000001
 43
0.0000001
 44
0.0000000001
 40
0.0
 40
0.0
 40
0.0
 40
0.0
 40
0.0154853679
 40
0.0342204135
 40
0.0581741925
 40
0.0883056811
 40
0.1250843848
 40
0.1687596831
 40
0.2772935018
 40
0.4145311547
 40
0.5806986363
 40
0.7758737903
 40
1.0
 40
1.0
 40
1.0
 40
1.0
 10
37.2454021729
 20
62.8313595545
 30
0.0
 10
37.2454038885
 20
62.8294895557
 30
0.0
 10
37.2442511676
 20
62.8253357164
 30
0.0
 10
37.2397544528
 20
62.8197978571
 30
0.0
 10
37.2327504562
 20
62.8144098385
 30
0.0
 10
37.223144049
 20
62.8090540375
 30
0.0
 10
37.2108999563
 20
62.8036907241
 30
0.0
 10
37.1894130843
 20
62.7959625642
 30
0.0
 10
37.1556801433
 20
62.7866564147
 30
0.0
 10
37.1070642792
 20
62.7760685564
 30
0.0
 10
37.0477831523
 20
62.7654759935
 30
0.0
 10
36.9778736209
 20
62.7548945693
 30
0.0
 10
36.9276647145
 20
62.7483189059
 30
0.0
 10
36.9008038356
 20
62.7449988316
 30
0.0
  0
SPLINE
  5
5DE
100
AcDbEntity
  8
0
100
AcDbSpline
 62
7
  6
CONTINUOUS
 70
0
 71
3
 72
13
 73
9
 74
0
 42
0.0000001
 43
0.0000001
 44
0.0000000001
 40
0.0
 40
0.0
 40
0.0
 40
0.0
 40
0.068651408
 40
0.15438471
 40
0.2568157298
 40
0.3754557632
 40
0.6591333492
 40
1.0
 40
1.0
 40
1.0
 40
1.0
 10
36.9008038356
 20
62.7449988316
 30
0.0
 10
36.8225303482
 20
62.7353240254
 30
0.0
 10
36.64607689
 20
62.7170891607
 30
0.0
 10
36.3520133901
 20
62.6930072473
 30
0.0
 10
36.0003236769
 20
62.6694373856
 30
0.0
 10
35.4213549789
 20
62.6369346331
 30
0.0
 10
34.5683255661
 20
62.6000471864
 30
0.0
 10
33.8512048089
 20
62.5765308587
 30
0.0
 10
33.4597713325
 20
62.5651283238
 30
0.0
  0
SPLINE
  5
5DF
100
AcDbEntity
  8
0
100
AcDbSpline
 62
7
  6
CONTINUOUS
 70
0
 71
3
 72
31
 73
27
 74
0
 42
0.0000001
 43
0.0000001
 44
0.0000000001
 40
0.0
 40
0.0
 40
0.0
 40
0.0
 40
0.202634108
 40
0.3822905114
 40
0.4629742944
 40
0.5373135211
 40
0.6051526679
 40
0.6663634282
 40
0.7208538693
 40
0.7685855671
 40
0.8096095017
 40
0.8441549434
 40
0.8728930722
 40
0.8856158689
 40
0.8979356795
 40
0.9111401643
 40
0.9189120534
 40
0.9233709371
 40
0.9283556012
 40
0.9340032297
 40
0.9405035462
 40
0.9480831853
 40
0.9567749407
 40
0.9663914039
 40
0.9768280365
 40
1.0
 40
1.0
 40
1.0
 40
1.0
 10
36.9220995635
 20
63.1981099558
 30
0.0
 10
37.3179369986
 20
63.1865791327
 30
0.0
 10
38.0646693893
 20
63.1628066678
 30
0.0
 10
38.9687834154
 20
63.1276787707
 30
0.0
 10
39.6221543386
 20
63.0976089379
 30
0.0
 10
40.0571173199
 20
63.0752103352
 30
0.0
 10
40.4539349911
 20
63.0522003131
 30
0.0
 10
40.8118539685
 20
63.0286178802
 30
0.0
 10
41.1303433492
 20
63.0044929689
 30
0.0
 10
41.4092060991
 20
62.979816991
 30
0.0
 10
41.6488592035
 20
62.9545140086
 30
0.0
 10
41.8510183668
 20
62.9282011154
 30
0.0
 10
41.9975883741
 20
62.9036370339
 30
0.0
 10
42.100228832
 20
62.8808793571
 30
0.0
 10
42.1723402674
 20
62.8610689943
 30
0.0
 10
42.2336679145
 20
62.8389580637
 30
0.0
 10
42.2786357888
 20
62.8176404064
 30
0.0
 10
42.3080007894
 20
62.8011993597
 30
0.0
 10
42.333102878
 20
62.7856958207
 30
0.0
 10
42.3604489579
 20
62.7663165049
 30
0.0
 10
42.3897839165
 20
62.7412084144
 30
0.0
 10
42.4207049371
 20
62.7091055713
 30
0.0
 10
42.4520159687
 20
62.6692430947
 30
0.0
 10
42.4812319856
 20
62.6210500785
 30
0.0
 10
42.5145122089
 20
62.5431865248
 30
0.0
 10
42.5254161857
 20
62.4768139881
 30
0.0
 10
42.5254161857
 20
62.4315293047
 30
0.0
  0
SPLINE
  5
5E0
100
AcDbEntity
  8
0
100
AcDbSpline
 62
7
  6
CONTINUOUS
 70
0
 71
3
 72
41
 73
37
 74
0
 42
0.0000001
 43
0.0000001
 44
0.0000000001
 40
0.0
 40
0.0
 40
0.0
 40
0.0
 40
0.0033185793
 40
0.0063126412
 40
0.0089519444
 40
0.0111729058
 40
0.0129492728
 40
0.0144039841
 40
0.0156346887
 40
0.0167110889
 40
0.0203490689
 40
0.0238781534
 40
0.0278053227
 40
0.0323091081
 40
0.0374648679
 40
0.0433070439
 40
0.0498510265
 40
0.0571021047
 40
0.0737187213
 40
0.0931105075
 40
0.1151947435
 40
0.139864476
 40
0.1669938124
 40
0.1964407534
 40
0.2280489984
 40
0.261649581
 40
0.2970622692
 40
0.3725497339
 40
0.452867403
 40
0.5362634706
 40
0.6209238465
 40
0.7050060001
 40
0.7866800523
 40
0.8641705727
 40
0.9357931504
 40
1.0
 40
1.0
 40
1.0
 40
1.0
 10
6.1154161857
 20
62.4315293047
 30
0.0
 10
6.1154161857
 20
62.4658974584
 30
0.0
 10
6.1236394618
 20
62.5315625034
 30
0.0
 10
6.1565793697
 20
62.6190317299
 30
0.0
 10
6.2009857032
 20
62.6877802736
 30
0.0
 10
6.247426163
 20
62.7387926009
 30
0.0
 10
6.291089512
 20
62.7748584749
 30
0.0
 10
6.330020914
 20
62.7998624731
 30
0.0
 10
6.364169992
 20
62.818667974
 30
0.0
 10
6.4200425527
 20
62.8446224082
 30
0.0
 10
6.5013348348
 20
62.871702191
 30
0.0
 10
6.6133222812
 20
62.8975787507
 30
0.0
 10
6.7352964406
 20
62.9193508728
 30
0.0
 10
6.8745640209
 20
62.9395271025
 30
0.0
 10
7.0339383187
 20
62.9589297391
 30
0.0
 10
7.2146266346
 20
62.9778409261
 30
0.0
 10
7.4171529175
 20
62.9963839964
 30
0.0
 10
7.7310786637
 20
63.0218424754
 30
0.0
 10
8.1780711532
 20
63.0522410333
 30
0.0
 10
8.7787503034
 20
63.0860937127
 30
0.0
 10
9.4630109563
 20
63.1185865311
 30
0.0
 10
10.2275451455
 20
63.1495600712
 30
0.0
 10
11.068446326
 20
63.1788362225
 30
0.0
 10
11.9813017058
 20
63.2062525065
 30
0.0
 10
12.9612570496
 20
63.2316543847
 30
0.0
 10
14.0030648549
 20
63.2549016889
 30
0.0
 10
15.4992853615
 20
63.2834551262
 30
0.0
 10
17.4793906164
 20
63.3124212478
 30
0.0
 10
19.9565199878
 20
63.3363072059
 30
0.0
 10
22.5287280526
 20
63.3494363733
 30
0.0
 10
25.139954309
 20
63.3515111966
 30
0.0
 10
27.7333322559
 20
63.3424813991
 30
0.0
 10
30.2523945467
 20
63.3225565167
 30
0.0
 10
32.6423100553
 20
63.2922027966
 30
0.0
 10
34.8511598274
 20
63.2521284882
 30
0.0
 10
36.2574370719
 20
63.2174717062
 30
0.0
 10
36.9220995635
 20
63.1981099558
 30
0.0
  0
LINE
  5
5E1
100
AcDbEntity
  8
0
100
AcDbLine
 62
7
  6
CONTINUOUS
 10
38.4604298333
 20
60.4981855387
 11
38.3600605677
 21
60.4946118786
  0
LINE
  5
5E2
100
AcDbEntity
  8
0
100
AcDbLine
 62
7
  6
CONTINUOUS
 10
38.3546217303
 20
60.4944200323
 11
38.3178639274
 21
60.4931282513
  0
LINE
  5
5E3
100
AcDbEntity
  8
0
100
AcDbLine
 62
7
  6
CONTINUOUS
 10
38.3178639274
 20
60.4931282513
 11
38.2613010104
 21
60.491156602
  0
SPLINE
  5
5E4
100
AcDbEntity
  8
0
100
AcDbSpline
 62
7
  6
CONTINUOUS
 70
0
 71
3
 72
11
 73
7
 74
0
 42
0.0000001
 43
0.0000001
 44
0.0000000001
 40
0.0
 40
0.0
 40
0.0
 40
0.0
 40
0.1921469808
 40
0.4250418258
 40
0.6955236093
 40
1.0
 40
1.0
 40
1.0
 40
1.0
 10
34.4204161857
 20
39.3071644061
 30
0.0
 10
34.2200773766
 20
39.2943628731
 30
0.0
 10
33.7766234122
 20
39.2706340421
 30
0.0
 10
33.0505872387
 20
39.2404451426
 30
0.0
 10
32.2070207271
 20
39.2127444237
 30
0.0
 10
31.6065284033
 20
39.197065858
 30
0.0
 10
31.2885115162
 20
39.1895951522
 30
0.0
  0
SPLINE
  5
5E5
100
AcDbEntity
  8
0
100
AcDbSpline
 62
7
  6
CONTINUOUS
 70
0
 71
3
 72
10
 73
6
 74
0
 42
0.0000001
 43
0.0000001
 44
0.0000000001
 40
0.0
 40
0.0
 40
0.0
 40
0.0
 40
0.5644362366
 40
0.7992958823
 40
1.0
 40
1.0
 40
1.0
 40
1.0
 10
16.4715309145
 20
39.2126503259
 30
0.0
 10
16.0477841211
 20
39.2249941542
 30
0.0
 10
15.4477748467
 20
39.2450591129
 30
0.0
 10
14.6974860128
 20
39.279282408
 30
0.0
 10
14.3708505897
 20
39.2975517355
 30
0.0
 10
14.2204161857
 20
39.3071644061
 30
0.0
  0
SPLINE
  5
5E6
100
AcDbEntity
  8
0
100
AcDbSpline
 62
7
  6
CONTINUOUS
 70
0
 71
3
 72
25
 73
21
 74
0
 42
0.0000001
 43
0.0000001
 44
0.0000000001
 40
0.0
 40
0.0
 40
0.0
 40
0.0
 40
0.2237230355
 40
0.4223153675
 40
0.5937189033
 40
0.6687267479
 40
0.7363720254
 40
0.7964950929
 40
0.8489449884
 40
0.8936142277
 40
0.9304174415
 40
0.9458474204
 40
0.9592915266
 40
0.9707541881
 40
0.9802463327
 40
0.9877920503
 40
0.9934465355
 40
0.9956071635
 40
0.9973682188
 40
1.0
 40
1.0
 40
1.0
 40
1.0
 10
15.4815814208
 20
63.0888365677
 30
0.0
 10
15.2070099044
 20
63.0808382448
 30
0.0
 10
14.6887473599
 20
63.0643559963
 30
0.0
 10
13.9603181703
 20
63.0361168573
 30
0.0
 10
13.4145494536
 20
63.0100782022
 30
0.0
 10
13.0295827956
 20
62.9879362103
 30
0.0
 10
12.7811386798
 20
62.9717246822
 30
0.0
 10
12.560479001
 20
62.9552139903
 30
0.0
 10
12.368137961
 20
62.9384560611
 30
0.0
 10
12.2045763651
 20
62.9215053117
 30
0.0
 10
12.086519679
 20
62.9065734324
 30
0.0
 10
12.0068276319
 20
62.8942191956
 30
0.0
 10
11.9580707849
 20
62.8854896552
 30
0.0
 10
11.9167414948
 20
62.8767557255
 30
0.0
 10
11.8828260927
 20
62.868054888
 30
0.0
 10
11.8563361555
 20
62.8593681391
 30
0.0
 10
11.8390172229
 20
62.8517165849
 30
0.0
 10
11.829160058
 20
62.8451920198
 30
0.0
 10
11.8231979758
 20
62.8398596344
 30
0.0
 10
11.8204269071
 20
62.8345908655
 30
0.0
 10
11.820429955
 20
62.8313595561
 30
0.0
  0
SPLINE
  5
5E7
100
AcDbEntity
  8
0
100
AcDbSpline
 62
7
  6
CONTINUOUS
 70
0
 71
3
 72
19
 73
15
 74
0
 42
0.0000001
 43
0.0000001
 44
0.0000000001
 40
0.0
 40
0.0
 40
0.0
 40
0.0
 40
0.2252256062
 40
0.4213535724
 40
0.5883039754
 40
0.7260565372
 40
0.7840145857
 40
0.8347344521
 40
0.8782921669
 40
0.9148158487
 40
0.9445286781
 40
0.9678551947
 40
0.9856887356
 40
1.0
 40
1.0
 40
1.0
 40
1.0
 10
6.6998261335
 20
60.698918372
 30
0.0
 10
6.6543194372
 20
60.704023113
 30
0.0
 10
6.5692469455
 20
60.7141415397
 30
0.0
 10
6.4507405135
 20
60.7304371195
 30
0.0
 10
6.3502225149
 20
60.7467785416
 30
0.0
 10
6.2778587322
 20
60.7610745899
 30
0.0
 10
6.229145259
 20
60.7728267138
 30
0.0
 10
6.1993188817
 20
60.7811267749
 30
0.0
 10
6.1740366138
 20
60.7894174371
 30
0.0
 10
6.1532857118
 20
60.7976953688
 30
0.0
 10
6.1370105803
 20
60.8059526184
 30
0.0
 10
6.1251537363
 20
60.8142480529
 30
0.0
 10
6.1174764241
 20
60.8227477492
 30
0.0
 10
6.1154296972
 20
60.8292985863
 30
0.0
 10
6.1154278287
 20
60.832208304
 30
0.0
  0
LINE
  5
5E8
100
AcDbEntity
  8
0
100
AcDbLine
 62
7
  6
CONTINUOUS
 10
23.1829275221
 20
60.3029292315
 11
22.8605178625
 21
60.3036011097
  0
LINE
  5
5E9
100
AcDbEntity
  8
0
100
AcDbLine
 62
7
  6
CONTINUOUS
 10
19.3878696636
 20
60.321729589
 11
19.2679130894
 21
60.3227260804
  0
LINE
  5
5EA
100
AcDbEntity
  8
0
100
AcDbLine
 62
7
  6
CONTINUOUS
 10
15.5813178853
 20
60.3669910763
 11
15.3878115357
 21
60.3701202123
  0
LINE
  5
5EB
100
AcDbEntity
  8
0
100
AcDbLine
 62
7
  6
CONTINUOUS
 10
15.3465229654
 20
60.3707995338
 11
14.8913065972
 21
60.3785679555
  0
SPLINE
  5
5EC
100
AcDbEntity
  8
0
100
AcDbSpline
 62
7
  6
CONTINUOUS
 70
0
 71
3
 72
37
 73
33
 74
0
 42
0.0000001
 43
0.0000001
 44
0.0000000001
 40
0.0
 40
0.0
 40
0.0
 40
0.0
 40
0.000742385
 40
0.0013286484
 40
0.0020893376
 40
0.0030335483
 40
0.0041658887
 40
0.0054888896
 40
0.0070037118
 40
0.0106100722
 40
0.0149852955
 40
0.0201268842
 40
0.026030761
 40
0.040094007
 40
0.0571040157
 40
0.076973007
 40
0.0995941551
 40
0.1248475452
 40
0.1525962114
 40
0.1826918375
 40
0.2149706933
 40
0.2492595589
 40
0.2853717319
 40
0.3622779108
 40
0.444026619
 40
0.5288502652
 40
0.6149145098
 40
0.7003578387
 40
0.7833322952
 40
0.8620438544
 40
0.9347909962
 40
1.0
 40
1.0
 40
1.0
 40
1.0
 10
11.820429955
 20
62.8313595561
 30
0.0
 10
11.8204349414
 20
62.8260731382
 30
0.0
 10
11.8278714158
 20
62.8177898026
 30
0.0
 10
11.8403871662
 20
62.8105078959
 30
0.0
 10
11.8554592473
 20
62.80382763
 30
0.0
 10
11.8745432891
 20
62.7973071736
 30
0.0
 10
11.8978603487
 20
62.7907058204
 30
0.0
 10
11.9253540145
 20
62.7841219176
 30
0.0
 10
11.9702900763
 20
62.7747857532
 30
0.0
 10
12.0369743647
 20
62.7634527489
 30
0.0
 10
12.1295310513
 20
62.7505192233
 30
0.0
 10
12.2385893234
 20
62.737647294
 30
0.0
 10
12.4164705972
 20
62.7195350696
 30
0.0
 10
12.6789086631
 20
62.6978815243
 30
0.0
 10
13.0408609093
 20
62.6736806996
 30
0.0
 10
13.463911189
 20
62.6502285881
 30
0.0
 10
13.945779693
 20
62.627664567
 30
0.0
 10
14.4838554343
 20
62.6061489018
 30
0.0
 10
15.0752351594
 20
62.5858060679
 30
0.0
 10
15.7167088978
 20
62.5667616547
 30
0.0
 10
16.4048106447
 20
62.5491213801
 30
0.0
 10
17.1358032403
 20
62.5329889051
 30
0.0
 10
18.1845719906
 20
62.5131923939
 30
0.0
 10
19.5713434749
 20
62.4931374569
 30
0.0
 10
21.3050476894
 20
62.476647367
 30
0.0
 10
23.1040209998
 20
62.4676550545
 30
0.0
 10
24.9293248227
 20
62.4663634305
 30
0.0
 10
26.7414500316
 20
62.4728033568
 30
0.0
 10
28.5011737031
 20
62.4868268172
 30
0.0
 10
30.1704113131
 20
62.5081053165
 30
0.0
 10
31.7130246671
 20
62.5361444406
 30
0.0
 10
32.695103633
 20
62.5603618387
 30
0.0
 10
33.1592509505
 20
62.5738825422
 30
0.0
  0
SPLINE
  5
5ED
100
AcDbEntity
  8
0
100
AcDbSpline
 62
7
  6
CONTINUOUS
 70
0
 71
3
 72
18
 73
14
 74
0
 42
0.0000001
 43
0.0000001
 44
0.0000000001
 40
0.0
 40
0.0
 40
0.0
 40
0.0
 40
0.0154836776
 40
0.0342173975
 40
0.0581702508
 40
0.0883011319
 40
0.1250794751
 40
0.1687546116
 40
0.2772885881
 40
0.4145269129
 40
0.5806954943
 40
0.7758721037
 40
1.0
 40
1.0
 40
1.0
 40
1.0
 10
11.3954301984
 20
62.8313595554
 30
0.0
 10
11.3954284826
 20
62.8332298082
 30
0.0
 10
11.3965815594
 20
62.83738429
 30
0.0
 10
11.4010794656
 20
62.8429228162
 30
0.0
 10
11.4080852404
 20
62.8483114932
 30
0.0
 10
11.4176940972
 20
62.8536679595
 30
0.0
 10
11.4299413173
 20
62.8590319488
 30
0.0
 10
11.4514337292
 20
62.8667611013
 30
0.0
 10
11.4851753155
 20
62.8760684262
 30
0.0
 10
11.5338036035
 20
62.8866576137
 30
0.0
 10
11.5930998775
 20
62.8972514966
 30
0.0
 10
11.6630272509
 20
62.907834226
 30
0.0
 10
11.713248948
 20
62.9144106928
 30
0.0
 10
11.7401166646
 20
62.9177311705
 30
0.0
  0
SPLINE
  5
5EE
100
AcDbEntity
  8
0
100
AcDbSpline
 62
7
  6
CONTINUOUS
 70
0
 71
3
 72
13
 73
9
 74
0
 42
0.0000001
 43
0.0000001
 44
0.0000000001
 40
0.0
 40
0.0
 40
0.0
 40
0.0
 40
0.0686564249
 40
0.1543932384
 40
0.2568262597
 40
0.3754668385
 40
0.6591413822
 40
1.0
 40
1.0
 40
1.0
 40
1.0
 10
11.7401166646
 20
62.9177311705
 30
0.0
 10
11.8183940121
 20
62.9274051666
 30
0.0
 10
11.9948528408
 20
62.9456387763
 30
0.0
 10
12.2889209642
 20
62.969719302
 30
0.0
 10
12.6406086412
 20
62.9932877721
 30
0.0
 10
13.2195619255
 20
63.0257883841
 30
0.0
 10
14.0725573016
 20
63.0626736354
 30
0.0
 10
14.7896468712
 20
63.0861888136
 30
0.0
 10
15.1810610388
 20
63.0975907861
 30
0.0
  0
SPLINE
  5
5EF
100
AcDbEntity
  8
0
100
AcDbSpline
 62
7
  6
CONTINUOUS
 70
0
 71
3
 72
25
 73
21
 74
0
 42
0.0000001
 43
0.0000001
 44
0.0000000001
 40
0.0
 40
0.0
 40
0.0
 40
0.0
 40
0.2246251009
 40
0.4234405548
 40
0.5947213693
 40
0.6695862988
 40
0.7370581857
 40
0.7969873253
 40
0.8492438299
 40
0.8937378306
 40
0.9303916388
 40
0.9457604399
 40
0.9591559263
 40
0.970583903
 40
0.9800572156
 40
0.9876030133
 40
0.9932819279
 40
0.9954671012
 40
0.9972632475
 40
1.0
 40
1.0
 40
1.0
 40
1.0
 10
33.5068248426
 20
62.5844231313
 30
0.0
 10
33.7564615479
 20
62.5923045485
 30
0.0
 10
34.2270130739
 20
62.6084500122
 30
0.0
 10
34.8877208308
 20
62.6359005769
 30
0.0
 10
35.3818476907
 20
62.6610277549
 30
0.0
 10
35.7299134244
 20
62.6822968608
 30
0.0
 10
35.9542798973
 20
62.6978222454
 30
0.0
 10
36.153421057
 20
62.7136026303
 30
0.0
 10
36.3269053668
 20
62.7295906473
 30
0.0
 10
36.4743637883
 20
62.7457362565
 30
0.0
 10
36.5807564858
 20
62.7599426956
 30
0.0
 10
36.652545877
 20
62.7716864982
 30
0.0
 10
36.6964657743
 20
62.7799815024
 30
0.0
 10
36.7336941203
 20
62.788277714
 30
0.0
 10
36.764246594
 20
62.7965437858
 30
0.0
 10
36.7881144563
 20
62.8047933205
 30
0.0
 10
36.8037096866
 20
62.812069275
 30
0.0
 10
36.812563511
 20
62.8182477697
 30
0.0
 10
36.8179659462
 20
62.8233588822
 30
0.0
 10
36.8204052866
 20
62.8283165547
 30
0.0
 10
36.8204024163
 20
62.8313595538
 30
0.0
  0
SPLINE
  5
5F0
100
AcDbEntity
  8
0
100
AcDbSpline
 62
7
  6
CONTINUOUS
 70
0
 71
3
 72
38
 73
34
 74
0
 42
0.0000001
 43
0.0000001
 44
0.0000000001
 40
0.0
 40
0.0
 40
0.0
 40
0.0
 40
0.0652085567
 40
0.1379521906
 40
0.2166624408
 40
0.2996352394
 40
0.3850771175
 40
0.4711398853
 40
0.5559622303
 40
0.637709667
 40
0.7146144906
 40
0.750726287
 40
0.7850142798
 40
0.8172928035
 40
0.8473879718
 40
0.87513639
 40
0.900389648
 40
0.923010387
 40
0.9428791299
 40
0.9598884308
 40
0.9739512647
 40
0.979854216
 40
0.9849960693
 40
0.9893717175
 40
0.9929774138
 40
0.9944916942
 40
0.99581441
 40
0.9969468786
 40
0.9978914472
 40
0.9986524947
 40
0.9992389054
 40
0.9996710361
 40
1.0
 40
1.0
 40
1.0
 40
1.0
 10
11.4475372342
 20
62.0565397833
 30
0.0
 10
12.1235300499
 20
62.0368479783
 30
0.0
 10
13.5538169775
 20
62.001577606
 30
0.0
 10
15.8004686991
 20
61.9607427691
 30
0.0
 10
18.2315270187
 20
61.9297519193
 30
0.0
 10
20.7943931811
 20
61.9093285858
 30
0.0
 10
23.4335766935
 20
61.8999490852
 30
0.0
 10
26.0919576201
 20
61.9018301916
 30
0.0
 10
28.7119918928
 20
61.9149265644
 30
0.0
 10
31.2369676541
 20
61.938942442
 30
0.0
 10
33.2566702173
 20
61.96815126
 30
0.0
 10
34.7841000958
 20
61.996981357
 30
0.0
 10
35.8487222311
 20
62.0204779811
 30
0.0
 10
36.8508761091
 20
62.0461685563
 30
0.0
 10
37.7851260722
 20
62.0739054403
 30
0.0
 10
38.6464197489
 20
62.1035332972
 30
0.0
 10
39.4300805257
 20
62.1348684997
 30
0.0
 10
40.1318793574
 20
62.1677324039
 30
0.0
 10
40.748007884
 20
62.2018865184
 30
0.0
 10
41.2751510484
 20
62.2371356053
 30
0.0
 10
41.6573527015
 20
62.2686664893
 30
0.0
 10
41.916412293
 20
62.2950506501
 30
0.0
 10
42.0752458239
 20
62.3137959171
 30
0.0
 10
42.2100483271
 20
62.3326273939
 30
0.0
 10
42.3071624573
 20
62.34913605
 30
0.0
 10
42.3725900437
 20
62.3627317251
 30
0.0
 10
42.4126305559
 20
62.372330512
 30
0.0
 10
42.4465757132
 20
62.3819175337
 30
0.0
 10
42.4744275389
 20
62.3914892814
 30
0.0
 10
42.4962601198
 20
62.4010103189
 30
0.0
 10
42.5121186432
 20
62.4105668072
 30
0.0
 10
42.5224769118
 20
62.4202559884
 30
0.0
 10
42.5254093344
 20
62.4281176124
 30
0.0
 10
42.5254070225
 20
62.4315293046
 30
0.0
  0
LINE
  5
5F1
100
AcDbEntity
  8
0
100
AcDbLine
 62
7
  6
CONTINUOUS
 10
15.1810610388
 20
63.0975907861
 11
15.4466906142
 21
63.1051094608
  0
SPLINE
  5
5F2
100
AcDbEntity
  8
0
100
AcDbSpline
 62
7
  6
CONTINUOUS
 70
0
 71
3
 72
59
 73
55
 74
0
 42
0.0000001
 43
0.0000001
 44
0.0000000001
 40
0.0
 40
0.0
 40
0.0
 40
0.0
 40
0.0745675355
 40
0.1589758323
 40
0.2505705366
 40
0.3464599407
 40
0.4436196338
 40
0.5389839702
 40
0.5850482189
 40
0.6295451137
 40
0.6721233194
 40
0.7124469428
 40
0.7501965778
 40
0.7850754816
 40
0.8168081293
 40
0.8314154939
 40
0.8451443896
 40
0.8579688381
 40
0.8698630623
 40
0.8808033377
 40
0.8907696653
 40
0.8997425798
 40
0.9077041328
 40
0.9146409779
 40
0.9205412523
 40
0.9230993795
 40
0.9253951223
 40
0.9274283691
 40
0.929199351
 40
0.9307088765
 40
0.9319588158
 40
0.9329532084
 40
0.9337014459
 40
0.9339903476
 40
0.9342295104
 40
0.9344296505
 40
0.9346086368
 40
0.9349939228
 40
0.9352443564
 40
0.9355463368
 40
0.9363235446
 40
0.9373485607
 40
0.9386297786
 40
0.9401708775
 40
0.9419735641
 40
0.9440385639
 40
0.946366063
 40
0.948955913
 40
0.9549191386
 40
0.9619182845
 40
0.9699416497
 40
0.9789756581
 40
0.9890017277
 40
1.0
 40
1.0
 40
1.0
 40
1.0
 10
11.7303799466
 20
62.464609298
 30
0.0
 10
12.5393272637
 20
62.441044502
 30
0.0
 10
14.2642532258
 20
62.4001366348
 30
0.0
 10
16.9833817817
 20
62.3558449464
 30
0.0
 10
19.9341281889
 20
62.3259149513
 30
0.0
 10
23.0233816044
 20
62.3113798208
 30
0.0
 10
26.153580373
 20
62.3127553752
 30
0.0
 10
28.742980818
 20
62.3272660766
 30
0.0
 10
30.7607575875
 20
62.3470852642
 30
0.0
 10
32.2056190794
 20
62.3655746799
 30
0.0
 10
33.5881183363
 20
62.3877019077
 30
0.0
 10
34.897316323
 20
62.4132853496
 30
0.0
 10
36.122864515
 20
62.4421157685
 30
0.0
 10
37.2550659295
 20
62.473949363
 30
0.0
 10
38.1360551191
 20
62.5035060145
 30
0.0
 10
38.7875034437
 20
62.5287281167
 30
0.0
 10
39.2338233576
 20
62.5477098989
 30
0.0
 10
39.6506437487
 20
62.5672377122
 30
0.0
 10
40.0371375368
 20
62.5872728392
 30
0.0
 10
40.3925403835
 20
62.6077746107
 30
0.0
 10
40.7161542421
 20
62.6286918909
 30
0.0
 10
41.0073390252
 20
62.6499760704
 30
0.0
 10
41.2655218255
 20
62.6715754851
 30
0.0
 10
41.4901990731
 20
62.6934318753
 30
0.0
 10
41.6562004049
 20
62.7125804408
 30
0.0
 10
41.7718570584
 20
62.7282990749
 30
0.0
 10
41.8457551411
 20
62.7395577778
 30
0.0
 10
41.9109954158
 20
62.7508414458
 30
0.0
 10
41.9675589709
 20
62.7621372752
 30
0.0
 10
42.0154237893
 20
62.7734294758
 30
0.0
 10
42.0546123239
 20
62.7846869991
 30
0.0
 10
42.0851109591
 20
62.7958985572
 30
0.0
 10
42.1049301595
 20
62.8058529665
 30
0.0
 10
42.1160298382
 20
62.814210865
 30
0.0
 10
42.1214923738
 20
62.8199963511
 30
0.0
 10
42.1248115053
 20
62.8259372545
 30
0.0
 10
42.1261385193
 20
62.8343643068
 30
0.0
 10
42.1217395297
 20
62.8428831975
 30
0.0
 10
42.1143945965
 20
62.849872879
 30
0.0
 10
42.1025588837
 20
62.8582481175
 30
0.0
 10
42.0818771303
 20
62.8681631555
 30
0.0
 10
42.0503300611
 20
62.8793963066
 30
0.0
 10
42.0100924892
 20
62.890654245
 30
0.0
 10
41.9611741601
 20
62.901950012
 30
0.0
 10
41.9035598336
 20
62.9132446589
 30
0.0
 10
41.8372708154
 20
62.9245260643
 30
0.0
 10
41.7623270033
 20
62.9357807669
 30
0.0
 10
41.6452835575
 20
62.951482315
 30
0.0
 10
41.4775661943
 20
62.9706159235
 30
0.0
 10
41.2508481123
 20
62.9924593486
 30
0.0
 10
40.9906469911
 20
63.0140414361
 30
0.0
 10
40.6974731853
 20
63.0353046387
 30
0.0
 10
40.3719130478
 20
63.0561984284
 30
0.0
 10
40.1441053232
 20
63.069252645
 30
0.0
 10
40.0249168322
 20
63.075752228
 30
0.0
  0
LINE
  5
5F3
100
AcDbEntity
  8
0
100
AcDbLine
 62
7
  6
CONTINUOUS
 10
40.0249168322
 20
63.075752228
 11
39.8978585857
 21
63.0825580278
  0
SPLINE
  5
5F4
100
AcDbEntity
  8
0
100
AcDbSpline
 62
7
  6
CONTINUOUS
 70
0
 71
3
 72
9
 73
5
 74
0
 42
0.0000001
 43
0.0000001
 44
0.0000000001
 40
0.0
 40
0.0
 40
0.0
 40
0.0
 40
0.4537218574
 40
1.0
 40
1.0
 40
1.0
 40
1.0
 10
39.8978585857
 20
63.0825580278
 30
0.0
 10
39.4483736993
 20
63.1062112763
 30
0.0
 10
38.4572401338
 20
63.1493132856
 30
0.0
 10
37.4657322013
 20
63.1818997497
 30
0.0
 10
36.9240373351
 20
63.1977136518
 30
0.0
  0
LINE
  5
5F5
100
AcDbEntity
  8
0
100
AcDbLine
 62
7
  6
CONTINUOUS
 10
10.1291416872
 20
63.144594387
 11
9.9535751794
 21
63.1377276918
  0
SPLINE
  5
5F6
100
AcDbEntity
  8
0
100
AcDbSpline
 62
7
  6
CONTINUOUS
 70
0
 71
3
 72
48
 73
44
 74
0
 42
0.0000001
 43
0.0000001
 44
0.0000000001
 40
0.0
 40
0.0
 40
0.0
 40
0.0
 40
0.1003809162
 40
0.1454862444
 40
0.1870786948
 40
0.2250823878
 40
0.2594253799
 40
0.2900385037
 40
0.3168686714
 40
0.3398713621
 40
0.3590064476
 40
0.3742539793
 40
0.3804218653
 40
0.3856237429
 40
0.3898691853
 40
0.3931791407
 40
0.3956042522
 40
0.3965247101
 40
0.3972917034
 40
0.3979658321
 40
0.3986334851
 40
0.399383296
 40
0.4002798577
 40
0.4026470401
 40
0.405893607
 40
0.4100734273
 40
0.4152086417
 40
0.4213093612
 40
0.4283802271
 40
0.4364230362
 40
0.4454379683
 40
0.4554239243
 40
0.4663772483
 40
0.4911660242
 40
0.5197625691
 40
0.5521206577
 40
0.5881773246
 40
0.6278596873
 40
0.6710938915
 40
0.7177989965
 40
0.7678865466
 40
0.8778370891
 40
1.0
 40
1.0
 40
1.0
 40
1.0
 10
9.9535751794
 20
63.1377276918
 30
0.0
 10
9.662169023
 20
63.1261314748
 30
0.0
 10
9.2398740112
 20
63.1079042236
 30
0.0
 10
8.6970444277
 20
63.0804777594
 30
0.0
 10
8.335316202
 20
63.0601743237
 30
0.0
 10
8.0049353984
 20
63.0394468915
 30
0.0
 10
7.7065477399
 20
63.0183434357
 30
0.0
 10
7.4407378706
 20
62.996911907
 30
0.0
 10
7.2080208739
 20
62.975209679
 30
0.0
 10
7.0088322251
 20
62.9533263142
 30
0.0
 10
6.8435567438
 20
62.9313104875
 30
0.0
 10
6.7273094988
 20
62.9118959569
 30
0.0
 10
6.6516683395
 20
62.8957343823
 30
0.0
 10
6.6077054665
 20
62.8844966932
 30
0.0
 10
6.5723235942
 20
62.8733055691
 30
0.0
 10
6.5455370214
 20
62.8621748431
 30
0.0
 10
6.5287371346
 20
62.8522065072
 30
0.0
 10
6.5201729726
 20
62.8437782896
 30
0.0
 10
6.5164688322
 20
62.8378979013
 30
0.0
 10
6.5150473944
 20
62.8317882361
 30
0.0
 10
6.5161277671
 20
62.8256547834
 30
0.0
 10
6.5195310192
 20
62.8197442309
 30
0.0
 10
6.5276728273
 20
62.8112945873
 30
0.0
 10
6.5439893658
 20
62.8013110153
 30
0.0
 10
6.5701884555
 20
62.7901877185
 30
0.0
 10
6.6049776311
 20
62.7789991953
 30
0.0
 10
6.6483430713
 20
62.7677659477
 30
0.0
 10
6.7003397533
 20
62.7565172006
 30
0.0
 10
6.7609455119
 20
62.7452727694
 30
0.0
 10
6.8301468371
 20
62.7340479596
 30
0.0
 10
6.9079188084
 20
62.7228548319
 30
0.0
 10
6.9942299023
 20
62.7117031861
 30
0.0
 10
7.1261850885
 20
62.6962558435
 30
0.0
 10
7.3121636475
 20
62.6773831982
 30
0.0
 10
7.5603425862
 20
62.6557952887
 30
0.0
 10
7.8413897113
 20
62.6345112688
 30
0.0
 10
8.154749085
 20
62.6135763057
 30
0.0
 10
8.4997941327
 20
62.5930404214
 30
0.0
 10
8.8758500001
 20
62.5729537339
 30
0.0
 10
9.2821995722
 20
62.5533582446
 30
0.0
 10
9.8822789184
 20
62.5271150104
 30
0.0
 10
10.701583072
 20
62.4962237323
 30
0.0
 10
11.3756103878
 20
62.4749438058
 30
0.0
 10
11.7303799466
 20
62.464609298
 30
0.0
  0
SPLINE
  5
5F7
100
AcDbEntity
  8
0
100
AcDbSpline
 62
7
  6
CONTINUOUS
 70
0
 71
3
 72
27
 73
23
 74
0
 42
0.0000001
 43
0.0000001
 44
0.0000000001
 40
0.0
 40
0.0
 40
0.0
 40
0.0
 40
0.0012398348
 40
0.002674882
 40
0.0044362004
 40
0.0065961041
 40
0.0122469766
 40
0.0197892021
 40
0.0292813151
 40
0.0407465053
 40
0.0541929207
 40
0.0696222051
 40
0.0870324735
 40
0.1064197465
 40
0.1510905381
 40
0.2035384377
 40
0.2636531735
 40
0.3312996081
 40
0.4063089003
 40
0.5777041199
 40
0.7762697916
 40
1.0
 40
1.0
 40
1.0
 40
1.0
 10
6.1154253488
 20
62.4315293047
 30
0.0
 10
6.1154268513
 20
62.4293121695
 30
0.0
 10
6.1165346389
 20
62.4244991064
 30
0.0
 10
6.1210453536
 20
62.4178380786
 30
0.0
 10
6.1281647679
 20
62.4113480203
 30
0.0
 10
6.142502274
 20
62.4019142352
 30
0.0
 10
6.1677173103
 20
62.3907211001
 30
0.0
 10
6.2062823422
 20
62.3780896345
 30
0.0
 10
6.2556789946
 20
62.3654119032
 30
0.0
 10
6.3158823696
 20
62.3526960899
 30
0.0
 10
6.3869031363
 20
62.3399843053
 30
0.0
 10
6.4687008745
 20
62.3272953163
 30
0.0
 10
6.5612391452
 20
62.3146457756
 30
0.0
 10
6.7058575169
 20
62.2970097787
 30
0.0
 10
6.9131086895
 20
62.2755642931
 30
0.0
 10
7.1932268303
 20
62.2511468979
 30
0.0
 10
7.5145940975
 20
62.2271002737
 30
0.0
 10
7.8764334167
 20
62.2034918457
 30
0.0
 10
8.4371131252
 20
62.1712443455
 30
0.0
 10
9.2319451275
 20
62.1333221695
 30
0.0
 10
10.2928256376
 20
62.0921926601
 30
0.0
 10
11.0476211272
 20
62.068189419
 30
0.0
 10
11.4475372342
 20
62.0565397833
 30
0.0
  0
ELLIPSE
  5
5F8
100
AcDbEntity
  8
0
100
AcDbEllipse
 62
7
  6
CONTINUOUS
 10
10.3124631857
 20
38.3800999819
 30
0.0
 11
0.8082758781
 21
-0.0005599117
 31
0.0
 40
0.8656731532
 41
0.8348617699
 42
1.5125830096
  0
ELLIPSE
  5
5F9
100
AcDbEntity
  8
0
100
AcDbEllipse
 62
7
  6
CONTINUOUS
 10
22.82530067
 20
59.852739657
 30
0.0
 11
17.0874492695
 21
-17.0873937531
 31
0.0
 40
0.0145123526
 41
-1.4965561224
 42
-1.4728372907
  0
ELLIPSE
  5
5FA
100
AcDbEntity
  8
0
100
AcDbEllipse
 62
7
  6
CONTINUOUS
 10
22.8285018271
 20
59.8555881603
 30
0.0
 11
-17.0699826032
 21
17.1028301119
 31
0.0
 40
0.0470872139
 41
-4.6707167874
 42
-4.6469979996
  0
ELLIPSE
  5
5FB
100
AcDbEntity
  8
0
100
AcDbEllipse
 62
7
  6
CONTINUOUS
 10
22.8380915905
 20
59.8584244658
 30
0.0
 11
-17.0336953214
 21
17.1002139087
 31
0.0
 40
0.0797020201
 41
-4.7032203382
 42
-4.6795015504
  0
ELLIPSE
  5
5FC
100
AcDbEntity
  8
0
100
AcDbEllipse
 62
7
  6
CONTINUOUS
 10
22.8540288954
 20
59.8612364281
 30
0.0
 11
-16.9785165427
 21
17.0796597509
 31
0.0
 40
0.1124283381
 41
1.5475290438
 42
1.5702908987
  0
ELLIPSE
  5
5FD
100
AcDbEntity
  8
0
100
AcDbEllipse
 62
7
  6
CONTINUOUS
 10
22.8762454958
 20
59.864012006
 30
0.0
 11
-16.9043878617
 21
17.041311296
 31
0.0
 40
0.1453386433
 41
1.5151654783
 42
1.5359458667
  0
ELLIPSE
  5
5FE
100
AcDbEntity
  8
0
100
AcDbEllipse
 62
7
  6
CONTINUOUS
 10
22.9046462568
 20
59.8667393139
 30
0.0
 11
-16.8112585491
 21
16.9853457448
 31
0.0
 40
0.1785069318
 41
1.4828808183
 42
1.501441163
  0
ELLIPSE
  5
5FF
100
AcDbEntity
  8
0
100
AcDbEllipse
 62
7
  6
CONTINUOUS
 10
22.939109562
 20
59.8694066731
 30
0.0
 11
-16.6990795578
 21
16.9119793756
 31
0.0
 40
0.2120093593
 41
1.4506837814
 42
1.4670514005
  0
ELLIPSE
  5
600
100
AcDbEntity
  8
0
100
AcDbEllipse
 62
7
  6
CONTINUOUS
 10
22.9794878342
 20
59.8720026616
 30
0.0
 11
-16.5677957615
 21
16.8214746574
 31
0.0
 40
0.2459249177
 41
1.4185857732
 42
1.4326574069
  0
ELLIPSE
  5
601
100
AcDbEntity
  8
0
100
AcDbEllipse
 62
7
  6
CONTINUOUS
 10
23.0256081675
 20
59.874516163
 30
0.0
 11
-16.4173355916
 21
16.7141497167
 31
0.0
 40
0.280336161
 41
1.3866016209
 42
1.3982443888
  0
ELLIPSE
  5
602
100
AcDbEntity
  8
0
100
AcDbEllipse
 62
7
  6
CONTINUOUS
 10
23.0772730675
 20
59.876936414
 30
0.0
 11
-16.2475968068
 21
16.5903913203
 31
0.0
 40
0.3153299943
 41
7.6379359281
 42
7.6469846954
  0
ELLIPSE
  5
603
100
AcDbEntity
  8
0
100
AcDbEllipse
 62
7
  6
CONTINUOUS
 10
23.1342612972
 20
59.8792530508
 30
0.0
 11
-16.0584264251
 21
16.450673173
 31
0.0
 40
0.3509985382
 41
7.6062433584
 42
7.6124891328
  0
ELLIPSE
  5
604
100
AcDbEntity
  8
0
100
AcDbEllipse
 62
7
  6
CONTINUOUS
 10
23.1963288242
 20
59.8814561532
 30
0.0
 11
-15.8495916358
 21
16.2955824126
 31
0.0
 40
0.3874400835
 41
1.2915573957
 42
1.2947323576
  0
ELLIPSE
  5
605
100
AcDbEntity
  8
0
100
AcDbEllipse
 62
7
  6
CONTINUOUS
 10
23.2632098659
 20
59.8835362871
 30
0.0
 11
-15.6207363872
 21
16.1258590577
 31
0.0
 40
0.4247601476
 41
7.5434789962
 42
7.5456836775
  0
ELLIPSE
  5
606
100
AcDbEntity
  8
0
100
AcDbEllipse
 62
7
  6
CONTINUOUS
 10
23.3346180273
 20
59.8854845451
 30
0.0
 11
-15.3713144744
 21
15.9424565605
 31
0.0
 40
0.4630726416
 41
1.2293286917
 42
1.2314070891
  0
ELLIPSE
  5
607
100
AcDbEntity
  8
0
100
AcDbEllipse
 62
7
  6
CONTINUOUS
 10
23.4102475278
 20
59.8872925845
 30
0.0
 11
-15.100482572
 21
15.7466379969
 31
0.0
 40
0.5025011442
 41
1.1987491653
 42
1.2007226571
  0
ELLIPSE
  5
608
100
AcDbEntity
  8
0
100
AcDbEllipse
 62
7
  6
CONTINUOUS
 10
23.4897745102
 20
59.888952663
 30
0.0
 11
-14.8069218633
 21
15.5401350492
 31
0.0
 40
0.543180252
 41
1.168680644
 42
1.1705667276
  0
ELLIPSE
  5
609
100
AcDbEntity
  8
0
100
AcDbEllipse
 62
7
  6
CONTINUOUS
 10
23.5728584278
 20
59.8904576718
 30
0.0
 11
-14.4885253954
 21
15.3254233657
 31
0.0
 40
0.5852569076
 41
1.1393114714
 42
1.1411247451
  0
ELLIPSE
  5
60A
100
AcDbEntity
  8
0
100
AcDbEllipse
 62
7
  6
CONTINUOUS
 10
23.6591435025
 20
59.8918011663
 30
0.0
 11
-14.1418160627
 21
15.1062271974
 31
0.0
 40
0.6288914498
 41
1.1109372678
 42
1.1126901361
  0
ELLIPSE
  5
60B
100
AcDbEntity
  8
0
100
AcDbEllipse
 62
7
  6
CONTINUOUS
 10
23.7482602483
 20
59.8929773934
 30
0.0
 11
-13.7607792131
 21
14.8885109351
 31
0.0
 40
0.674257711
 41
1.0840493624
 42
1.0857525564
  0
ELLIPSE
  5
60C
100
AcDbEntity
  8
0
100
AcDbEllipse
 62
7
  6
CONTINUOUS
 10
23.8398270537
 20
59.8939813163
 30
0.0
 11
-13.3342869359
 21
14.6826071361
 31
0.0
 40
0.7215403059
 41
1.0595276826
 42
1.0611906535
  0
ELLIPSE
  5
60D
100
AcDbEntity
  8
0
100
AcDbEllipse
 62
7
  6
CONTINUOUS
 10
23.9334518156
 20
59.8948086361
 30
0.0
 11
-12.8396470541
 21
14.5083439949
 31
0.0
 40
0.7709234302
 41
1.0391163564
 42
1.0407475805
  0
ELLIPSE
  5
60E
100
AcDbEntity
  8
0
100
AcDbEllipse
 62
7
  6
CONTINUOUS
 10
24.0287336183
 20
59.8954558101
 30
0.0
 11
-12.2232954954
 21
14.4095226989
 31
0.0
 40
0.8225504718
 41
1.0268155964
 42
1.0284228191
  0
ELLIPSE
  5
60F
100
AcDbEntity
  8
0
100
AcDbEllipse
 62
7
  6
CONTINUOUS
 10
24.1252644505
 20
59.8959200669
 30
0.0
 11
-11.3249495163
 21
14.5053417385
 31
0.0
 40
0.8763551562
 41
1.0341592766
 42
1.0357497122
  0
ELLIPSE
  5
610
100
AcDbEntity
  8
0
100
AcDbEllipse
 62
7
  6
CONTINUOUS
 10
24.2226309524
 20
59.8961994186
 30
0.0
 11
-9.4001855711
 21
15.2454765514
 31
0.0
 40
0.9309920942
 41
1.1112585149
 42
1.1128390172
  0
ELLIPSE
  5
611
100
AcDbEntity
  8
0
100
AcDbEllipse
 62
7
  6
CONTINUOUS
 10
24.2226309524
 20
59.8092798953
 30
0.0
 11
-14.3534414754
 21
9.843029008
 31
0.0
 40
0.9299961061
 41
0.6931488704
 42
0.6953533011
  0
ELLIPSE
  5
612
100
AcDbEntity
  8
0
100
AcDbEllipse
 62
7
  6
CONTINUOUS
 10
24.1252644505
 20
59.809559247
 30
0.0
 11
-13.8209188343
 21
11.4144149929
 31
0.0
 40
0.8709332632
 41
0.8146793827
 42
0.8225872874
  0
ELLIPSE
  5
613
100
AcDbEntity
  8
0
100
AcDbEllipse
 62
7
  6
CONTINUOUS
 10
24.0287336183
 20
59.8100235039
 30
0.0
 11
-13.8395120736
 21
12.1858334449
 31
0.0
 40
0.8138682146
 41
0.8786079152
 42
0.8903152662
  0
ELLIPSE
  5
614
100
AcDbEntity
  8
0
100
AcDbEllipse
 62
7
  6
CONTINUOUS
 10
23.9334518156
 20
59.8106706779
 30
0.0
 11
-14.0099988524
 21
12.7429586377
 31
0.0
 40
0.7595311013
 41
0.9270424705
 42
0.9425803466
  0
ELLIPSE
  5
615
100
AcDbEntity
  8
0
100
AcDbEllipse
 62
7
  6
CONTINUOUS
 10
23.8398270537
 20
59.8114979977
 30
0.0
 11
-14.2359388135
 21
13.2062352613
 31
0.0
 40
0.7078108123
 41
0.9691600298
 42
0.98845879
  0
ELLIPSE
  5
616
100
AcDbEntity
  8
0
100
AcDbEllipse
 62
7
  6
CONTINUOUS
 10
23.7482602483
 20
59.8125019206
 30
0.0
 11
-14.4828766273
 21
13.6154561023
 31
0.0
 40
0.6584816503
 41
1.0080925321
 42
1.0310624215
  0
ELLIPSE
  5
617
100
AcDbEntity
  8
0
100
AcDbEllipse
 62
7
  6
CONTINUOUS
 10
23.6591435025
 20
59.8136781477
 30
0.0
 11
-14.7353732623
 21
13.9873832787
 31
0.0
 40
0.6113094774
 41
1.0451957491
 42
1.0689145371
  0
ELLIPSE
  5
618
100
AcDbEntity
  8
0
100
AcDbEllipse
 62
7
  6
CONTINUOUS
 10
23.5728584278
 20
59.8150216422
 30
0.0
 11
-14.9853932739
 21
14.3301932622
 31
0.0
 40
0.5660746301
 41
1.0811509428
 42
1.1048697332
  0
ELLIPSE
  5
619
100
AcDbEntity
  8
0
100
AcDbEllipse
 62
7
  6
CONTINUOUS
 10
25.0679739435
 20
59.8150216422
 30
0.0
 11
14.9853932739
 21
14.3301932622
 31
0.0
 40
0.5660746301
 41
-1.1048697305
 42
-1.0811509428
  0
ELLIPSE
  5
61A
100
AcDbEntity
  8
0
100
AcDbEllipse
 62
7
  6
CONTINUOUS
 10
24.9816888688
 20
59.8136781477
 30
0.0
 11
14.7353732623
 21
13.9873832787
 31
0.0
 40
0.6113094774
 41
-1.0689145368
 42
-1.0451957491
  0
ELLIPSE
  5
61B
100
AcDbEntity
  8
0
100
AcDbEllipse
 62
7
  6
CONTINUOUS
 10
24.892572123
 20
59.8125019206
 30
0.0
 11
14.4828766273
 21
13.6154561023
 31
0.0
 40
0.6584816503
 41
-1.0310624215
 42
-1.0080925321
  0
ELLIPSE
  5
61C
100
AcDbEntity
  8
0
100
AcDbEllipse
 62
7
  6
CONTINUOUS
 10
24.8010053176
 20
59.8114979977
 30
0.0
 11
14.2359388135
 21
13.2062352613
 31
0.0
 40
0.7078108123
 41
-0.98845879
 42
-0.9691600298
  0
ELLIPSE
  5
61D
100
AcDbEntity
  8
0
100
AcDbEllipse
 62
7
  6
CONTINUOUS
 10
24.7073805558
 20
59.8106706779
 30
0.0
 11
14.0099988524
 21
12.7429586377
 31
0.0
 40
0.7595311013
 41
-0.9425803466
 42
-0.9270424705
  0
ELLIPSE
  5
61E
100
AcDbEntity
  8
0
100
AcDbEllipse
 62
7
  6
CONTINUOUS
 10
24.6120987531
 20
59.8100235039
 30
0.0
 11
13.8395120736
 21
12.1858334449
 31
0.0
 40
0.8138682146
 41
-0.8903152662
 42
-0.8786079152
  0
ELLIPSE
  5
61F
100
AcDbEntity
  8
0
100
AcDbEllipse
 62
7
  6
CONTINUOUS
 10
24.5155679209
 20
59.809559247
 30
0.0
 11
13.8209188343
 21
11.4144149929
 31
0.0
 40
0.8709332632
 41
-0.8225872728
 42
-0.8146793827
  0
ELLIPSE
  5
620
100
AcDbEntity
  8
0
100
AcDbEllipse
 62
7
  6
CONTINUOUS
 10
24.418201419
 20
59.8092798953
 30
0.0
 11
14.3534414754
 21
9.843029008
 31
0.0
 40
0.9299961061
 41
-0.6953533011
 42
-0.6931488704
  0
ELLIPSE
  5
621
100
AcDbEntity
  8
0
100
AcDbEllipse
 62
7
  6
CONTINUOUS
 10
24.418201419
 20
59.8961994186
 30
0.0
 11
9.4001855711
 21
15.2454765514
 31
0.0
 40
0.9309920942
 41
-1.1128390172
 42
-1.1112585149
  0
ELLIPSE
  5
622
100
AcDbEntity
  8
0
100
AcDbEllipse
 62
7
  6
CONTINUOUS
 10
24.5155679209
 20
59.8959200669
 30
0.0
 11
11.3249495163
 21
14.5053417385
 31
0.0
 40
0.8763551562
 41
-1.0357497122
 42
-1.0341592766
  0
ELLIPSE
  5
623
100
AcDbEntity
  8
0
100
AcDbEllipse
 62
7
  6
CONTINUOUS
 10
24.6120987531
 20
59.8954558101
 30
0.0
 11
12.2232954954
 21
14.4095226989
 31
0.0
 40
0.8225504718
 41
-1.0284228191
 42
-1.0268155964
  0
ELLIPSE
  5
624
100
AcDbEntity
  8
0
100
AcDbEllipse
 62
7
  6
CONTINUOUS
 10
24.7073805558
 20
59.8948086361
 30
0.0
 11
12.8396470541
 21
14.5083439949
 31
0.0
 40
0.7709234302
 41
-1.0407475805
 42
-1.0391163564
  0
ELLIPSE
  5
625
100
AcDbEntity
  8
0
100
AcDbEllipse
 62
7
  6
CONTINUOUS
 10
24.8010053176
 20
59.8939813163
 30
0.0
 11
13.3342869359
 21
14.6826071361
 31
0.0
 40
0.7215403059
 41
-1.0611906535
 42
-1.0595276826
  0
ELLIPSE
  5
626
100
AcDbEntity
  8
0
100
AcDbEllipse
 62
7
  6
CONTINUOUS
 10
24.892572123
 20
59.8929773934
 30
0.0
 11
13.7607792131
 21
14.8885109351
 31
0.0
 40
0.674257711
 41
-1.0857525564
 42
-1.0840493624
  0
ELLIPSE
  5
627
100
AcDbEntity
  8
0
100
AcDbEllipse
 62
7
  6
CONTINUOUS
 10
24.9816888688
 20
59.8918011663
 30
0.0
 11
14.1418160627
 21
15.1062271974
 31
0.0
 40
0.6288914498
 41
-1.1126901361
 42
-1.1109372678
  0
ELLIPSE
  5
628
100
AcDbEntity
  8
0
100
AcDbEllipse
 62
7
  6
CONTINUOUS
 10
25.0679739435
 20
59.8904576718
 30
0.0
 11
14.4885253954
 21
15.3254233657
 31
0.0
 40
0.5852569076
 41
-1.1411247451
 42
-1.1393114714
  0
ELLIPSE
  5
629
100
AcDbEntity
  8
0
100
AcDbEllipse
 62
7
  6
CONTINUOUS
 10
25.1510578611
 20
59.888952663
 30
0.0
 11
14.8069218633
 21
15.5401350492
 31
0.0
 40
0.543180252
 41
-1.1705667276
 42
-1.168680644
  0
ELLIPSE
  5
62A
100
AcDbEntity
  8
0
100
AcDbEllipse
 62
7
  6
CONTINUOUS
 10
25.2305848435
 20
59.8872925845
 30
0.0
 11
15.100482572
 21
15.7466379969
 31
0.0
 40
0.5025011442
 41
-1.2007226571
 42
-1.1987491653
  0
ELLIPSE
  5
62B
100
AcDbEntity
  8
0
100
AcDbEllipse
 62
7
  6
CONTINUOUS
 10
25.306214344
 20
59.8854845451
 30
0.0
 11
15.3713144744
 21
15.9424565605
 31
0.0
 40
0.4630726416
 41
-1.2314070891
 42
-1.2293286917
  0
ELLIPSE
  5
62C
100
AcDbEntity
  8
0
100
AcDbEllipse
 62
7
  6
CONTINUOUS
 10
25.3776225055
 20
59.8835362871
 30
0.0
 11
15.6207363872
 21
16.1258590577
 31
0.0
 40
0.4247601476
 41
5.0206869369
 42
5.0228916181
  0
ELLIPSE
  5
62D
100
AcDbEntity
  8
0
100
AcDbEllipse
 62
7
  6
CONTINUOUS
 10
25.4445035471
 20
59.8814561532
 30
0.0
 11
15.8495916358
 21
16.2955824126
 31
0.0
 40
0.3874400835
 41
-1.2947323576
 42
-1.2915573957
  0
ELLIPSE
  5
62E
100
AcDbEntity
  8
0
100
AcDbEllipse
 62
7
  6
CONTINUOUS
 10
25.5065710742
 20
59.8792530508
 30
0.0
 11
16.0584264251
 21
16.450673173
 31
0.0
 40
0.3509985382
 41
4.9538814816
 42
4.9601272559
  0
ELLIPSE
  5
62F
100
AcDbEntity
  8
0
100
AcDbEllipse
 62
7
  6
CONTINUOUS
 10
25.5635593038
 20
59.876936414
 30
0.0
 11
16.2475968068
 21
16.5903913203
 31
0.0
 40
0.3153299943
 41
4.919385919
 42
4.9284346863
  0
ELLIPSE
  5
630
100
AcDbEntity
  8
0
100
AcDbEllipse
 62
7
  6
CONTINUOUS
 10
25.6152242039
 20
59.874516163
 30
0.0
 11
16.4173355916
 21
16.7141497167
 31
0.0
 40
0.280336161
 41
-1.3982443888
 42
-1.3866016209
  0
ELLIPSE
  5
631
100
AcDbEntity
  8
0
100
AcDbEllipse
 62
7
  6
CONTINUOUS
 10
25.6613445371
 20
59.8720026616
 30
0.0
 11
16.5677957615
 21
16.8214746574
 31
0.0
 40
0.2459249177
 41
-1.4326574069
 42
-1.4185857732
  0
ELLIPSE
  5
632
100
AcDbEntity
  8
0
100
AcDbEllipse
 62
7
  6
CONTINUOUS
 10
25.7017228094
 20
59.8694066731
 30
0.0
 11
16.6990795578
 21
16.9119793756
 31
0.0
 40
0.2120093593
 41
-1.4670514005
 42
-1.4506837814
  0
ELLIPSE
  5
633
100
AcDbEntity
  8
0
100
AcDbEllipse
 62
7
  6
CONTINUOUS
 10
25.7361861146
 20
59.8667393139
 30
0.0
 11
16.8112585491
 21
16.9853457448
 31
0.0
 40
0.1785069318
 41
-1.501441163
 42
-1.4828808183
  0
ELLIPSE
  5
634
100
AcDbEntity
  8
0
100
AcDbEllipse
 62
7
  6
CONTINUOUS
 10
25.7645868756
 20
59.864012006
 30
0.0
 11
16.9043878617
 21
17.041311296
 31
0.0
 40
0.1453386433
 41
-1.5359458667
 42
-1.5151654783
  0
ELLIPSE
  5
635
100
AcDbEntity
  8
0
100
AcDbEllipse
 62
7
  6
CONTINUOUS
 10
25.786803476
 20
59.8612364281
 30
0.0
 11
16.9785165427
 21
17.0796597509
 31
0.0
 40
0.1124283381
 41
-1.5702908987
 42
-1.5475290438
  0
ELLIPSE
  5
636
100
AcDbEntity
  8
0
100
AcDbEllipse
 62
7
  6
CONTINUOUS
 10
25.8027407809
 20
59.8584244658
 30
0.0
 11
17.0336953214
 21
17.1002139087
 31
0.0
 40
0.0797020201
 41
-1.603683757
 42
-1.579964969
  0
ELLIPSE
  5
637
100
AcDbEntity
  8
0
100
AcDbEllipse
 62
7
  6
CONTINUOUS
 10
25.8123305443
 20
59.8555881603
 30
0.0
 11
17.0699826032
 21
17.1028301119
 31
0.0
 40
0.0470872139
 41
-1.6361873078
 42
-1.6124685198
  0
ELLIPSE
  5
638
100
AcDbEntity
  8
0
100
AcDbEllipse
 62
7
  6
CONTINUOUS
 10
25.8155317014
 20
59.852739657
 30
0.0
 11
17.0874492695
 21
17.0873937531
 31
0.0
 40
0.0145123526
 41
-1.6687553629
 42
-1.6450365312
  0
ELLIPSE
  5
639
100
AcDbEntity
  8
0
100
AcDbEllipse
 62
7
  6
CONTINUOUS
 10
24.3204161857
 20
58.3582586299
 30
0.0
 11
17.9970429428
 21
-17.9627140983
 31
0.0
 40
0.0181631561
 41
1.5274013856
 42
1.5498649573
  0
ELLIPSE
  5
63A
100
AcDbEntity
  8
0
100
AcDbEllipse
 62
7
  6
CONTINUOUS
 10
24.3204161857
 20
58.3582586299
 30
0.0
 11
17.9768184657
 21
-17.9080084254
 31
0.0
 40
0.05099589
 41
1.4945820733
 42
1.517045645
  0
ELLIPSE
  5
63B
100
AcDbEntity
  8
0
100
AcDbEllipse
 62
7
  6
CONTINUOUS
 10
24.3204161857
 20
58.3582586299
 30
0.0
 11
17.9375525569
 21
-17.8339170979
 31
0.0
 40
0.0840010734
 41
1.4616975559
 42
1.4841611276
  0
ELLIPSE
  5
63C
100
AcDbEntity
  8
0
100
AcDbEllipse
 62
7
  6
CONTINUOUS
 10
24.3204161857
 20
58.3582586299
 30
0.0
 11
-17.8794085951
 21
17.7403970616
 31
0.0
 40
0.1172512495
 41
-1.7128483673
 42
-1.6903847956
  0
ELLIPSE
  5
63D
100
AcDbEntity
  8
0
100
AcDbEllipse
 62
7
  6
CONTINUOUS
 10
24.3204161857
 20
58.3582586299
 30
0.0
 11
-17.8025819009
 21
17.6274137299
 31
0.0
 40
0.1508210842
 41
-1.7458756256
 42
-1.7234120539
  0
ELLIPSE
  5
63E
100
AcDbEntity
  8
0
100
AcDbEllipse
 62
7
  6
CONTINUOUS
 10
24.3204161857
 20
58.3582586299
 30
0.0
 11
-17.7073049647
 21
17.4949354067
 31
0.0
 40
0.1847880451
 41
-1.7789841019
 42
-1.7565205302
  0
ELLIPSE
  5
63F
100
AcDbEntity
  8
0
100
AcDbEllipse
 62
7
  6
CONTINUOUS
 10
24.3204161857
 20
58.3582586299
 30
0.0
 11
-17.5938540663
 21
17.3429261765
 31
0.0
 40
0.2192331314
 41
-1.8121834635
 42
-1.7897198918
  0
ELLIPSE
  5
640
100
AcDbEntity
  8
0
100
AcDbEllipse
 62
7
  6
CONTINUOUS
 10
24.3204161857
 20
58.3582586299
 30
0.0
 11
-17.4625580045
 21
17.1713364969
 31
0.0
 40
0.2542416686
 41
-1.8454864554
 42
-1.8230228837
  0
ELLIPSE
  5
641
100
AcDbEntity
  8
0
100
AcDbEllipse
 62
7
  6
CONTINUOUS
 10
24.3204161857
 20
58.3582586299
 30
0.0
 11
-17.3138100041
 21
16.9800903448
 31
0.0
 40
0.2899041834
 41
-1.8789098194
 42
-1.8564462476
  0
ELLIPSE
  5
642
100
AcDbEntity
  8
0
100
AcDbEllipse
 62
7
  6
CONTINUOUS
 10
24.3204161857
 20
58.3582586299
 30
0.0
 11
-17.1480844517
 21
16.7690671285
 31
0.0
 40
0.3263173757
 41
-1.9124756266
 42
-1.8900120549
  0
ELLIPSE
  5
643
100
AcDbEntity
  8
0
100
AcDbEllipse
 62
7
  6
CONTINUOUS
 10
24.3204161857
 20
58.3582586299
 30
0.0
 11
-16.9659610985
 21
16.5380754873
 31
0.0
 40
0.3635852061
 41
-1.9462132412
 42
-1.9237496695
  0
ELLIPSE
  5
644
100
AcDbEntity
  8
0
100
AcDbEllipse
 62
7
  6
CONTINUOUS
 10
24.3204161857
 20
58.3582586299
 30
0.0
 11
-16.7681610906
 21
16.2868141845
 31
0.0
 40
0.401820119
 41
-1.9801622781
 42
-1.9576987063
  0
ELLIPSE
  5
645
100
AcDbEntity
  8
0
100
AcDbEllipse
 62
7
  6
CONTINUOUS
 10
24.3204161857
 20
58.3582586299
 30
0.0
 11
-16.555602299
 21
16.0148118049
 31
0.0
 40
0.441144418
 41
-2.0143771833
 42
-1.9919136116
  0
ELLIPSE
  5
646
100
AcDbEntity
  8
0
100
AcDbEllipse
 62
7
  6
CONTINUOUS
 10
24.3204161857
 20
58.3582586299
 30
0.0
 11
-16.3294872905
 21
15.7213303073
 31
0.0
 40
0.4816918057
 41
-2.0489345646
 42
-2.0264709929
  0
ELLIPSE
  5
647
100
AcDbEntity
  8
0
100
AcDbEllipse
 62
7
  6
CONTINUOUS
 10
24.3204161857
 20
58.3582586299
 30
0.0
 11
-16.0914489074
 21
15.4052041226
 31
0.0
 40
0.5236090784
 41
-2.0839453986
 42
-2.0614818269
  0
ELLIPSE
  5
648
100
AcDbEntity
  8
0
100
AcDbEllipse
 62
7
  6
CONTINUOUS
 10
24.3204161857
 20
58.3582586299
 30
0.0
 11
-15.8438028276
 21
15.0645580164
 31
0.0
 40
0.5670579192
 41
-2.119576354
 42
-2.0971127823
  0
ELLIPSE
  5
649
100
AcDbEntity
  8
0
100
AcDbEllipse
 62
7
  6
CONTINUOUS
 10
24.3204161857
 20
58.3582586299
 30
0.0
 11
-15.590011411
 21
14.696281666
 31
0.0
 40
0.612216601
 41
-2.1560892768
 42
-2.1336257051
  0
ELLIPSE
  5
64A
100
AcDbEntity
  8
0
100
AcDbEllipse
 62
7
  6
CONTINUOUS
 10
24.3204161857
 20
58.3582586299
 30
0.0
 11
-15.3355977297
 21
14.2949752725
 31
0.0
 40
0.6592810798
 41
-2.193919815
 42
-2.1714562433
  0
ELLIPSE
  5
64B
100
AcDbEntity
  8
0
100
AcDbEllipse
 62
7
  6
CONTINUOUS
 10
24.3204161857
 20
58.3582586299
 30
0.0
 11
-15.0901153084
 21
13.8506213507
 31
0.0
 40
0.7084639782
 41
-2.2338492413
 42
-2.2113856696
  0
ELLIPSE
  5
64C
100
AcDbEntity
  8
0
100
AcDbEllipse
 62
7
  6
CONTINUOUS
 10
24.3204161857
 20
58.3582586299
 30
0.0
 11
-14.8719238959
 21
13.3427447464
 31
0.0
 40
0.7599867819
 41
-2.2774293966
 42
-2.2549658249
  0
ELLIPSE
  5
64D
100
AcDbEntity
  8
0
100
AcDbEllipse
 62
7
  6
CONTINUOUS
 10
24.3204161857
 20
58.3582586299
 30
0.0
 11
-14.7218171055
 21
12.7228760382
 31
0.0
 40
0.8140479755
 41
-2.3282330408
 42
-2.3057694691
  0
ELLIPSE
  5
64E
100
AcDbEntity
  8
0
100
AcDbEllipse
 62
7
  6
CONTINUOUS
 10
24.3204161857
 20
58.3582586299
 30
0.0
 11
-14.7524806484
 21
11.845075871
 31
0.0
 40
0.870683123
 41
-2.396649798
 42
-2.3741862263
  0
ELLIPSE
  5
64F
100
AcDbEntity
  8
0
100
AcDbEllipse
 62
7
  6
CONTINUOUS
 10
24.3204161857
 20
58.3582586299
 30
0.0
 11
-15.4101270821
 21
10.0146588987
 31
0.0
 40
0.928842608
 41
-2.5291288034
 42
-2.5066652317
  0
ELLIPSE
  5
650
100
AcDbEntity
  8
0
100
AcDbEllipse
 62
7
  6
CONTINUOUS
 10
24.3204161857
 20
58.3582586299
 30
0.0
 11
18.0
 21
0.0
 31
0.0
 40
0.970445427
 41
0.0039283809
 42
0.0263919526
  0
ELLIPSE
  5
651
100
AcDbEntity
  8
0
100
AcDbEllipse
 62
7
  6
CONTINUOUS
 10
24.3204161857
 20
58.3582586299
 30
0.0
 11
0.0
 21
18.516704839
 31
0.0
 40
0.9720952057
 41
-1.5529631959
 42
-1.5444043742
  0
ELLIPSE
  5
652
100
AcDbEntity
  8
0
100
AcDbEllipse
 62
7
  6
CONTINUOUS
 10
24.3204161857
 20
58.3582586299
 30
0.0
 11
-10.2899960367
 21
15.833804047
 31
0.0
 40
0.932735439
 41
-2.0889880747
 42
-2.0874899965
  0
ELLIPSE
  5
653
100
AcDbEntity
  8
0
100
AcDbEllipse
 62
7
  6
CONTINUOUS
 10
24.3204161857
 20
58.3582586299
 30
0.0
 11
-12.1506609999
 21
15.1330724445
 31
0.0
 40
0.8775557246
 41
-2.156026648
 42
-2.154519155
  0
ELLIPSE
  5
654
100
AcDbEntity
  8
0
100
AcDbEllipse
 62
7
  6
CONTINUOUS
 10
24.3204161857
 20
58.3582586299
 30
0.0
 11
-13.0301080657
 21
15.0773195645
 31
0.0
 40
0.823646727
 41
-2.1590094694
 42
-2.1574860653
  0
ELLIPSE
  5
655
100
AcDbEntity
  8
0
100
AcDbEllipse
 62
7
  6
CONTINUOUS
 10
24.3204161857
 20
58.3582586299
 30
0.0
 11
-13.6439241114
 21
15.2076206869
 31
0.0
 40
0.7720254444
 41
-2.1443860156
 42
-2.1428398625
  0
ELLIPSE
  5
656
100
AcDbEntity
  8
0
100
AcDbEllipse
 62
7
  6
CONTINUOUS
 10
24.3204161857
 20
58.3582586299
 30
0.0
 11
-14.1424679694
 21
15.40807932
 31
0.0
 40
0.722679732
 41
-2.1225464139
 42
-2.1209701708
  0
ELLIPSE
  5
657
100
AcDbEntity
  8
0
100
AcDbEllipse
 62
7
  6
CONTINUOUS
 10
24.3204161857
 20
58.3582586299
 30
0.0
 11
-14.5756956634
 21
15.636753549
 31
0.0
 40
0.675439471
 41
-2.0970641173
 42
-2.0954497502
  0
ELLIPSE
  5
658
100
AcDbEntity
  8
0
100
AcDbEllipse
 62
7
  6
CONTINUOUS
 10
24.3204161857
 20
58.3582586299
 30
0.0
 11
-14.9647256689
 21
15.8747803861
 31
0.0
 40
0.6301094336
 41
-2.0694918904
 42
-2.0678304414
  0
ELLIPSE
  5
659
100
AcDbEntity
  8
0
100
AcDbEllipse
 62
7
  6
CONTINUOUS
 10
24.3204161857
 20
58.3582586299
 30
0.0
 11
-15.3199034393
 21
16.1123565104
 31
0.0
 40
0.5865000116
 41
-2.040612219
 42
-2.0388935173
  0
ELLIPSE
  5
65A
100
AcDbEntity
  8
0
100
AcDbEllipse
 62
7
  6
CONTINUOUS
 10
24.3204161857
 20
58.3582586299
 30
0.0
 11
-15.646817289
 21
16.3438250454
 31
0.0
 40
0.5444350976
 41
-2.0108623372
 42
-2.0090746257
  0
ELLIPSE
  5
65B
100
AcDbEntity
  8
0
100
AcDbEllipse
 62
7
  6
CONTINUOUS
 10
24.3204161857
 20
58.3582586299
 30
0.0
 11
15.646817289
 21
16.3438250454
 31
0.0
 40
0.5444350976
 41
-4.2741106815
 42
-4.27232297
  0
ELLIPSE
  5
65C
100
AcDbEntity
  8
0
100
AcDbEllipse
 62
7
  6
CONTINUOUS
 10
24.3204161857
 20
58.3582586299
 30
0.0
 11
15.3199034393
 21
16.1123565104
 31
0.0
 40
0.5865000116
 41
-4.2442917899
 42
-4.2425730881
  0
ELLIPSE
  5
65D
100
AcDbEntity
  8
0
100
AcDbEllipse
 62
7
  6
CONTINUOUS
 10
24.3204161857
 20
58.3582586299
 30
0.0
 11
14.9647256689
 21
15.8747803861
 31
0.0
 40
0.6301094336
 41
-4.2153548658
 42
-4.2136934168
  0
ELLIPSE
  5
65E
100
AcDbEntity
  8
0
100
AcDbEllipse
 62
7
  6
CONTINUOUS
 10
24.3204161857
 20
58.3582586299
 30
0.0
 11
14.5756956634
 21
15.636753549
 31
0.0
 40
0.675439471
 41
-4.187735557
 42
-4.1861211898
  0
ELLIPSE
  5
65F
100
AcDbEntity
  8
0
100
AcDbEllipse
 62
7
  6
CONTINUOUS
 10
24.3204161857
 20
58.3582586299
 30
0.0
 11
14.1424679694
 21
15.40807932
 31
0.0
 40
0.722679732
 41
-4.1622151364
 42
-4.1606388932
  0
ELLIPSE
  5
660
100
AcDbEntity
  8
0
100
AcDbEllipse
 62
7
  6
CONTINUOUS
 10
24.3204161857
 20
58.3582586299
 30
0.0
 11
13.6439241114
 21
15.2076206869
 31
0.0
 40
0.7720254444
 41
-4.1403454447
 42
-4.1387992916
  0
ELLIPSE
  5
661
100
AcDbEntity
  8
0
100
AcDbEllipse
 62
7
  6
CONTINUOUS
 10
24.3204161857
 20
58.3582586299
 30
0.0
 11
13.0301080657
 21
15.0773195645
 31
0.0
 40
0.823646727
 41
-4.1256992419
 42
-4.1241758378
  0
ELLIPSE
  5
662
100
AcDbEntity
  8
0
100
AcDbEllipse
 62
7
  6
CONTINUOUS
 10
24.3204161857
 20
58.3582586299
 30
0.0
 11
12.1506609999
 21
15.1330724445
 31
0.0
 40
0.8775557246
 41
-4.1286661522
 42
-4.1271586592
  0
ELLIPSE
  5
663
100
AcDbEntity
  8
0
100
AcDbEllipse
 62
7
  6
CONTINUOUS
 10
24.3204161857
 20
58.3582586299
 30
0.0
 11
10.2899960367
 21
15.833804047
 31
0.0
 40
0.932735439
 41
-4.1956953106
 42
-4.1941972325
  0
ELLIPSE
  5
664
100
AcDbEntity
  8
0
100
AcDbEllipse
 62
7
  6
CONTINUOUS
 10
24.3204161857
 20
58.3582586299
 30
0.0
 11
0.0
 21
18.516704839
 31
0.0
 40
0.9720952057
 41
1.5444043742
 42
1.5529631959
  0
ELLIPSE
  5
665
100
AcDbEntity
  8
0
100
AcDbEllipse
 62
7
  6
CONTINUOUS
 10
24.3204161857
 20
58.3582586299
 30
0.0
 11
18.0
 21
-0.0
 31
0.0
 40
0.970445427
 41
3.115200701
 42
3.1376642725
  0
ELLIPSE
  5
666
100
AcDbEntity
  8
0
100
AcDbEllipse
 62
7
  6
CONTINUOUS
 10
24.3204161857
 20
58.3582586299
 30
0.0
 11
15.4101270821
 21
10.0146588987
 31
0.0
 40
0.928842608
 41
-3.7765200755
 42
-3.754056504
  0
ELLIPSE
  5
667
100
AcDbEntity
  8
0
100
AcDbEllipse
 62
7
  6
CONTINUOUS
 10
24.3204161857
 20
58.3582586299
 30
0.0
 11
14.7524806484
 21
11.845075871
 31
0.0
 40
0.870683123
 41
-3.9089990809
 42
-3.8865355094
  0
ELLIPSE
  5
668
100
AcDbEntity
  8
0
100
AcDbEllipse
 62
7
  6
CONTINUOUS
 10
24.3204161857
 20
58.3582586299
 30
0.0
 11
14.7218171055
 21
12.7228760382
 31
0.0
 40
0.8140479755
 41
-3.9774158381
 42
-3.9549522666
  0
ELLIPSE
  5
669
100
AcDbEntity
  8
0
100
AcDbEllipse
 62
7
  6
CONTINUOUS
 10
24.3204161857
 20
58.3582586299
 30
0.0
 11
14.8719238959
 21
13.3427447464
 31
0.0
 40
0.7599867819
 41
-4.0282194823
 42
-4.0057559108
  0
ELLIPSE
  5
66A
100
AcDbEntity
  8
0
100
AcDbEllipse
 62
7
  6
CONTINUOUS
 10
24.3204161857
 20
58.3582586299
 30
0.0
 11
15.0901153084
 21
13.8506213507
 31
0.0
 40
0.7084639782
 41
-4.0717996376
 42
-4.0493360661
  0
ELLIPSE
  5
66B
100
AcDbEntity
  8
0
100
AcDbEllipse
 62
7
  6
CONTINUOUS
 10
24.3204161857
 20
58.3582586299
 30
0.0
 11
15.3355977297
 21
14.2949752725
 31
0.0
 40
0.6592810798
 41
-4.1117290639
 42
-4.0892654924
  0
ELLIPSE
  5
66C
100
AcDbEntity
  8
0
100
AcDbEllipse
 62
7
  6
CONTINUOUS
 10
24.3204161857
 20
58.3582586299
 30
0.0
 11
15.590011411
 21
14.696281666
 31
0.0
 40
0.612216601
 41
-4.1495596021
 42
-4.1270960306
  0
ELLIPSE
  5
66D
100
AcDbEntity
  8
0
100
AcDbEllipse
 62
7
  6
CONTINUOUS
 10
24.3204161857
 20
58.3582586299
 30
0.0
 11
15.8438028276
 21
15.0645580164
 31
0.0
 40
0.5670579192
 41
-4.1860725249
 42
-4.1636089534
  0
ELLIPSE
  5
66E
100
AcDbEntity
  8
0
100
AcDbEllipse
 62
7
  6
CONTINUOUS
 10
24.3204161857
 20
58.3582586299
 30
0.0
 11
16.0914489074
 21
15.4052041226
 31
0.0
 40
0.5236090784
 41
-4.2217034803
 42
-4.1992399088
  0
ELLIPSE
  5
66F
100
AcDbEntity
  8
0
100
AcDbEllipse
 62
7
  6
CONTINUOUS
 10
24.3204161857
 20
58.3582586299
 30
0.0
 11
16.3294872905
 21
15.7213303073
 31
0.0
 40
0.4816918057
 41
-4.2567143142
 42
-4.2342507428
  0
ELLIPSE
  5
670
100
AcDbEntity
  8
0
100
AcDbEllipse
 62
7
  6
CONTINUOUS
 10
24.3204161857
 20
58.3582586299
 30
0.0
 11
16.555602299
 21
16.0148118049
 31
0.0
 40
0.441144418
 41
-4.2912716956
 42
-4.2688081241
  0
ELLIPSE
  5
671
100
AcDbEntity
  8
0
100
AcDbEllipse
 62
7
  6
CONTINUOUS
 10
24.3204161857
 20
58.3582586299
 30
0.0
 11
16.7681610906
 21
16.2868141845
 31
0.0
 40
0.401820119
 41
-4.3254866008
 42
-4.3030230293
  0
ELLIPSE
  5
672
100
AcDbEntity
  8
0
100
AcDbEllipse
 62
7
  6
CONTINUOUS
 10
24.3204161857
 20
58.3582586299
 30
0.0
 11
16.9659610985
 21
16.5380754873
 31
0.0
 40
0.3635852061
 41
-4.3594356377
 42
-4.3369720662
  0
ELLIPSE
  5
673
100
AcDbEntity
  8
0
100
AcDbEllipse
 62
7
  6
CONTINUOUS
 10
24.3204161857
 20
58.3582586299
 30
0.0
 11
17.1480844517
 21
16.7690671285
 31
0.0
 40
0.3263173757
 41
-4.3931732523
 42
-4.3707096808
  0
ELLIPSE
  5
674
100
AcDbEntity
  8
0
100
AcDbEllipse
 62
7
  6
CONTINUOUS
 10
24.3204161857
 20
58.3582586299
 30
0.0
 11
17.3138100041
 21
16.9800903448
 31
0.0
 40
0.2899041834
 41
-4.4267390595
 42
-4.404275488
  0
ELLIPSE
  5
675
100
AcDbEntity
  8
0
100
AcDbEllipse
 62
7
  6
CONTINUOUS
 10
24.3204161857
 20
58.3582586299
 30
0.0
 11
17.4625580045
 21
17.1713364969
 31
0.0
 40
0.2542416686
 41
-4.4601624235
 42
-4.437698852
  0
ELLIPSE
  5
676
100
AcDbEntity
  8
0
100
AcDbEllipse
 62
7
  6
CONTINUOUS
 10
24.3204161857
 20
58.3582586299
 30
0.0
 11
17.5938540663
 21
17.3429261765
 31
0.0
 40
0.2192331314
 41
-4.4934654154
 42
-4.4710018439
  0
ELLIPSE
  5
677
100
AcDbEntity
  8
0
100
AcDbEllipse
 62
7
  6
CONTINUOUS
 10
24.3204161857
 20
58.3582586299
 30
0.0
 11
17.7073049647
 21
17.4949354067
 31
0.0
 40
0.1847880451
 41
-4.526664777
 42
-4.5042012055
  0
ELLIPSE
  5
678
100
AcDbEntity
  8
0
100
AcDbEllipse
 62
7
  6
CONTINUOUS
 10
24.3204161857
 20
58.3582586299
 30
0.0
 11
17.8025819009
 21
17.6274137299
 31
0.0
 40
0.1508210842
 41
-4.5597732533
 42
-4.5373096818
  0
ELLIPSE
  5
679
100
AcDbEntity
  8
0
100
AcDbEllipse
 62
7
  6
CONTINUOUS
 10
24.3204161857
 20
58.3582586299
 30
0.0
 11
17.8794085951
 21
17.7403970616
 31
0.0
 40
0.1172512495
 41
-4.5928005116
 42
-4.5703369401
  0
ELLIPSE
  5
67A
100
AcDbEntity
  8
0
100
AcDbEllipse
 62
7
  6
CONTINUOUS
 10
24.3204161857
 20
58.3582586299
 30
0.0
 11
17.9375525569
 21
17.8339170979
 31
0.0
 40
0.0840010734
 41
1.657431526
 42
1.6798950974
  0
ELLIPSE
  5
67B
100
AcDbEntity
  8
0
100
AcDbEllipse
 62
7
  6
CONTINUOUS
 10
24.3204161857
 20
58.3582586299
 30
0.0
 11
17.9768184657
 21
17.9080084254
 31
0.0
 40
0.05099589
 41
1.6245470086
 42
1.6470105801
  0
ELLIPSE
  5
67C
100
AcDbEntity
  8
0
100
AcDbEllipse
 62
7
  6
CONTINUOUS
 10
24.3204161857
 20
58.3582586299
 30
0.0
 11
17.9970429428
 21
17.9627140983
 31
0.0
 40
0.0181631561
 41
1.5917276963
 42
1.6141912678
  0
ELLIPSE
  5
67D
100
AcDbEntity
  8
0
100
AcDbEllipse
 62
7
  6
CONTINUOUS
 10
23.8398270537
 20
59.8939813163
 30
0.0
 11
-13.3342869359
 21
14.6826071361
 31
0.0
 40
0.7215403059
 41
4.0619557897
 42
4.0816625008
  0
ELLIPSE
  5
67E
100
AcDbEntity
  8
0
100
AcDbEllipse
 62
7
  6
CONTINUOUS
 10
24.7073805558
 20
59.8948086361
 30
0.0
 11
12.8396470541
 21
14.5083439949
 31
0.0
 40
0.7709234302
 41
2.2219341326
 42
2.2380991479
  0
ELLIPSE
  5
67F
100
AcDbEntity
  8
0
100
AcDbEllipse
 62
7
  6
CONTINUOUS
 10
23.9334518156
 20
59.8948086361
 30
0.0
 11
-12.8396470541
 21
14.5083439949
 31
0.0
 40
0.7709234302
 41
4.0450861592
 42
4.0612511746
  0
ELLIPSE
  5
680
100
AcDbEntity
  8
0
100
AcDbEllipse
 62
7
  6
CONTINUOUS
 10
24.0287336183
 20
59.8954558101
 30
0.0
 11
-12.2232954954
 21
14.4095226989
 31
0.0
 40
0.8225504718
 41
-2.2468048288
 42
-2.2342348926
  0
ELLIPSE
  5
681
100
AcDbEntity
  8
0
100
AcDbEllipse
 62
7
  6
CONTINUOUS
 10
24.8010053176
 20
59.8939813163
 30
0.0
 11
13.3342869359
 21
14.6826071361
 31
0.0
 40
0.7215403059
 41
2.2015228063
 42
2.2212295175
  0
ELLIPSE
  5
682
100
AcDbEntity
  8
0
100
AcDbEllipse
 62
7
  6
CONTINUOUS
 10
24.1252644505
 20
59.8959200669
 30
0.0
 11
-11.3249495163
 21
14.5053417385
 31
0.0
 40
0.8763551562
 41
4.0473617594
 42
4.0562940949
  0
ELLIPSE
  5
683
100
AcDbEntity
  8
0
100
AcDbEllipse
 62
7
  6
CONTINUOUS
 10
24.892572123
 20
59.8929773934
 30
0.0
 11
13.7607792131
 21
14.8885109351
 31
0.0
 40
0.674257711
 41
2.1770011265
 42
2.200184478
  0
ELLIPSE
  5
684
100
AcDbEntity
  8
0
100
AcDbEllipse
 62
7
  6
CONTINUOUS
 10
24.2226309524
 20
59.8961994186
 30
0.0
 11
-9.4001855711
 21
15.2454765514
 31
0.0
 40
0.9309920942
 41
-2.1550562622
 42
-2.1497919741
  0
ELLIPSE
  5
685
100
AcDbEntity
  8
0
100
AcDbEllipse
 62
7
  6
CONTINUOUS
 10
24.3204161857
 20
59.896292669
 30
0.0
 11
-0.0
 21
17.5798095107
 31
0.0
 40
0.9683677215
 41
-1.6320964668
 42
-1.6305252445
  0
ELLIPSE
  5
686
100
AcDbEntity
  8
0
100
AcDbEllipse
 62
7
  6
CONTINUOUS
 10
24.9816888688
 20
59.8918011663
 30
0.0
 11
14.1418160627
 21
15.1062271974
 31
0.0
 40
0.6288914498
 41
2.1501132212
 42
2.1738320089
  0
ELLIPSE
  5
687
100
AcDbEntity
  8
0
100
AcDbEllipse
 62
7
  6
CONTINUOUS
 10
25.0679739435
 20
59.8904576718
 30
0.0
 11
14.4885253954
 21
15.3254233657
 31
0.0
 40
0.5852569076
 41
-4.1517340528
 42
-4.1377275026
  0
ELLIPSE
  5
688
100
AcDbEntity
  8
0
100
AcDbEllipse
 62
7
  6
CONTINUOUS
 10
24.3204161857
 20
58.3582586299
 30
0.0
 11
17.9980902144
 21
17.9980902144
 31
0.0
 40
0.0145681905
 41
-1.5814351057
 42
-1.5589715342
  0
ELLIPSE
  5
689
100
AcDbEntity
  8
0
100
AcDbEllipse
 62
7
  6
CONTINUOUS
 10
24.3204161857
 20
58.3582586299
 30
0.0
 11
17.9798482899
 21
18.0142098799
 31
0.0
 40
0.0472683453
 41
-1.5487414208
 42
-1.5262778493
  0
ELLIPSE
  5
68A
100
AcDbEntity
  8
0
100
AcDbEllipse
 62
7
  6
CONTINUOUS
 10
24.3204161857
 20
58.3582586299
 30
0.0
 11
17.9422253564
 21
18.0111668724
 31
0.0
 40
0.0800072363
 41
-1.5161108862
 42
-1.4936473147
  0
ELLIPSE
  5
68B
100
AcDbEntity
  8
0
100
AcDbEllipse
 62
7
  6
CONTINUOUS
 10
24.3204161857
 20
58.3582586299
 30
0.0
 11
17.8851461177
 21
17.9890792759
 31
0.0
 40
0.1128551192
 41
-1.4835455566
 42
-1.4610819851
  0
ELLIPSE
  5
68C
100
AcDbEntity
  8
0
100
AcDbEllipse
 62
7
  6
CONTINUOUS
 10
24.3204161857
 20
58.3582586299
 30
0.0
 11
17.8085478034
 21
17.9480933576
 31
0.0
 40
0.1458831765
 41
-1.4510489793
 42
-1.4285854078
  0
ELLIPSE
  5
68D
100
AcDbEntity
  8
0
100
AcDbEllipse
 62
7
  6
CONTINUOUS
 10
24.3204161857
 20
58.3582586299
 30
0.0
 11
-10.2899960367
 21
15.833804047
 31
0.0
 40
0.932735439
 41
1.0013187518
 42
1.0237823236
  0
ELLIPSE
  5
68E
100
AcDbEntity
  8
0
100
AcDbEllipse
 62
7
  6
CONTINUOUS
 10
24.3204161857
 20
58.3582586299
 30
0.0
 11
17.7123755347
 21
17.8883879932
 31
0.0
 40
0.1791641345
 41
-1.4186263907
 42
-1.3961628192
  0
ELLIPSE
  5
68F
100
AcDbEntity
  8
0
100
AcDbEllipse
 62
7
  6
CONTINUOUS
 10
24.3204161857
 20
58.3582586299
 30
0.0
 11
-12.1506609999
 21
15.1330724445
 31
0.0
 40
0.8775557246
 41
0.9342895934
 42
0.9567531651
  0
ELLIPSE
  5
690
100
AcDbEntity
  8
0
100
AcDbEllipse
 62
7
  6
CONTINUOUS
 10
24.3204161857
 20
58.3582586299
 30
0.0
 11
17.5965766472
 21
17.8101800197
 31
0.0
 40
0.2127729058
 41
-1.38628502
 42
-1.3638214485
  0
ELLIPSE
  5
691
100
AcDbEntity
  8
0
100
AcDbEllipse
 62
7
  6
CONTINUOUS
 10
24.3204161857
 20
58.3582586299
 30
0.0
 11
-13.0301080657
 21
15.0773195645
 31
0.0
 40
0.823646727
 41
0.9313226831
 42
0.9537862548
  0
ELLIPSE
  5
692
100
AcDbEntity
  8
0
100
AcDbEllipse
 62
7
  6
CONTINUOUS
 10
24.3204161857
 20
58.3582586299
 30
0.0
 11
-13.6439241114
 21
15.2076206869
 31
0.0
 40
0.7720254444
 41
0.9459688859
 42
0.9684324576
  0
ELLIPSE
  5
693
100
AcDbEntity
  8
0
100
AcDbEllipse
 62
7
  6
CONTINUOUS
 10
24.3204161857
 20
58.3582586299
 30
0.0
 11
17.461093426
 21
17.7137310306
 31
0.0
 40
0.2467872713
 41
-1.3540345347
 42
-1.3315709632
  0
ELLIPSE
  5
694
100
AcDbEntity
  8
0
100
AcDbEllipse
 62
7
  6
CONTINUOUS
 10
24.3204161857
 20
58.3582586299
 30
0.0
 11
-14.1424679694
 21
15.40807932
 31
0.0
 40
0.722679732
 41
0.9678385776
 42
0.9903021493
  0
ELLIPSE
  5
695
100
AcDbEntity
  8
0
100
AcDbEllipse
 62
7
  6
CONTINUOUS
 10
24.3204161857
 20
58.3582586299
 30
0.0
 11
17.3058534685
 21
17.5993563497
 31
0.0
 40
0.2812886128
 41
-1.3218876796
 42
-1.2994241081
  0
ELLIPSE
  5
696
100
AcDbEntity
  8
0
100
AcDbEllipse
 62
7
  6
CONTINUOUS
 10
24.3204161857
 20
58.3582586299
 30
0.0
 11
-14.5756956634
 21
15.636753549
 31
0.0
 40
0.675439471
 41
0.9933589982
 42
1.0158225699
  0
ELLIPSE
  5
697
100
AcDbEntity
  8
0
100
AcDbEllipse
 62
7
  6
CONTINUOUS
 10
24.3204161857
 20
58.3582586299
 30
0.0
 11
-14.9647256689
 21
15.8747803861
 31
0.0
 40
0.6301094336
 41
1.020978307
 42
1.0434418787
  0
ELLIPSE
  5
698
100
AcDbEntity
  8
0
100
AcDbEllipse
 62
7
  6
CONTINUOUS
 10
24.3204161857
 20
58.3582586299
 30
0.0
 11
17.1307564907
 21
17.4674372801
 31
0.0
 40
0.3163627096
 41
-1.2898611966
 42
-1.2673976251
  0
ELLIPSE
  5
699
100
AcDbEntity
  8
0
100
AcDbEllipse
 62
7
  6
CONTINUOUS
 10
24.3204161857
 20
58.3582586299
 30
0.0
 11
-15.3199034393
 21
16.1123565104
 31
0.0
 40
0.5865000116
 41
1.0499152311
 42
1.0723788028
  0
ELLIPSE
  5
69A
100
AcDbEntity
  8
0
100
AcDbEllipse
 62
7
  6
CONTINUOUS
 10
24.3204161857
 20
58.3582586299
 30
0.0
 11
16.9356557387
 21
17.3184383262
 31
0.0
 40
0.3521006151
 41
-1.2579771569
 42
-1.2355135854
  0
ELLIPSE
  5
69B
100
AcDbEntity
  8
0
100
AcDbEllipse
 62
7
  6
CONTINUOUS
 10
24.3204161857
 20
58.3582586299
 30
0.0
 11
-15.646817289
 21
16.3438250454
 31
0.0
 40
0.5444350976
 41
1.0797341227
 42
1.1021976944
  0
ELLIPSE
  5
69C
100
AcDbEntity
  8
0
100
AcDbEllipse
 62
7
  6
CONTINUOUS
 10
24.3204161857
 20
58.3582586299
 30
0.0
 11
-15.9486967408
 21
16.5656490664
 31
0.0
 40
0.5037534478
 41
1.1101731356
 42
1.1326367073
  0
ELLIPSE
  5
69D
100
AcDbEntity
  8
0
100
AcDbEllipse
 62
7
  6
CONTINUOUS
 10
24.3204161857
 20
58.3582586299
 30
0.0
 11
16.7203310383
 21
17.1529321031
 31
0.0
 40
0.388599626
 41
-1.2262649245
 42
-1.203801353
  0
ELLIPSE
  5
69E
100
AcDbEntity
  8
0
100
AcDbEllipse
 62
7
  6
CONTINUOUS
 10
24.3204161857
 20
58.3582586299
 30
0.0
 11
-16.2274986716
 21
16.7754712067
 31
0.0
 40
0.4643079693
 41
1.1410656012
 42
1.163529173
  0
ELLIPSE
  5
69F
100
AcDbEntity
  8
0
100
AcDbEllipse
 62
7
  6
CONTINUOUS
 10
24.3204161857
 20
58.3582586299
 30
0.0
 11
16.4844485476
 21
16.9716364173
 31
0.0
 40
0.4259643622
 41
-1.1947641144
 42
-1.1723005429
  0
ELLIPSE
  5
6A0
100
AcDbEntity
  8
0
100
AcDbEllipse
 62
7
  6
CONTINUOUS
 10
24.3204161857
 20
58.3582586299
 30
0.0
 11
-16.4844485476
 21
16.9716364173
 31
0.0
 40
0.4259643622
 41
1.1723005429
 42
1.1947641147
  0
ELLIPSE
  5
6A1
100
AcDbEntity
  8
0
100
AcDbEllipse
 62
7
  6
CONTINUOUS
 10
24.3204161857
 20
58.3582586299
 30
0.0
 11
-16.7203310383
 21
17.1529321031
 31
0.0
 40
0.388599626
 41
1.203801353
 42
1.2262649247
  0
ELLIPSE
  5
6A2
100
AcDbEntity
  8
0
100
AcDbEllipse
 62
7
  6
CONTINUOUS
 10
24.3204161857
 20
58.3582586299
 30
0.0
 11
16.2274986716
 21
16.7754712067
 31
0.0
 40
0.4643079693
 41
-1.1635291727
 42
-1.1410656012
  0
ELLIPSE
  5
6A3
100
AcDbEntity
  8
0
100
AcDbEllipse
 62
7
  6
CONTINUOUS
 10
24.3204161857
 20
58.3582586299
 30
0.0
 11
-16.9356557387
 21
17.3184383262
 31
0.0
 40
0.3521006151
 41
1.2355135854
 42
1.2579771571
  0
ELLIPSE
  5
6A4
100
AcDbEntity
  8
0
100
AcDbEllipse
 62
7
  6
CONTINUOUS
 10
24.3204161857
 20
58.3582586299
 30
0.0
 11
15.9486967408
 21
16.5656490664
 31
0.0
 40
0.5037534478
 41
-1.1326367071
 42
-1.1101731356
  0
ELLIPSE
  5
6A5
100
AcDbEntity
  8
0
100
AcDbEllipse
 62
7
  6
CONTINUOUS
 10
24.3204161857
 20
58.3582586299
 30
0.0
 11
-17.1307564907
 21
17.4674372801
 31
0.0
 40
0.3163627096
 41
1.2673976251
 42
1.2898611968
  0
ELLIPSE
  5
6A6
100
AcDbEntity
  8
0
100
AcDbEllipse
 62
7
  6
CONTINUOUS
 10
24.3204161857
 20
58.3582586299
 30
0.0
 11
-17.3058534685
 21
17.5993563497
 31
0.0
 40
0.2812886128
 41
1.2994241081
 42
1.3218876798
  0
ELLIPSE
  5
6A7
100
AcDbEntity
  8
0
100
AcDbEllipse
 62
7
  6
CONTINUOUS
 10
24.3204161857
 20
58.3582586299
 30
0.0
 11
15.646817289
 21
16.3438250454
 31
0.0
 40
0.5444350976
 41
-1.1021976942
 42
-1.0797341227
  0
ELLIPSE
  5
6A8
100
AcDbEntity
  8
0
100
AcDbEllipse
 62
7
  6
CONTINUOUS
 10
24.3204161857
 20
58.3582586299
 30
0.0
 11
-17.461093426
 21
17.7137310306
 31
0.0
 40
0.2467872713
 41
1.3315709632
 42
1.3540345349
  0
ELLIPSE
  5
6A9
100
AcDbEntity
  8
0
100
AcDbEllipse
 62
7
  6
CONTINUOUS
 10
24.3204161857
 20
58.3582586299
 30
0.0
 11
15.3199034393
 21
16.1123565104
 31
0.0
 40
0.5865000116
 41
-1.0723788026
 42
-1.0499152311
  0
ELLIPSE
  5
6AA
100
AcDbEntity
  8
0
100
AcDbEllipse
 62
7
  6
CONTINUOUS
 10
24.3204161857
 20
58.3582586299
 30
0.0
 11
-17.5965766472
 21
17.8101800197
 31
0.0
 40
0.2127729058
 41
1.3638214485
 42
1.3862850202
  0
ELLIPSE
  5
6AB
100
AcDbEntity
  8
0
100
AcDbEllipse
 62
7
  6
CONTINUOUS
 10
24.3204161857
 20
58.3582586299
 30
0.0
 11
-17.7123755347
 21
17.8883879932
 31
0.0
 40
0.1791641345
 41
1.3961628192
 42
1.4186263909
  0
ELLIPSE
  5
6AC
100
AcDbEntity
  8
0
100
AcDbEllipse
 62
7
  6
CONTINUOUS
 10
24.3204161857
 20
58.3582586299
 30
0.0
 11
14.9647256689
 21
15.8747803861
 31
0.0
 40
0.6301094336
 41
-1.0434418785
 42
-1.020978307
  0
ELLIPSE
  5
6AD
100
AcDbEntity
  8
0
100
AcDbEllipse
 62
7
  6
CONTINUOUS
 10
24.3204161857
 20
58.3582586299
 30
0.0
 11
-17.8085478034
 21
17.9480933576
 31
0.0
 40
0.1458831765
 41
1.4285854078
 42
1.4510489795
  0
ELLIPSE
  5
6AE
100
AcDbEntity
  8
0
100
AcDbEllipse
 62
7
  6
CONTINUOUS
 10
24.3204161857
 20
58.3582586299
 30
0.0
 11
14.5756956634
 21
15.636753549
 31
0.0
 40
0.675439471
 41
-1.0158225697
 42
-0.9933589982
  0
ELLIPSE
  5
6AF
100
AcDbEntity
  8
0
100
AcDbEllipse
 62
7
  6
CONTINUOUS
 10
24.3204161857
 20
58.3582586299
 30
0.0
 11
-17.8851461177
 21
17.9890792759
 31
0.0
 40
0.1128551192
 41
1.4610819851
 42
1.4835455568
  0
ELLIPSE
  5
6B0
100
AcDbEntity
  8
0
100
AcDbEllipse
 62
7
  6
CONTINUOUS
 10
24.3204161857
 20
58.3582586299
 30
0.0
 11
-17.9422253564
 21
18.0111668724
 31
0.0
 40
0.0800072363
 41
1.4936473147
 42
1.5161108864
  0
ELLIPSE
  5
6B1
100
AcDbEntity
  8
0
100
AcDbEllipse
 62
7
  6
CONTINUOUS
 10
24.3204161857
 20
58.3582586299
 30
0.0
 11
14.1424679694
 21
15.40807932
 31
0.0
 40
0.722679732
 41
-0.9903021491
 42
-0.9678385776
  0
ELLIPSE
  5
6B2
100
AcDbEntity
  8
0
100
AcDbEllipse
 62
7
  6
CONTINUOUS
 10
24.3204161857
 20
58.3582586299
 30
0.0
 11
-17.9798482899
 21
18.0142098799
 31
0.0
 40
0.0472683453
 41
1.5262778493
 42
1.5487414211
  0
ELLIPSE
  5
6B3
100
AcDbEntity
  8
0
100
AcDbEllipse
 62
7
  6
CONTINUOUS
 10
24.3204161857
 20
58.3582586299
 30
0.0
 11
13.6439241114
 21
15.2076206869
 31
0.0
 40
0.7720254444
 41
-0.9684324574
 42
-0.9459688859
  0
ELLIPSE
  5
6B4
100
AcDbEntity
  8
0
100
AcDbEllipse
 62
7
  6
CONTINUOUS
 10
24.3204161857
 20
58.3582586299
 30
0.0
 11
17.9980902144
 21
-17.9980902144
 31
0.0
 40
0.0145681905
 41
-1.5826211194
 42
-1.5601575479
  0
ELLIPSE
  5
6B5
100
AcDbEntity
  8
0
100
AcDbEllipse
 62
7
  6
CONTINUOUS
 10
24.3204161857
 20
58.3582586299
 30
0.0
 11
13.0301080657
 21
15.0773195645
 31
0.0
 40
0.823646727
 41
-0.9537862546
 42
-0.9313226831
  0
ELLIPSE
  5
6B6
100
AcDbEntity
  8
0
100
AcDbEllipse
 62
7
  6
CONTINUOUS
 10
24.3204161857
 20
58.3582586299
 30
0.0
 11
12.1506609999
 21
15.1330724445
 31
0.0
 40
0.8775557246
 41
-0.9567531649
 42
-0.9342895934
  0
ELLIPSE
  5
6B7
100
AcDbEntity
  8
0
100
AcDbEllipse
 62
7
  6
CONTINUOUS
 10
24.3204161857
 20
58.3582586299
 30
0.0
 11
10.2899960367
 21
15.833804047
 31
0.0
 40
0.932735439
 41
-1.0237823233
 42
-1.0013187518
  0
ELLIPSE
  5
6B8
100
AcDbEntity
  8
0
100
AcDbEllipse
 62
7
  6
CONTINUOUS
 10
24.3204161857
 20
59.896292669
 30
0.0
 11
0.0
 21
17.5798095107
 31
0.0
 40
0.9683677215
 41
-4.6526600627
 42
-4.6510888403
  0
ELLIPSE
  5
6B9
100
AcDbEntity
  8
0
100
AcDbEllipse
 62
7
  6
CONTINUOUS
 10
24.418201419
 20
59.8961994186
 30
0.0
 11
9.4001855711
 21
15.2454765514
 31
0.0
 40
0.9309920942
 41
-4.1333933331
 42
-4.128129045
  0
ELLIPSE
  5
6BA
100
AcDbEntity
  8
0
100
AcDbEllipse
 62
7
  6
CONTINUOUS
 10
23.5728584278
 20
59.8904576718
 30
0.0
 11
-14.4885253954
 21
15.3254233657
 31
0.0
 40
0.5852569076
 41
-2.1454578057
 42
-2.1314512544
  0
ELLIPSE
  5
6BB
100
AcDbEntity
  8
0
100
AcDbEllipse
 62
7
  6
CONTINUOUS
 10
24.5155679209
 20
59.8959200669
 30
0.0
 11
11.3249495163
 21
14.5053417385
 31
0.0
 40
0.8763551562
 41
2.2268912123
 42
2.2358235478
  0
ELLIPSE
  5
6BC
100
AcDbEntity
  8
0
100
AcDbEllipse
 62
7
  6
CONTINUOUS
 10
23.6591435025
 20
59.8918011663
 30
0.0
 11
-14.1418160627
 21
15.1062271974
 31
0.0
 40
0.6288914498
 41
4.109353298
 42
4.133072086
  0
ELLIPSE
  5
6BD
100
AcDbEntity
  8
0
100
AcDbEllipse
 62
7
  6
CONTINUOUS
 10
23.7482602483
 20
59.8929773934
 30
0.0
 11
-13.7607792131
 21
14.8885109351
 31
0.0
 40
0.674257711
 41
4.0830008292
 42
4.1061841806
  0
ELLIPSE
  5
6BE
100
AcDbEntity
  8
0
100
AcDbEllipse
 62
7
  6
CONTINUOUS
 10
24.6120987531
 20
59.8954558101
 30
0.0
 11
12.2232954954
 21
14.4095226989
 31
0.0
 40
0.8225504718
 41
-4.0489504146
 42
-4.0363804784
  0
ENDSEC
  0
SECTION
  2
OBJECTS
  0
DICTIONARY
  5
C
100
AcDbDictionary
280
0
281
1
  3
ACAD_GROUP
350
D
  3
ACAD_MLINESTYLE
350
17
  3
ACAD_LAYOUT
350
1A
  3
ACAD_PLOTSETTINGS
350
19
  3
ACAD_PLOTSTYLENAME
350
E
  0
DICTIONARY
  5
D
102
{ACAD_REACTORS
330
C
102
}
100
AcDbDictionary
280
0
281
1
  0
ACDBDICTIONARYWDFLT
  5
E
102
{ACAD_REACTORS
330
C
102
}
100
AcDbDictionary
281
1
  3
Normal
350
F
100
AcDbDictionaryWithDefault
340
F
  0
DICTIONARY
  5
17
102
{ACAD_REACTORS
330
C
102
}
100
AcDbDictionary
280
0
281
1
  3
Standard
350
18
  0
DICTIONARY
  5
19
102
{ACAD_REACTORS
330
C
102
}
100
AcDbDictionary
281
1
  0
DICTIONARY
  5
1A
102
{ACAD_REACTORS
330
C
102
}
100
AcDbDictionary
281
1
  3
Model
350
6BF
  3
Layout1
350
6C0
  0
ACDBPLACEHOLDER
  5
F
102
{ACAD_REACTORS
330
E
102
}
  0
MLINESTYLE
  5
18
102
{ACAD_REACTORS
330
17
102
}
100
AcDbMlineStyle
  2
STANDARD
 70
0
  3

 62
256
 51
90.0
 52
90.0
 71
2
 49
0.5
 62
256
  6
BYLAYER
 49
-0.5
 62
256
  6
BYLAYER
  0
LAYOUT
  5
6BF
102
{ACAD_REACTORS
330
1A
102
}
100
AcDbPlotSettings
  1

  2
none_device
  4

  6

 40
0.0
 41
0.0
 42
0.0
 43
0.0
 44
210.0
 45
297.0
 46
0.0
 47
0.0
 48
0.0
 49
0.0
140
0.0
141
0.0
142
1.0
143
1.0
 70
1024
 72
1
 73
0
 74
0
  7

 75
0
147
1.0
148
0.0
149
0.0
100
AcDbLayout
  1
Model
 70
0
 71
0
 10
0.0
 20
0.0
 11
210.0
 21
297.0
 12
0.0
 22
0.0
 32
0.0
 14
0.0
 24
0.0
 34
0.0
 15
0.0
 25
0.0
 35
0.0
146
0.0
 13
0.0
 23
0.0
 33
0.0
 16
1.0
 26
0.0
 36
0.0
 17
0.0
 27
1.0
 37
0.0
 76
0
330
210
345
0
346
0
  0
LAYOUT
  5
6C0
102
{ACAD_REACTORS
330
1A
102
}
100
AcDbPlotSettings
  1

  2
none_device
  4

  6

 40
0.0
 41
0.0
 42
0.0
 43
0.0
 44
210.0
 45
297.0
 46
0.0
 47
0.0
 48
0.0
 49
0.0
140
0.0
141
0.0
142
1.0
143
1.0
 70
0
 72
1
 73
0
 74
0
  7

 75
0
147
1.0
148
0.0
149
0.0
100
AcDbLayout
  1
Layout1
 70
0
 71
1
 10
0.0
 20
0.0
 11
210.0
 21
297.0
 12
0.0
 22
0.0
 32
0.0
 14
0.0
 24
0.0
 34
0.0
 15
0.0
 25
0.0
 35
0.0
146
0.0
 13
0.0
 23
0.0
 33
0.0
 16
1.0
 26
0.0
 36
0.0
 17
0.0
 27
1.0
 37
0.0
 76
0
330
211
345
0
346
0
  0
ENDSEC
  0
EOF
