999
DXF file: C:\Users\sesa63760\Dev\_Creo\CAD\MCADID0000730_3D-CAD\drw0001_6.dxf
999
Pro/ENGINEER 2019471 by Parametric Technology Corporation
  0
SECTION
  2
HEADER
  9
$ACADVER
  1
AC1024
  9
$DWGCODEPAGE
  3
ANSI_1252
  9
$EXTMAX
 10
102.6419114559
 20
145.1649890591
 30
0.0
  9
$EXTMIN
 10
0.0
 20
0.0
 30
0.0
  9
$LIMMIN
 10
0.0
 20
0.0
  9
$LIMMAX
 10
102.6419114559
 20
145.1649890591
  9
$VIEWCTR
 10
51.320955728
 20
72.5824945295
  9
$VIEWSIZE
 40
145.1649890591
  9
$CLAYER
  8
0
  9
$LTSCALE
 40
9.4626066942
  9
$CELTYPE
  6
BYLAYER
  9
$DIMSCALE
 40
1.0
  9
$DIMASZ
 40
1.2219275173
  9
$DIMEXO
 40
1.0
  9
$DIMDLI
 40
6.5378009887
  9
$DIMEXE
 40
1.0
  9
$DIMCEN
 40
1.54842655
  9
$DIMLFAC
 40
1.0
  9
$DIMBLK
  1
_FILLED
  9
$DIMALT
 70
0
  9
$DIMALTF
 40
0.0393700787
  9
$DIMTXT
 40
1.7106985243
  9
$DIMTOL
 70
1
  9
$DIMLIM
 70
0
  9
$DIMTFAC
 40
1.0
  9
$DIMTP
 40
0.01
  9
$DIMTM
 40
0.01
  9
$DIMGAP
 40
0.625
  9
$DIMDSEP
 70
46
  9
$AUNITS
 70
0
  9
$PDMODE
 70
3
  9
$PDSIZE
 40
0.3125
  9
$HANDSEED
  5
39E
  9
$TILEMODE
 70
1
  9
$MEASUREMENT
 70
1
  9
$INSUNITS
 70
4
  0
ENDSEC
  0
SECTION
  2
CLASSES
  0
CLASS
  1
ACDBDICTIONARYWDFLT
  2
AcDbDictionaryWithDefault
  3
AutoCAD 2000
 90
0
 91
1
280
0
281
0
  0
CLASS
  1
ACDBPLACEHOLDER
  2
AcDbPlaceHolder
  3
AutoCAD 2000
 90
0
 91
1
280
0
281
0
  0
CLASS
  1
LAYOUT
  2
AcDbLayout
  3
AutoCAD 2000
 90
0
 91
0
280
0
281
0
  0
ENDSEC
  0
SECTION
  2
TABLES
  0
TABLE
  2
VPORT
  5
8
100
AcDbSymbolTable
 70
2
  0
VPORT
  5
1F4
100
AcDbSymbolTableRecord
100
AcDbViewportTableRecord
  2
*ACTIVE
 70
0
 10
0.0
 20
0.0
 11
1.0
 21
1.0
 12
51.320955728
 22
72.5824945295
 13
0.0
 23
0.0
 14
1.0
 24
1.0
 15
0.0
 25
0.0
 16
0.0
 26
0.0
 36
1.0
 17
0.0
 27
0.0
 37
0.0
 40
145.1649890591
 41
0.7070707071
 42
50.0
 43
0.0
 44
0.0
 50
0.0
 51
0.0
 71
0
 72
100
 73
1
 74
1
 75
0
 76
0
 77
0
 78
0
  0
ENDTAB
  0
TABLE
  2
LTYPE
  5
5
100
AcDbSymbolTable
 70
6
  0
LTYPE
  5
14
100
AcDbSymbolTableRecord
100
AcDbLinetypeTableRecord
  2
BYBLOCK
 70
0
  3

 72
65
 73
0
 40
0.0
  0
LTYPE
  5
15
100
AcDbSymbolTableRecord
100
AcDbLinetypeTableRecord
  2
BYLAYER
 70
0
  3

 72
65
 73
0
 40
0.0
  0
LTYPE
  5
16
100
AcDbSymbolTableRecord
100
AcDbLinetypeTableRecord
  2
CONTINUOUS
 70
64
  3
Solid line
 72
65
 73
0
 40
0.0
  0
LTYPE
  5
1F5
100
AcDbSymbolTableRecord
100
AcDbLinetypeTableRecord
  2
CENTER
 70
64
  3
____ _ ____ _ ____ _ ____ _ ____ _ ____ _ ____
 72
65
 73
4
 40
0.6
 49
0.375
 74
0
 49
-0.075
 74
0
 49
0.075
 74
0
 49
-0.075
 74
0
  0
LTYPE
  5
1F6
100
AcDbSymbolTableRecord
100
AcDbLinetypeTableRecord
  2
HIDDEN
 70
64
  3
- - - - - - - - - - - - - - - - - - - -
 72
65
 73
2
 40
0.2
 49
0.1
 74
0
 49
-0.1
 74
0
  0
LTYPE
  5
1F7
100
AcDbSymbolTableRecord
100
AcDbLinetypeTableRecord
  2
PHANTOM
 70
64
  3
_____ _ _ _____ _ _ _____ _ _ _____
 72
65
 73
6
 40
0.8
 49
0.45
 74
0
 49
-0.05
 74
0
 49
0.1
 74
0
 49
-0.05
 74
0
 49
0.1
 74
0
 49
-0.05
 74
0
  0
LTYPE
  5
1F8
100
AcDbSymbolTableRecord
100
AcDbLinetypeTableRecord
  2
DOT
 70
64
  3
. . . . . . . . . . . . . . . . . . . .
 72
65
 73
2
 40
0.2
 49
0.1
 74
0
 49
-0.1
 74
0
  0
LTYPE
  5
1F9
100
AcDbSymbolTableRecord
100
AcDbLinetypeTableRecord
  2
DASHED
 70
64
  3
- - - - - - - - - - - - - - - - - - - -
 72
65
 73
2
 40
0.2
 49
0.1
 74
0
 49
-0.1
 74
0
  0
ENDTAB
  0
TABLE
  2
LAYER
  5
2
100
AcDbSymbolTable
 70
36
  0
LAYER
  5
10
100
AcDbSymbolTableRecord
100
AcDbLayerTableRecord
  2
0
 70
0
 62
7
  6
CONTINUOUS
370
-3
390
F
  0
LAYER
  5
1FA
100
AcDbSymbolTableRecord
100
AcDbLayerTableRecord
  2
DEFAULT_1
 70
0
 62
7
  6
CENTER
370
-3
390
F
  0
LAYER
  5
1FB
100
AcDbSymbolTableRecord
100
AcDbLayerTableRecord
  2
DEFAULT_2
 70
0
 62
8
  6
HIDDEN
370
-3
390
F
  0
LAYER
  5
1FC
100
AcDbSymbolTableRecord
100
AcDbLayerTableRecord
  2
DEFAULT_3
 70
0
 62
7
  6
PHANTOM
370
-3
390
F
  0
LAYER
  5
1FD
100
AcDbSymbolTableRecord
100
AcDbLayerTableRecord
  2
00_COMPONENTS
 70
0
 62
7
  6
CONTINUOUS
370
-3
390
F
  0
LAYER
  5
1FE
100
AcDbSymbolTableRecord
100
AcDbLayerTableRecord
  2
01_1_DEFAULT_DATUMS
 70
0
 62
7
  6
CONTINUOUS
370
-3
390
F
  0
LAYER
  5
1FF
100
AcDbSymbolTableRecord
100
AcDbLayerTableRecord
  2
01_PLANES
 70
0
 62
7
  6
CONTINUOUS
370
-3
390
F
  0
LAYER
  5
200
100
AcDbSymbolTableRecord
100
AcDbLayerTableRecord
  2
02_COORD_SYS
 70
0
 62
7
  6
CONTINUOUS
370
-3
390
F
  0
LAYER
  5
201
100
AcDbSymbolTableRecord
100
AcDbLayerTableRecord
  2
03_AXES
 70
0
 62
7
  6
CONTINUOUS
370
-3
390
F
  0
LAYER
  5
202
100
AcDbSymbolTableRecord
100
AcDbLayerTableRecord
  2
04_POINTS
 70
0
 62
7
  6
CONTINUOUS
370
-3
390
F
  0
LAYER
  5
203
100
AcDbSymbolTableRecord
100
AcDbLayerTableRecord
  2
05_CURVES
 70
0
 62
7
  6
CONTINUOUS
370
-3
390
F
  0
LAYER
  5
204
100
AcDbSymbolTableRecord
100
AcDbLayerTableRecord
  2
06_SURFS
 70
0
 62
7
  6
CONTINUOUS
370
-3
390
F
  0
LAYER
  5
205
100
AcDbSymbolTableRecord
100
AcDbLayerTableRecord
  2
07_COSMETICS
 70
0
 62
7
  6
CONTINUOUS
370
-3
390
F
  0
LAYER
  5
206
100
AcDbSymbolTableRecord
100
AcDbLayerTableRecord
  2
10_NOTES
 70
0
 62
7
  6
CONTINUOUS
370
-3
390
F
  0
LAYER
  5
207
100
AcDbSymbolTableRecord
100
AcDbLayerTableRecord
  2
11_NOTES_PUB
 70
0
 62
7
  6
CONTINUOUS
370
-3
390
F
  0
LAYER
  5
208
100
AcDbSymbolTableRecord
100
AcDbLayerTableRecord
  2
13_REF_GTOL
 70
0
 62
7
  6
CONTINUOUS
370
-3
390
F
  0
LAYER
  5
209
100
AcDbSymbolTableRecord
100
AcDbLayerTableRecord
  2
16_MISC
 70
0
 62
7
  6
CONTINUOUS
370
-3
390
F
  0
LAYER
  5
20A
100
AcDbSymbolTableRecord
100
AcDbLayerTableRecord
  2
17_NO_PRINT
 70
0
 62
7
  6
CONTINUOUS
370
-3
390
F
  0
LAYER
  5
20B
100
AcDbSymbolTableRecord
100
AcDbLayerTableRecord
  2
18_DATUM_CAMS_JOINTS
 70
0
 62
7
  6
CONTINUOUS
370
-3
390
F
  0
LAYER
  5
20C
100
AcDbSymbolTableRecord
100
AcDbLayerTableRecord
  2
19_DATUM_FUNCTIONAL
 70
0
 62
7
  6
CONTINUOUS
370
-3
390
F
  0
LAYER
  5
20D
100
AcDbSymbolTableRecord
100
AcDbLayerTableRecord
  2
20_DATUM_KINEMATIC_SCHEME
 70
0
 62
7
  6
CONTINUOUS
370
-3
390
F
  0
ENDTAB
  0
TABLE
  2
STYLE
  5
3
100
AcDbSymbolTable
 70
1
  0
STYLE
  5
11
100
AcDbSymbolTableRecord
100
AcDbTextStyleTableRecord
  2
STANDARD
 70
0
 40
0.0
 41
0.8
 50
0.0
 71
0
 42
0.2
  3
txt
  4

  0
STYLE
  5
20E
100
AcDbSymbolTableRecord
100
AcDbTextStyleTableRecord
  2
TEXTSTYLE_1
 70
0
 40
0.0
 41
0.8
 50
0.0
 71
0
 42
0.2
  3
gdt
  4

  0
ENDTAB
  0
TABLE
  2
VIEW
  5
6
100
AcDbSymbolTable
 70
0
  0
ENDTAB
  0
TABLE
  2
UCS
  5
7
100
AcDbSymbolTable
 70
0
  0
ENDTAB
  0
TABLE
  2
APPID
  5
9
100
AcDbSymbolTable
 70
1
  0
APPID
  5
20F
100
AcDbSymbolTableRecord
100
AcDbRegAppTableRecord
  2
ACAD
 70
0
  0
ENDTAB
  0
TABLE
  2
BLOCK_RECORD
  5
1
100
AcDbSymbolTable
 70
0
  0
BLOCK_RECORD
  5
210
100
AcDbSymbolTableRecord
100
AcDbBlockTableRecord
  2
*Model_Space
  0
BLOCK_RECORD
  5
211
100
AcDbSymbolTableRecord
100
AcDbBlockTableRecord
  2
*Paper_Space
  0
BLOCK_RECORD
  5
212
100
AcDbSymbolTableRecord
100
AcDbBlockTableRecord
  2
_FILLED
  0
ENDTAB
  0
TABLE
  2
DIMSTYLE
  5
A
100
AcDbSymbolTable
 70
1
100
AcDbDimStyleTable
 71
0
  0
DIMSTYLE
105
213
100
AcDbSymbolTableRecord
100
AcDbDimStyleTableRecord
  2
STANDARD
 70
0
  3

  4

 40
1.0
 41
1.2219275173
 42
1.0
 43
0.38
 44
1.0
 45
0.0
 46
0.0
 47
0.01
 48
0.01
140
1.7106985243
141
0.09
142
0.0
143
25.4
144
1.0
145
0.0
146
1.0
147
0.625
 71
1
 72
0
 73
0
 74
0
 75
0
 76
0
 77
1
 78
8
 79
2
170
0
171
1
172
0
173
0
174
0
175
0
176
0
177
0
178
0
270
2
179
2
271
2
272
2
273
2
274
2
275
0
280
0
281
0
282
0
283
1
284
8
285
0
286
0
287
3
288
0
340
11
278
46
341
212
342
212
343
212
344
212
  0
ENDTAB
  0
ENDSEC
  0
SECTION
  2
BLOCKS
  0
BLOCK
  5
20
100
AcDbEntity
  8
0
100
AcDbBlockBegin
  2
*Model_Space
 70
0
 10
0.0
 20
0.0
 30
0.0
  3
*Model_Space
  1

  0
ENDBLK
  5
21
100
AcDbEntity
  8
0
100
AcDbBlockEnd
  0
BLOCK
  5
1C
100
AcDbEntity
  8
0
100
AcDbBlockBegin
  2
*Paper_Space
 70
0
 10
0.0
 20
0.0
 30
0.0
  3
*Paper_Space
  1

  0
ENDBLK
  5
1D
100
AcDbEntity
  8
0
100
AcDbBlockEnd
  0
BLOCK
  5
214
100
AcDbEntity
  8
0
100
AcDbBlockBegin
  2
_FILLED
 70
64
 10
0.0
 20
0.0
  3
_FILLED
  1

  0
SOLID
  5
215
100
AcDbEntity
  8
0
  6
BYBLOCK
 62
0
100
AcDbTrace
 10
0.0
 20
0.0
 11
-1.0
 21
0.25
 12
-1.0
 22
-0.25
 13
-1.0
 23
-0.25
  0
ENDBLK
  5
216
100
AcDbEntity
  8
0
  6
BYBLOCK
 62
0
100
AcDbBlockEnd
  0
ENDSEC
  0
SECTION
  2
ENTITIES
  0
LINE
  5
217
100
AcDbEntity
  8
0
100
AcDbLine
 62
7
  6
CONTINUOUS
 10
64.0093583538
 20
16.3719129002
 11
80.0093583538
 21
16.3719129002
  0
LINE
  5
218
100
AcDbEntity
  8
0
100
AcDbLine
 62
7
  6
CONTINUOUS
 10
80.0093583538
 20
20.5719129002
 11
81.1393583538
 21
20.5719129002
  0
LINE
  5
219
100
AcDbEntity
  8
0
100
AcDbLine
 62
7
  6
CONTINUOUS
 10
92.3137218012
 20
29.550749641
 11
89.0093583538
 21
29.2019032645
  0
LINE
  5
21A
100
AcDbEntity
  8
0
100
AcDbLine
 62
7
  6
CONTINUOUS
 10
75.6630009523
 20
24.071912901
 11
75.5093583538
 21
24.071912901
  0
LINE
  5
21B
100
AcDbEntity
  8
0
100
AcDbLine
 62
7
  6
CONTINUOUS
 10
74.5093583538
 20
24.071912901
 11
74.3557157553
 21
24.071912901
  0
LINE
  5
21C
100
AcDbEntity
  8
0
100
AcDbLine
 62
7
  6
CONTINUOUS
 10
89.0093583538
 20
24.5719129002
 11
92.8093583538
 21
24.5719129002
  0
LINE
  5
21D
100
AcDbEntity
  8
0
100
AcDbLine
 62
7
  6
CONTINUOUS
 10
89.0093583538
 20
25.0561349251
 11
92.8093583538
 21
25.0561349251
  0
LINE
  5
21E
100
AcDbEntity
  8
0
100
AcDbLine
 62
7
  6
CONTINUOUS
 10
81.3175797562
 20
25.3719129002
 11
83.1220830294
 21
25.3719129002
  0
LINE
  5
21F
100
AcDbEntity
  8
0
100
AcDbLine
 62
7
  6
CONTINUOUS
 10
92.8093583538
 20
25.6085878743
 11
89.0093583538
 21
25.6085878743
  0
LINE
  5
220
100
AcDbEntity
  8
0
100
AcDbLine
 62
7
  6
CONTINUOUS
 10
92.8093583538
 20
29.5719129002
 11
30.8093583538
 21
29.5719129002
  0
LINE
  5
221
100
AcDbEntity
  8
0
100
AcDbLine
 62
7
  6
CONTINUOUS
 10
85.4093583534
 20
31.3827069129
 11
83.5093583531
 21
31.3827069129
  0
LINE
  5
222
100
AcDbEntity
  8
0
100
AcDbLine
 62
7
  6
CONTINUOUS
 10
49.4093583534
 20
31.3827069129
 11
47.5093583531
 21
31.3827069129
  0
LINE
  5
223
100
AcDbEntity
  8
0
100
AcDbLine
 62
7
  6
CONTINUOUS
 10
73.4093583534
 20
31.4741645369
 11
71.5093583531
 21
31.4741645369
  0
LINE
  5
224
100
AcDbEntity
  8
0
100
AcDbLine
 62
7
  6
CONTINUOUS
 10
45.4093583534
 20
31.4741645369
 11
43.5093583531
 21
31.4741645369
  0
LINE
  5
225
100
AcDbEntity
  8
0
100
AcDbLine
 62
7
  6
CONTINUOUS
 10
92.3137218012
 20
29.550749641
 11
92.8093583538
 21
29.5446343579
  0
LINE
  5
226
100
AcDbEntity
  8
0
100
AcDbLine
 62
7
  6
CONTINUOUS
 10
23.3006321506
 20
29.7029782036
 11
30.8093583538
 21
29.5719129002
  0
LINE
  5
227
100
AcDbEntity
  8
0
100
AcDbLine
 62
7
  6
CONTINUOUS
 10
20.5093583538
 20
37.3719129002
 11
22.8093583538
 21
36.7147700431
  0
LINE
  5
228
100
AcDbEntity
  8
0
100
AcDbLine
 62
7
  6
CONTINUOUS
 10
19.0093583538
 20
38.8119129002
 11
20.5093583538
 21
38.0119129003
  0
LINE
  5
229
100
AcDbEntity
  8
0
100
AcDbLine
 62
7
  6
CONTINUOUS
 10
11.6093583538
 20
76.0319129003
 11
11.6093583538
 21
75.6319129002
  0
LINE
  5
22A
100
AcDbEntity
  8
0
100
AcDbLine
 62
7
  6
CONTINUOUS
 10
11.6093583538
 20
37.8119129003
 11
11.6093583538
 21
37.4119129002
  0
LINE
  5
22B
100
AcDbEntity
  8
0
100
AcDbLine
 62
7
  6
CONTINUOUS
 10
14.9093583538
 20
41.6119129002
 11
14.9093583538
 21
43.7119128998
  0
LINE
  5
22C
100
AcDbEntity
  8
0
100
AcDbLine
 62
7
  6
CONTINUOUS
 10
14.9093583538
 20
69.7319129006
 11
14.9093583538
 21
71.8319129002
  0
LINE
  5
22D
100
AcDbEntity
  8
0
100
AcDbLine
 62
7
  6
CONTINUOUS
 10
43.5093583531
 20
34.5719129002
 11
45.4093583534
 21
34.5719129002
  0
LINE
  5
22E
100
AcDbEntity
  8
0
100
AcDbLine
 62
7
  6
CONTINUOUS
 10
47.5093583531
 20
34.5719129002
 11
49.4093583534
 21
34.5719129002
  0
LINE
  5
22F
100
AcDbEntity
  8
0
100
AcDbLine
 62
7
  6
CONTINUOUS
 10
71.5093583531
 20
34.5719129002
 11
73.4093583534
 21
34.5719129002
  0
LINE
  5
230
100
AcDbEntity
  8
0
100
AcDbLine
 62
7
  6
CONTINUOUS
 10
83.5093583531
 20
34.5719129002
 11
85.4093583534
 21
34.5719129002
  0
LINE
  5
231
100
AcDbEntity
  8
0
100
AcDbLine
 62
7
  6
CONTINUOUS
 10
69.0772618528
 20
19.3987342008
 11
70.2094040527
 21
18.7450915975
  0
LINE
  5
232
100
AcDbEntity
  8
0
100
AcDbLine
 62
7
  6
CONTINUOUS
 10
16.4593583538
 20
42.8119128995
 11
16.4593583538
 21
41.6119129009
  0
LINE
  5
233
100
AcDbEntity
  8
0
100
AcDbLine
 62
7
  6
CONTINUOUS
 10
16.4593583538
 20
70.6319129001
 11
16.4593583538
 21
71.8319129002
  0
LINE
  5
234
100
AcDbEntity
  8
0
100
AcDbLine
 62
7
  6
CONTINUOUS
 10
16.7093583538
 20
70.1319129006
 11
16.7093583538
 21
69.7319129002
  0
LINE
  5
235
100
AcDbEntity
  8
0
100
AcDbLine
 62
7
  6
CONTINUOUS
 10
16.7093583538
 20
43.3119129003
 11
16.7093583538
 21
43.7119129002
  0
LINE
  5
236
100
AcDbEntity
  8
0
100
AcDbLine
 62
7
  6
CONTINUOUS
 10
19.5093583538
 20
82.0719129002
 11
19.5093583538
 21
118.5719129002
  0
LINE
  5
237
100
AcDbEntity
  8
0
100
AcDbLine
 62
7
  6
CONTINUOUS
 10
19.0093583542
 20
38.8119129002
 11
15.109358354
 21
38.8119129002
  0
LINE
  5
238
100
AcDbEntity
  8
0
100
AcDbLine
 62
7
  6
CONTINUOUS
 10
67.5268134187
 20
40.5719129002
 11
58.0919032889
 21
40.5719129002
  0
LINE
  5
239
100
AcDbEntity
  8
0
100
AcDbLine
 62
7
  6
CONTINUOUS
 10
11.6093583538
 20
75.6319129002
 11
14.1093583537
 21
71.8319129002
  0
LINE
  5
23A
100
AcDbEntity
  8
0
100
AcDbLine
 62
7
  6
CONTINUOUS
 10
16.7093583538
 20
70.1319129001
 11
16.4593583538
 21
70.6319129001
  0
LINE
  5
23B
100
AcDbEntity
  8
0
100
AcDbLine
 62
7
  6
CONTINUOUS
 10
20.5093583538
 20
76.0719128995
 11
20.5093583538
 21
71.8319129011
  0
LINE
  5
23C
100
AcDbEntity
  8
0
100
AcDbLine
 62
7
  6
CONTINUOUS
 10
20.5093583538
 20
41.6119129004
 11
20.5093583538
 21
37.3719129002
  0
LINE
  5
23D
100
AcDbEntity
  8
0
100
AcDbLine
 62
7
  6
CONTINUOUS
 10
22.7093583538
 20
47.7932432537
 11
22.7093583538
 21
53.8922764994
  0
LINE
  5
23E
100
AcDbEntity
  8
0
100
AcDbLine
 62
7
  6
CONTINUOUS
 10
22.7093583538
 20
81.0692935535
 11
22.7093583538
 21
82.0719129002
  0
LINE
  5
23F
100
AcDbEntity
  8
0
100
AcDbLine
 62
7
  6
CONTINUOUS
 10
22.8093583538
 20
30.2029020512
 11
22.8093583538
 21
118.9409237492
  0
LINE
  5
240
100
AcDbEntity
  8
0
100
AcDbLine
 62
7
  6
CONTINUOUS
 10
14.1093583538
 20
41.6119129002
 11
20.5093583538
 21
41.6119129002
  0
LINE
  5
241
100
AcDbEntity
  8
0
100
AcDbLine
 62
7
  6
CONTINUOUS
 10
14.9093583538
 20
43.7119129002
 11
16.7093583538
 21
43.7119129002
  0
LINE
  5
242
100
AcDbEntity
  8
0
100
AcDbLine
 62
7
  6
CONTINUOUS
 10
26.5931878687
 20
49.3060222088
 11
26.5931878687
 21
54.8378035917
  0
LINE
  5
243
100
AcDbEntity
  8
0
100
AcDbLine
 62
7
  6
CONTINUOUS
 10
26.5931878687
 20
94.306022209
 11
26.5931878687
 21
99.8378035919
  0
LINE
  5
244
100
AcDbEntity
  8
0
100
AcDbLine
 62
7
  6
CONTINUOUS
 10
30.8268134194
 20
94.5544578346
 11
30.8093583538
 21
94.2311439037
  0
LINE
  5
245
100
AcDbEntity
  8
0
100
AcDbLine
 62
7
  6
CONTINUOUS
 10
22.8093583538
 20
42.1595319482
 11
20.5093583538
 21
41.6119129004
  0
LINE
  5
246
100
AcDbEntity
  8
0
100
AcDbLine
 62
7
  6
CONTINUOUS
 10
58.0919032889
 20
47.5893679658
 11
67.5268134187
 21
47.5893679658
  0
LINE
  5
247
100
AcDbEntity
  8
0
100
AcDbLine
 62
7
  6
CONTINUOUS
 10
22.7093583538
 20
47.7932412857
 11
22.8093583538
 21
47.7932412857
  0
LINE
  5
248
100
AcDbEntity
  8
0
100
AcDbLine
 62
7
  6
CONTINUOUS
 10
22.8093583538
 20
48.9885891753
 11
22.7093583538
 21
48.9885891753
  0
LINE
  5
249
100
AcDbEntity
  8
0
100
AcDbLine
 62
7
  6
CONTINUOUS
 10
22.7093583538
 20
49.0670129011
 11
22.8093583538
 21
49.0670129011
  0
LINE
  5
24A
100
AcDbEntity
  8
0
100
AcDbLine
 62
7
  6
CONTINUOUS
 10
22.8093583538
 20
49.4711129001
 11
22.7093583538
 21
49.4711129001
  0
LINE
  5
24B
100
AcDbEntity
  8
0
100
AcDbLine
 62
7
  6
CONTINUOUS
 10
33.3093583538
 20
49.5544578344
 11
30.8268134194
 21
49.5544578344
  0
LINE
  5
24C
100
AcDbEntity
  8
0
100
AcDbLine
 62
7
  6
CONTINUOUS
 10
22.7093583538
 20
49.8315129007
 11
22.8093583538
 21
49.8315129007
  0
LINE
  5
24D
100
AcDbEntity
  8
0
100
AcDbLine
 62
7
  6
CONTINUOUS
 10
30.8268134194
 20
49.2308339051
 11
26.5931878687
 21
49.3060222088
  0
LINE
  5
24E
100
AcDbEntity
  8
0
100
AcDbLine
 62
7
  6
CONTINUOUS
 10
30.8093583538
 20
99.9126818972
 11
30.8268134194
 21
99.5893679662
  0
LINE
  5
24F
100
AcDbEntity
  8
0
100
AcDbLine
 62
7
  6
CONTINUOUS
 10
30.8268134194
 20
54.912991895
 11
30.8268134194
 21
54.5893679656
  0
LINE
  5
250
100
AcDbEntity
  8
0
100
AcDbLine
 62
7
  6
CONTINUOUS
 10
30.8268134194
 20
49.5544578344
 11
30.8268134194
 21
49.2308339051
  0
LINE
  5
251
100
AcDbEntity
  8
0
100
AcDbLine
 62
7
  6
CONTINUOUS
 10
33.3093583538
 20
99.5893679662
 11
33.3093583538
 21
94.5544578346
  0
LINE
  5
252
100
AcDbEntity
  8
0
100
AcDbLine
 62
7
  6
CONTINUOUS
 10
33.3093583538
 20
54.5893679656
 11
33.3093583538
 21
49.5544578344
  0
LINE
  5
253
100
AcDbEntity
  8
0
100
AcDbLine
 62
7
  6
CONTINUOUS
 10
16.4593583538
 20
42.8119129003
 11
16.7093583538
 21
43.3119129003
  0
LINE
  5
254
100
AcDbEntity
  8
0
100
AcDbLine
 62
7
  6
CONTINUOUS
 10
22.7093583538
 20
51.2325812164
 11
22.8093583538
 21
51.2325812164
  0
LINE
  5
255
100
AcDbEntity
  8
0
100
AcDbLine
 62
7
  6
CONTINUOUS
 10
22.8093583538
 20
51.3569129003
 11
22.7093583538
 21
51.3569129003
  0
LINE
  5
256
100
AcDbEntity
  8
0
100
AcDbLine
 62
7
  6
CONTINUOUS
 10
22.7093583538
 20
52.2621128993
 11
22.8093583538
 21
52.2621128993
  0
LINE
  5
257
100
AcDbEntity
  8
0
100
AcDbLine
 62
7
  6
CONTINUOUS
 10
22.8093583538
 20
52.4338129001
 11
22.7093583538
 21
52.4338129001
  0
LINE
  5
258
100
AcDbEntity
  8
0
100
AcDbLine
 62
7
  6
CONTINUOUS
 10
22.7093583538
 20
52.586476867
 11
22.8093583538
 21
52.586476867
  0
LINE
  5
259
100
AcDbEntity
  8
0
100
AcDbLine
 62
7
  6
CONTINUOUS
 10
22.8093583538
 20
52.864312899
 11
22.7093583538
 21
52.864312899
  0
LINE
  5
25A
100
AcDbEntity
  8
0
100
AcDbLine
 62
7
  6
CONTINUOUS
 10
22.7093583538
 20
53.8175129003
 11
22.8093583538
 21
53.8175129003
  0
LINE
  5
25B
100
AcDbEntity
  8
0
100
AcDbLine
 62
7
  6
CONTINUOUS
 10
22.8093583538
 20
53.8922889825
 11
22.7093583538
 21
53.8922889825
  0
LINE
  5
25C
100
AcDbEntity
  8
0
100
AcDbLine
 62
7
  6
CONTINUOUS
 10
30.8268134194
 20
54.5893679656
 11
33.3093583538
 21
54.5893679656
  0
LINE
  5
25D
100
AcDbEntity
  8
0
100
AcDbLine
 62
7
  6
CONTINUOUS
 10
14.1093583537
 20
41.6119129002
 11
11.6093583538
 21
37.8119129003
  0
LINE
  5
25E
100
AcDbEntity
  8
0
100
AcDbLine
 62
7
  6
CONTINUOUS
 10
20.5093583538
 20
75.4319129002
 11
19.0093583539
 21
74.6319129002
  0
LINE
  5
25F
100
AcDbEntity
  8
0
100
AcDbLine
 62
7
  6
CONTINUOUS
 10
26.5931878687
 20
54.8378035917
 11
30.8268134194
 21
54.912991895
  0
LINE
  5
260
100
AcDbEntity
  8
0
100
AcDbLine
 62
7
  6
CONTINUOUS
 10
91.862653824
 20
56.8686174296
 11
88.8093583538
 21
56.9219129003
  0
LINE
  5
261
100
AcDbEntity
  8
0
100
AcDbLine
 62
7
  6
CONTINUOUS
 10
43.5093583531
 20
31.4741645369
 11
43.5093583531
 21
34.5719129002
  0
LINE
  5
262
100
AcDbEntity
  8
0
100
AcDbLine
 62
7
  6
CONTINUOUS
 10
43.5093583531
 20
114.5719129002
 11
43.5093583531
 21
117.7611188876
  0
LINE
  5
263
100
AcDbEntity
  8
0
100
AcDbLine
 62
7
  6
CONTINUOUS
 10
22.8093583538
 20
76.7290557567
 11
20.5093583538
 21
76.0719128995
  0
LINE
  5
264
100
AcDbEntity
  8
0
100
AcDbLine
 62
7
  6
CONTINUOUS
 10
15.1093583539
 20
74.6319129002
 11
11.6093583538
 21
76.0319129003
  0
LINE
  5
265
100
AcDbEntity
  8
0
100
AcDbLine
 62
7
  6
CONTINUOUS
 10
45.4093583534
 20
117.7611188876
 11
45.4093583534
 21
114.5719129002
  0
LINE
  5
266
100
AcDbEntity
  8
0
100
AcDbLine
 62
7
  6
CONTINUOUS
 10
45.4093583534
 20
34.5719129002
 11
45.4093583534
 21
31.4741645369
  0
LINE
  5
267
100
AcDbEntity
  8
0
100
AcDbLine
 62
7
  6
CONTINUOUS
 10
47.5093583531
 20
31.3827069129
 11
47.5093583531
 21
34.5719129002
  0
LINE
  5
268
100
AcDbEntity
  8
0
100
AcDbLine
 62
7
  6
CONTINUOUS
 10
47.5093583531
 20
114.5719129002
 11
47.5093583531
 21
117.6696612636
  0
LINE
  5
269
100
AcDbEntity
  8
0
100
AcDbLine
 62
7
  6
CONTINUOUS
 10
20.5093583538
 20
71.8319129011
 11
22.8093583538
 21
71.2842938534
  0
LINE
  5
26A
100
AcDbEntity
  8
0
100
AcDbLine
 62
7
  6
CONTINUOUS
 10
49.4093583534
 20
117.6696612636
 11
49.4093583534
 21
114.5719129002
  0
LINE
  5
26B
100
AcDbEntity
  8
0
100
AcDbLine
 62
7
  6
CONTINUOUS
 10
49.4093583534
 20
34.5719129002
 11
49.4093583534
 21
31.3827069129
  0
LINE
  5
26C
100
AcDbEntity
  8
0
100
AcDbLine
 62
7
  6
CONTINUOUS
 10
14.9093583538
 20
69.7319129006
 11
16.7093583538
 21
69.7319129006
  0
LINE
  5
26D
100
AcDbEntity
  8
0
100
AcDbLine
 62
7
  6
CONTINUOUS
 10
14.1093583537
 20
71.8319129002
 11
20.5026916867
 21
71.8319129002
  0
LINE
  5
26E
100
AcDbEntity
  8
0
100
AcDbLine
 62
7
  6
CONTINUOUS
 10
75.8361796517
 20
24.3718672115
 11
75.182537054
 21
25.5040093999
  0
LINE
  5
26F
100
AcDbEntity
  8
0
100
AcDbLine
 62
7
  6
CONTINUOUS
 10
19.0093583539
 20
74.6319129002
 11
15.1093583539
 21
74.6319129002
  0
LINE
  5
270
100
AcDbEntity
  8
0
100
AcDbLine
 62
7
  6
CONTINUOUS
 10
58.0919032889
 20
40.5719129002
 11
58.0919032889
 21
47.5893679658
  0
LINE
  5
271
100
AcDbEntity
  8
0
100
AcDbLine
 62
7
  6
CONTINUOUS
 10
58.0919032889
 20
107.5719129002
 11
58.0919032889
 21
114.5893679658
  0
LINE
  5
272
100
AcDbEntity
  8
0
100
AcDbLine
 62
7
  6
CONTINUOUS
 10
22.7093583538
 20
81.0674690155
 11
22.8093583538
 21
81.0674690155
  0
LINE
  5
273
100
AcDbEntity
  8
0
100
AcDbLine
 62
7
  6
CONTINUOUS
 10
22.7093583538
 20
81.0692917149
 11
22.8093583538
 21
81.0692917149
  0
LINE
  5
274
100
AcDbEntity
  8
0
100
AcDbLine
 62
7
  6
CONTINUOUS
 10
22.8093583538
 20
81.2563880129
 11
22.7093583538
 21
81.2563880129
  0
LINE
  5
275
100
AcDbEntity
  8
0
100
AcDbLine
 62
7
  6
CONTINUOUS
 10
22.7093583538
 20
81.6852880126
 11
22.8093583538
 21
81.6852880126
  0
LINE
  5
276
100
AcDbEntity
  8
0
100
AcDbLine
 62
7
  6
CONTINUOUS
 10
22.8093583538
 20
82.0719129002
 11
19.5093583538
 21
82.0719129002
  0
LINE
  5
277
100
AcDbEntity
  8
0
100
AcDbLine
 62
7
  6
CONTINUOUS
 10
64.0093583538
 20
16.3719129002
 11
64.0093583538
 21
29.5719129002
  0
LINE
  5
278
100
AcDbEntity
  8
0
100
AcDbLine
 62
7
  6
CONTINUOUS
 10
64.8093583538
 20
85.9596943545
 11
64.8093583538
 21
97.9841314448
  0
LINE
  5
279
100
AcDbEntity
  8
0
100
AcDbLine
 62
7
  6
CONTINUOUS
 10
69.521053247
 20
85.9596943545
 11
64.8093583538
 21
85.9596943545
  0
LINE
  5
27A
100
AcDbEntity
  8
0
100
AcDbLine
 62
7
  6
CONTINUOUS
 10
67.508834702
 20
114.5893679658
 11
67.508834702
 21
107.5719129002
  0
LINE
  5
27B
100
AcDbEntity
  8
0
100
AcDbLine
 62
7
  6
CONTINUOUS
 10
67.5268134187
 20
47.5893679658
 11
67.5268134187
 21
40.5719129002
  0
LINE
  5
27C
100
AcDbEntity
  8
0
100
AcDbLine
 62
7
  6
CONTINUOUS
 10
69.521053247
 20
97.9841314448
 11
69.521053247
 21
85.9596943545
  0
LINE
  5
27D
100
AcDbEntity
  8
0
100
AcDbLine
 62
7
  6
CONTINUOUS
 10
70.5093583538
 20
20.2255554995
 11
70.5093583538
 21
20.071912901
  0
LINE
  5
27E
100
AcDbEntity
  8
0
100
AcDbLine
 62
7
  6
CONTINUOUS
 10
70.5093583538
 20
19.0719129002
 11
70.5093583538
 21
18.9182703024
  0
LINE
  5
27F
100
AcDbEntity
  8
0
100
AcDbLine
 62
7
  6
CONTINUOUS
 10
11.6093583538
 20
37.4119129002
 11
15.1093583538
 21
38.8119129002
  0
LINE
  5
280
100
AcDbEntity
  8
0
100
AcDbLine
 62
7
  6
CONTINUOUS
 10
91.419254101
 20
90.2360496826
 11
90.9948288976
 21
90.2286413132
  0
LINE
  5
281
100
AcDbEntity
  8
0
100
AcDbLine
 62
7
  6
CONTINUOUS
 10
22.8093583538
 20
87.0711513764
 11
19.5093583538
 21
87.0711513764
  0
LINE
  5
282
100
AcDbEntity
  8
0
100
AcDbLine
 62
7
  6
CONTINUOUS
 10
85.843744831
 20
87.6375264222
 11
74.7749718762
 21
87.6375264222
  0
LINE
  5
283
100
AcDbEntity
  8
0
100
AcDbLine
 62
7
  6
CONTINUOUS
 10
82.6093583538
 20
90.1719129002
 11
77.4093583538
 21
90.1719129002
  0
LINE
  5
284
100
AcDbEntity
  8
0
100
AcDbLine
 62
7
  6
CONTINUOUS
 10
88.4471657566
 20
90.2219129006
 11
88.8093583538
 21
90.2219129006
  0
LINE
  5
285
100
AcDbEntity
  8
0
100
AcDbLine
 62
7
  6
CONTINUOUS
 10
80.2093583537
 20
90.9969129002
 11
81.7093583537
 21
90.9969129002
  0
LINE
  5
286
100
AcDbEntity
  8
0
100
AcDbLine
 62
7
  6
CONTINUOUS
 10
81.7093583541
 20
91.1969129006
 11
80.2093583541
 21
91.1969129006
  0
LINE
  5
287
100
AcDbEntity
  8
0
100
AcDbLine
 62
7
  6
CONTINUOUS
 10
78.3093583537
 20
91.6719129002
 11
79.8093583537
 21
91.6719129002
  0
LINE
  5
288
100
AcDbEntity
  8
0
100
AcDbLine
 62
7
  6
CONTINUOUS
 10
92.8093583538
 20
55.9219128998
 11
91.862653824
 21
56.8686174296
  0
LINE
  5
289
100
AcDbEntity
  8
0
100
AcDbLine
 62
7
  6
CONTINUOUS
 10
71.5093583531
 20
31.4741645369
 11
71.5093583531
 21
34.5719129002
  0
LINE
  5
28A
100
AcDbEntity
  8
0
100
AcDbLine
 62
7
  6
CONTINUOUS
 10
71.5093583531
 20
114.5723318061
 11
71.5093583531
 21
117.7611188876
  0
LINE
  5
28B
100
AcDbEntity
  8
0
100
AcDbLine
 62
7
  6
CONTINUOUS
 10
73.4093583534
 20
117.7611188876
 11
73.4093583534
 21
114.5723318061
  0
LINE
  5
28C
100
AcDbEntity
  8
0
100
AcDbLine
 62
7
  6
CONTINUOUS
 10
73.4093583534
 20
34.5719129002
 11
73.4093583534
 21
31.4741645369
  0
LINE
  5
28D
100
AcDbEntity
  8
0
100
AcDbLine
 62
7
  6
CONTINUOUS
 10
74.7749718762
 20
87.6375264222
 11
74.7749718762
 21
114.5062993778
  0
LINE
  5
28E
100
AcDbEntity
  8
0
100
AcDbLine
 62
7
  6
CONTINUOUS
 10
91.419254101
 20
90.2360496825
 11
92.8093583538
 21
92.2219129006
  0
LINE
  5
28F
100
AcDbEntity
  8
0
100
AcDbLine
 62
7
  6
CONTINUOUS
 10
79.8093583538
 20
91.8719128995
 11
78.3093583538
 21
91.8719128995
  0
LINE
  5
290
100
AcDbEntity
  8
0
100
AcDbLine
 62
7
  6
CONTINUOUS
 10
80.7743583536
 20
92.0121052797
 11
79.2443583543
 21
92.0121052797
  0
LINE
  5
291
100
AcDbEntity
  8
0
100
AcDbLine
 62
7
  6
CONTINUOUS
 10
77.0093583482
 20
92.2719129003
 11
78.109358354
 21
92.2719128998
  0
LINE
  5
292
100
AcDbEntity
  8
0
100
AcDbLine
 62
7
  6
CONTINUOUS
 10
81.90935835
 20
92.2719128977
 11
83.0093583533
 21
92.2719128971
  0
LINE
  5
293
100
AcDbEntity
  8
0
100
AcDbLine
 62
7
  6
CONTINUOUS
 10
90.4715509518
 20
92.5841054978
 11
88.4471657566
 21
92.5841054978
  0
LINE
  5
294
100
AcDbEntity
  8
0
100
AcDbLine
 62
7
  6
CONTINUOUS
 10
81.2093583541
 20
93.3219129006
 11
80.7743583536
 21
93.3219129006
  0
LINE
  5
295
100
AcDbEntity
  8
0
100
AcDbLine
 62
7
  6
CONTINUOUS
 10
79.2443583543
 20
93.3219129006
 11
78.8093583538
 21
93.3219129006
  0
LINE
  5
296
100
AcDbEntity
  8
0
100
AcDbLine
 62
7
  6
CONTINUOUS
 10
78.8093583538
 20
93.6219128995
 11
79.2443583543
 21
93.6219128995
  0
LINE
  5
297
100
AcDbEntity
  8
0
100
AcDbLine
 62
7
  6
CONTINUOUS
 10
80.7743583536
 20
93.6219128995
 11
81.2093583541
 21
93.6219128995
  0
LINE
  5
298
100
AcDbEntity
  8
0
100
AcDbLine
 62
7
  6
CONTINUOUS
 10
81.2093583541
 20
94.1219128995
 11
80.7743583536
 21
94.1219128995
  0
LINE
  5
299
100
AcDbEntity
  8
0
100
AcDbLine
 62
7
  6
CONTINUOUS
 10
79.2443583543
 20
94.1219128995
 11
78.8093583538
 21
94.1219128995
  0
LINE
  5
29A
100
AcDbEntity
  8
0
100
AcDbLine
 62
7
  6
CONTINUOUS
 10
78.8093583538
 20
94.4219129003
 11
79.2443583543
 21
94.4219129003
  0
LINE
  5
29B
100
AcDbEntity
  8
0
100
AcDbLine
 62
7
  6
CONTINUOUS
 10
80.7743583536
 20
94.4219129003
 11
81.2093583541
 21
94.4219129003
  0
LINE
  5
29C
100
AcDbEntity
  8
0
100
AcDbLine
 62
7
  6
CONTINUOUS
 10
33.3093583538
 20
94.5544578346
 11
30.8268134194
 21
94.5544578346
  0
LINE
  5
29D
100
AcDbEntity
  8
0
100
AcDbLine
 62
7
  6
CONTINUOUS
 10
81.2093583541
 20
94.9219129003
 11
80.7743583536
 21
94.9219129003
  0
LINE
  5
29E
100
AcDbEntity
  8
0
100
AcDbLine
 62
7
  6
CONTINUOUS
 10
79.2443583543
 20
94.9219129003
 11
78.8093583538
 21
94.9219129003
  0
LINE
  5
29F
100
AcDbEntity
  8
0
100
AcDbLine
 62
7
  6
CONTINUOUS
 10
78.8093583538
 20
95.221912901
 11
79.2443583543
 21
95.221912901
  0
LINE
  5
2A0
100
AcDbEntity
  8
0
100
AcDbLine
 62
7
  6
CONTINUOUS
 10
80.7743583536
 20
95.221912901
 11
81.2093583541
 21
95.221912901
  0
LINE
  5
2A1
100
AcDbEntity
  8
0
100
AcDbLine
 62
7
  6
CONTINUOUS
 10
81.2093583541
 20
95.721912901
 11
80.7743583536
 21
95.721912901
  0
LINE
  5
2A2
100
AcDbEntity
  8
0
100
AcDbLine
 62
7
  6
CONTINUOUS
 10
79.2443583543
 20
95.721912901
 11
78.8093583538
 21
95.721912901
  0
LINE
  5
2A3
100
AcDbEntity
  8
0
100
AcDbLine
 62
7
  6
CONTINUOUS
 10
78.8093583538
 20
96.0219128999
 11
79.2443583543
 21
96.0219128999
  0
LINE
  5
2A4
100
AcDbEntity
  8
0
100
AcDbLine
 62
7
  6
CONTINUOUS
 10
80.7743583536
 20
96.0219128999
 11
81.2093583541
 21
96.0219128999
  0
LINE
  5
2A5
100
AcDbEntity
  8
0
100
AcDbLine
 62
7
  6
CONTINUOUS
 10
30.8093583538
 20
94.2311439037
 11
26.5931878687
 21
94.306022209
  0
LINE
  5
2A6
100
AcDbEntity
  8
0
100
AcDbLine
 62
7
  6
CONTINUOUS
 10
77.0093583476
 20
90.5719129004
 11
77.0093583481
 21
92.2719129003
  0
LINE
  5
2A7
100
AcDbEntity
  8
0
100
AcDbLine
 62
7
  6
CONTINUOUS
 10
77.0093583533
 20
109.8719129001
 11
77.0093583538
 21
111.5719128996
  0
LINE
  5
2A8
100
AcDbEntity
  8
0
100
AcDbLine
 62
7
  6
CONTINUOUS
 10
78.1093583538
 20
110.2719128999
 11
78.1093583535
 21
109.8719129007
  0
LINE
  5
2A9
100
AcDbEntity
  8
0
100
AcDbLine
 62
7
  6
CONTINUOUS
 10
78.1093583395
 20
92.2719128997
 11
78.1093583392
 21
91.871912901
  0
LINE
  5
2AA
100
AcDbEntity
  8
0
100
AcDbLine
 62
7
  6
CONTINUOUS
 10
78.3093583538
 20
91.8719128995
 11
78.3093583538
 21
110.2719128999
  0
LINE
  5
2AB
100
AcDbEntity
  8
0
100
AcDbLine
 62
7
  6
CONTINUOUS
 10
78.8093583538
 20
93.3219129006
 11
78.8093583538
 21
93.6219128995
  0
LINE
  5
2AC
100
AcDbEntity
  8
0
100
AcDbLine
 62
7
  6
CONTINUOUS
 10
78.8093583538
 20
94.1219128995
 11
78.8093583538
 21
94.4219129003
  0
LINE
  5
2AD
100
AcDbEntity
  8
0
100
AcDbLine
 62
7
  6
CONTINUOUS
 10
78.8093583538
 20
94.9219129003
 11
78.8093583538
 21
95.221912901
  0
LINE
  5
2AE
100
AcDbEntity
  8
0
100
AcDbLine
 62
7
  6
CONTINUOUS
 10
78.8093583538
 20
95.721912901
 11
78.8093583538
 21
96.0219128999
  0
LINE
  5
2AF
100
AcDbEntity
  8
0
100
AcDbLine
 62
7
  6
CONTINUOUS
 10
78.8093583538
 20
96.5219128999
 11
78.8093583538
 21
96.8219129006
  0
LINE
  5
2B0
100
AcDbEntity
  8
0
100
AcDbLine
 62
7
  6
CONTINUOUS
 10
78.8093583538
 20
97.3219129006
 11
78.8093583538
 21
97.6219128995
  0
LINE
  5
2B1
100
AcDbEntity
  8
0
100
AcDbLine
 62
7
  6
CONTINUOUS
 10
78.8093583538
 20
98.1219128995
 11
78.8093583538
 21
98.4219129003
  0
LINE
  5
2B2
100
AcDbEntity
  8
0
100
AcDbLine
 62
7
  6
CONTINUOUS
 10
78.8093583538
 20
98.9219129003
 11
78.8093583538
 21
99.221912901
  0
LINE
  5
2B3
100
AcDbEntity
  8
0
100
AcDbLine
 62
7
  6
CONTINUOUS
 10
78.8093583538
 20
99.721912901
 11
78.8093583538
 21
100.0219128999
  0
LINE
  5
2B4
100
AcDbEntity
  8
0
100
AcDbLine
 62
7
  6
CONTINUOUS
 10
78.8093583538
 20
100.5219128999
 11
78.8093583538
 21
100.8219129006
  0
LINE
  5
2B5
100
AcDbEntity
  8
0
100
AcDbLine
 62
7
  6
CONTINUOUS
 10
78.8093583538
 20
101.3219129006
 11
78.8093583538
 21
101.6219128995
  0
LINE
  5
2B6
100
AcDbEntity
  8
0
100
AcDbLine
 62
7
  6
CONTINUOUS
 10
78.8093583538
 20
102.1219128995
 11
78.8093583538
 21
102.4219129003
  0
LINE
  5
2B7
100
AcDbEntity
  8
0
100
AcDbLine
 62
7
  6
CONTINUOUS
 10
78.8093583538
 20
102.9219129003
 11
78.8093583538
 21
103.221912901
  0
LINE
  5
2B8
100
AcDbEntity
  8
0
100
AcDbLine
 62
7
  6
CONTINUOUS
 10
78.8093583538
 20
103.721912901
 11
78.8093583538
 21
104.0219128999
  0
LINE
  5
2B9
100
AcDbEntity
  8
0
100
AcDbLine
 62
7
  6
CONTINUOUS
 10
78.8093583538
 20
104.5219128999
 11
78.8093583538
 21
104.8219129006
  0
LINE
  5
2BA
100
AcDbEntity
  8
0
100
AcDbLine
 62
7
  6
CONTINUOUS
 10
78.8093583538
 20
105.3219129006
 11
78.8093583538
 21
105.6219128995
  0
LINE
  5
2BB
100
AcDbEntity
  8
0
100
AcDbLine
 62
7
  6
CONTINUOUS
 10
78.8093583538
 20
106.1219128995
 11
78.8093583538
 21
106.4219129003
  0
LINE
  5
2BC
100
AcDbEntity
  8
0
100
AcDbLine
 62
7
  6
CONTINUOUS
 10
78.8093583538
 20
106.9219129003
 11
78.8093583538
 21
107.221912901
  0
LINE
  5
2BD
100
AcDbEntity
  8
0
100
AcDbLine
 62
7
  6
CONTINUOUS
 10
78.8093583538
 20
107.721912901
 11
78.8093583538
 21
108.0219128999
  0
LINE
  5
2BE
100
AcDbEntity
  8
0
100
AcDbLine
 62
7
  6
CONTINUOUS
 10
78.8093583538
 20
108.5219128999
 11
78.8093583538
 21
108.8219129006
  0
LINE
  5
2BF
100
AcDbEntity
  8
0
100
AcDbLine
 62
7
  6
CONTINUOUS
 10
79.2443583543
 20
92.0121052797
 11
79.2443583543
 21
93.3219129006
  0
LINE
  5
2C0
100
AcDbEntity
  8
0
100
AcDbLine
 62
7
  6
CONTINUOUS
 10
79.2443583543
 20
93.6219128995
 11
79.2443583543
 21
94.1219128995
  0
LINE
  5
2C1
100
AcDbEntity
  8
0
100
AcDbLine
 62
7
  6
CONTINUOUS
 10
79.2443583543
 20
94.4219129003
 11
79.2443583543
 21
94.9219129003
  0
LINE
  5
2C2
100
AcDbEntity
  8
0
100
AcDbLine
 62
7
  6
CONTINUOUS
 10
79.2443583543
 20
95.221912901
 11
79.2443583543
 21
95.721912901
  0
LINE
  5
2C3
100
AcDbEntity
  8
0
100
AcDbLine
 62
7
  6
CONTINUOUS
 10
79.2443583543
 20
96.0219128999
 11
79.2443583543
 21
96.5219128999
  0
LINE
  5
2C4
100
AcDbEntity
  8
0
100
AcDbLine
 62
7
  6
CONTINUOUS
 10
79.2443583543
 20
96.8219129006
 11
79.2443583543
 21
97.3219129006
  0
LINE
  5
2C5
100
AcDbEntity
  8
0
100
AcDbLine
 62
7
  6
CONTINUOUS
 10
79.2443583543
 20
97.6219128995
 11
79.2443583543
 21
98.1219128995
  0
LINE
  5
2C6
100
AcDbEntity
  8
0
100
AcDbLine
 62
7
  6
CONTINUOUS
 10
79.2443583543
 20
98.4219129003
 11
79.2443583543
 21
98.9219129003
  0
LINE
  5
2C7
100
AcDbEntity
  8
0
100
AcDbLine
 62
7
  6
CONTINUOUS
 10
79.2443583543
 20
99.221912901
 11
79.2443583543
 21
99.721912901
  0
LINE
  5
2C8
100
AcDbEntity
  8
0
100
AcDbLine
 62
7
  6
CONTINUOUS
 10
79.2443583543
 20
100.0219128999
 11
79.2443583543
 21
100.5219128999
  0
LINE
  5
2C9
100
AcDbEntity
  8
0
100
AcDbLine
 62
7
  6
CONTINUOUS
 10
79.2443583543
 20
100.8219129006
 11
79.2443583543
 21
101.3219129006
  0
LINE
  5
2CA
100
AcDbEntity
  8
0
100
AcDbLine
 62
7
  6
CONTINUOUS
 10
79.2443583543
 20
101.6219128995
 11
79.2443583543
 21
102.1219128995
  0
LINE
  5
2CB
100
AcDbEntity
  8
0
100
AcDbLine
 62
7
  6
CONTINUOUS
 10
79.2443583543
 20
102.4219129003
 11
79.2443583543
 21
102.9219129003
  0
LINE
  5
2CC
100
AcDbEntity
  8
0
100
AcDbLine
 62
7
  6
CONTINUOUS
 10
79.2443583543
 20
103.221912901
 11
79.2443583543
 21
103.721912901
  0
LINE
  5
2CD
100
AcDbEntity
  8
0
100
AcDbLine
 62
7
  6
CONTINUOUS
 10
79.2443583543
 20
104.0219128999
 11
79.2443583543
 21
104.5219128999
  0
LINE
  5
2CE
100
AcDbEntity
  8
0
100
AcDbLine
 62
7
  6
CONTINUOUS
 10
79.2443583543
 20
104.8219129006
 11
79.2443583543
 21
105.3219129006
  0
LINE
  5
2CF
100
AcDbEntity
  8
0
100
AcDbLine
 62
7
  6
CONTINUOUS
 10
79.2443583543
 20
105.6219128995
 11
79.2443583543
 21
106.1219128995
  0
LINE
  5
2D0
100
AcDbEntity
  8
0
100
AcDbLine
 62
7
  6
CONTINUOUS
 10
79.2443583543
 20
106.4219129003
 11
79.2443583543
 21
106.9219129003
  0
LINE
  5
2D1
100
AcDbEntity
  8
0
100
AcDbLine
 62
7
  6
CONTINUOUS
 10
79.2443583543
 20
107.221912901
 11
79.2443583543
 21
107.721912901
  0
LINE
  5
2D2
100
AcDbEntity
  8
0
100
AcDbLine
 62
7
  6
CONTINUOUS
 10
79.2443583543
 20
108.0219128999
 11
79.2443583543
 21
108.5219128999
  0
LINE
  5
2D3
100
AcDbEntity
  8
0
100
AcDbLine
 62
7
  6
CONTINUOUS
 10
79.2443583543
 20
108.8219129006
 11
79.2443583543
 21
110.1317205216
  0
LINE
  5
2D4
100
AcDbEntity
  8
0
100
AcDbLine
 62
7
  6
CONTINUOUS
 10
80.0093583538
 20
110.9469128999
 11
80.0093583538
 21
110.6719128997
  0
LINE
  5
2D5
100
AcDbEntity
  8
0
100
AcDbLine
 62
7
  6
CONTINUOUS
 10
80.0093583538
 20
91.4719128999
 11
80.0093583538
 21
91.1969128997
  0
LINE
  5
2D6
100
AcDbEntity
  8
0
100
AcDbLine
 62
7
  6
CONTINUOUS
 10
80.0093583538
 20
16.3719129002
 11
80.0093583538
 21
29.5719129002
  0
LINE
  5
2D7
100
AcDbEntity
  8
0
100
AcDbLine
 62
7
  6
CONTINUOUS
 10
80.2093583541
 20
91.1969129006
 11
80.2093583541
 21
91.471912901
  0
LINE
  5
2D8
100
AcDbEntity
  8
0
100
AcDbLine
 62
7
  6
CONTINUOUS
 10
80.2093583541
 20
110.6719129003
 11
80.2093583541
 21
110.9469129006
  0
LINE
  5
2D9
100
AcDbEntity
  8
0
100
AcDbLine
 62
7
  6
CONTINUOUS
 10
26.5931878687
 20
99.8378035919
 11
30.8093583538
 21
99.9126818972
  0
LINE
  5
2DA
100
AcDbEntity
  8
0
100
AcDbLine
 62
7
  6
CONTINUOUS
 10
81.2093583541
 20
96.5219128999
 11
80.7743583536
 21
96.5219128999
  0
LINE
  5
2DB
100
AcDbEntity
  8
0
100
AcDbLine
 62
7
  6
CONTINUOUS
 10
79.2443583543
 20
96.5219128999
 11
78.8093583538
 21
96.5219128999
  0
LINE
  5
2DC
100
AcDbEntity
  8
0
100
AcDbLine
 62
7
  6
CONTINUOUS
 10
78.8093583538
 20
96.8219129006
 11
79.2443583543
 21
96.8219129006
  0
LINE
  5
2DD
100
AcDbEntity
  8
0
100
AcDbLine
 62
7
  6
CONTINUOUS
 10
80.7743583536
 20
96.8219129006
 11
81.2093583541
 21
96.8219129006
  0
LINE
  5
2DE
100
AcDbEntity
  8
0
100
AcDbLine
 62
7
  6
CONTINUOUS
 10
81.2093583541
 20
97.3219129006
 11
80.7743583536
 21
97.3219129006
  0
LINE
  5
2DF
100
AcDbEntity
  8
0
100
AcDbLine
 62
7
  6
CONTINUOUS
 10
79.2443583543
 20
97.3219129006
 11
78.8093583538
 21
97.3219129006
  0
LINE
  5
2E0
100
AcDbEntity
  8
0
100
AcDbLine
 62
7
  6
CONTINUOUS
 10
78.8093583538
 20
97.6219128995
 11
79.2443583543
 21
97.6219128995
  0
LINE
  5
2E1
100
AcDbEntity
  8
0
100
AcDbLine
 62
7
  6
CONTINUOUS
 10
80.7743583536
 20
97.6219128995
 11
81.2093583541
 21
97.6219128995
  0
LINE
  5
2E2
100
AcDbEntity
  8
0
100
AcDbLine
 62
7
  6
CONTINUOUS
 10
64.8093583538
 20
97.9841314448
 11
69.521053247
 21
97.9841314448
  0
LINE
  5
2E3
100
AcDbEntity
  8
0
100
AcDbLine
 62
7
  6
CONTINUOUS
 10
81.2093583541
 20
98.1219128995
 11
80.7743583536
 21
98.1219128995
  0
LINE
  5
2E4
100
AcDbEntity
  8
0
100
AcDbLine
 62
7
  6
CONTINUOUS
 10
79.2443583543
 20
98.1219128995
 11
78.8093583538
 21
98.1219128995
  0
LINE
  5
2E5
100
AcDbEntity
  8
0
100
AcDbLine
 62
7
  6
CONTINUOUS
 10
78.8093583538
 20
98.4219129003
 11
79.2443583543
 21
98.4219129003
  0
LINE
  5
2E6
100
AcDbEntity
  8
0
100
AcDbLine
 62
7
  6
CONTINUOUS
 10
80.7743583536
 20
98.4219129003
 11
81.2093583541
 21
98.4219129003
  0
LINE
  5
2E7
100
AcDbEntity
  8
0
100
AcDbLine
 62
7
  6
CONTINUOUS
 10
81.2093583541
 20
98.9219129003
 11
80.7743583536
 21
98.9219129003
  0
LINE
  5
2E8
100
AcDbEntity
  8
0
100
AcDbLine
 62
7
  6
CONTINUOUS
 10
79.2443583543
 20
98.9219129003
 11
78.8093583538
 21
98.9219129003
  0
LINE
  5
2E9
100
AcDbEntity
  8
0
100
AcDbLine
 62
7
  6
CONTINUOUS
 10
78.8093583538
 20
99.221912901
 11
79.2443583543
 21
99.221912901
  0
LINE
  5
2EA
100
AcDbEntity
  8
0
100
AcDbLine
 62
7
  6
CONTINUOUS
 10
80.7743583536
 20
99.221912901
 11
81.2093583541
 21
99.221912901
  0
LINE
  5
2EB
100
AcDbEntity
  8
0
100
AcDbLine
 62
7
  6
CONTINUOUS
 10
30.8268134194
 20
99.5893679662
 11
33.3093583538
 21
99.5893679662
  0
LINE
  5
2EC
100
AcDbEntity
  8
0
100
AcDbLine
 62
7
  6
CONTINUOUS
 10
81.2093583541
 20
99.721912901
 11
80.7743583536
 21
99.721912901
  0
LINE
  5
2ED
100
AcDbEntity
  8
0
100
AcDbLine
 62
7
  6
CONTINUOUS
 10
79.2443583543
 20
99.721912901
 11
78.8093583538
 21
99.721912901
  0
LINE
  5
2EE
100
AcDbEntity
  8
0
100
AcDbLine
 62
7
  6
CONTINUOUS
 10
78.8093583538
 20
100.0219128999
 11
79.2443583543
 21
100.0219128999
  0
LINE
  5
2EF
100
AcDbEntity
  8
0
100
AcDbLine
 62
7
  6
CONTINUOUS
 10
80.7743583536
 20
100.0219128999
 11
81.2093583541
 21
100.0219128999
  0
LINE
  5
2F0
100
AcDbEntity
  8
0
100
AcDbLine
 62
7
  6
CONTINUOUS
 10
81.2093583541
 20
100.5219128999
 11
80.7743583536
 21
100.5219128999
  0
LINE
  5
2F1
100
AcDbEntity
  8
0
100
AcDbLine
 62
7
  6
CONTINUOUS
 10
79.2443583543
 20
100.5219128999
 11
78.8093583538
 21
100.5219128999
  0
LINE
  5
2F2
100
AcDbEntity
  8
0
100
AcDbLine
 62
7
  6
CONTINUOUS
 10
78.8093583538
 20
100.8219129006
 11
79.2443583543
 21
100.8219129006
  0
LINE
  5
2F3
100
AcDbEntity
  8
0
100
AcDbLine
 62
7
  6
CONTINUOUS
 10
80.7743583536
 20
100.8219129006
 11
81.2093583541
 21
100.8219129006
  0
LINE
  5
2F4
100
AcDbEntity
  8
0
100
AcDbLine
 62
7
  6
CONTINUOUS
 10
80.7743583536
 20
110.1317205216
 11
80.7743583536
 21
108.8219129006
  0
LINE
  5
2F5
100
AcDbEntity
  8
0
100
AcDbLine
 62
7
  6
CONTINUOUS
 10
80.7743583536
 20
108.5219128999
 11
80.7743583536
 21
108.0219128999
  0
LINE
  5
2F6
100
AcDbEntity
  8
0
100
AcDbLine
 62
7
  6
CONTINUOUS
 10
80.7743583536
 20
107.721912901
 11
80.7743583536
 21
107.221912901
  0
LINE
  5
2F7
100
AcDbEntity
  8
0
100
AcDbLine
 62
7
  6
CONTINUOUS
 10
80.7743583536
 20
106.9219129003
 11
80.7743583536
 21
106.4219129003
  0
LINE
  5
2F8
100
AcDbEntity
  8
0
100
AcDbLine
 62
7
  6
CONTINUOUS
 10
80.7743583536
 20
106.1219128995
 11
80.7743583536
 21
105.6219128995
  0
LINE
  5
2F9
100
AcDbEntity
  8
0
100
AcDbLine
 62
7
  6
CONTINUOUS
 10
80.7743583536
 20
105.3219129006
 11
80.7743583536
 21
104.8219129006
  0
LINE
  5
2FA
100
AcDbEntity
  8
0
100
AcDbLine
 62
7
  6
CONTINUOUS
 10
80.7743583536
 20
104.5219128999
 11
80.7743583536
 21
104.0219128999
  0
LINE
  5
2FB
100
AcDbEntity
  8
0
100
AcDbLine
 62
7
  6
CONTINUOUS
 10
80.7743583536
 20
103.721912901
 11
80.7743583536
 21
103.221912901
  0
LINE
  5
2FC
100
AcDbEntity
  8
0
100
AcDbLine
 62
7
  6
CONTINUOUS
 10
80.7743583536
 20
102.9219129003
 11
80.7743583536
 21
102.4219129003
  0
LINE
  5
2FD
100
AcDbEntity
  8
0
100
AcDbLine
 62
7
  6
CONTINUOUS
 10
80.7743583536
 20
102.1219128995
 11
80.7743583536
 21
101.6219128995
  0
LINE
  5
2FE
100
AcDbEntity
  8
0
100
AcDbLine
 62
7
  6
CONTINUOUS
 10
80.7743583536
 20
101.3219129006
 11
80.7743583536
 21
100.8219129006
  0
LINE
  5
2FF
100
AcDbEntity
  8
0
100
AcDbLine
 62
7
  6
CONTINUOUS
 10
80.7743583536
 20
100.5219128999
 11
80.7743583536
 21
100.0219128999
  0
LINE
  5
300
100
AcDbEntity
  8
0
100
AcDbLine
 62
7
  6
CONTINUOUS
 10
80.7743583536
 20
99.721912901
 11
80.7743583536
 21
99.221912901
  0
LINE
  5
301
100
AcDbEntity
  8
0
100
AcDbLine
 62
7
  6
CONTINUOUS
 10
80.7743583536
 20
98.9219129003
 11
80.7743583536
 21
98.4219129003
  0
LINE
  5
302
100
AcDbEntity
  8
0
100
AcDbLine
 62
7
  6
CONTINUOUS
 10
80.7743583536
 20
98.1219128995
 11
80.7743583536
 21
97.6219128995
  0
LINE
  5
303
100
AcDbEntity
  8
0
100
AcDbLine
 62
7
  6
CONTINUOUS
 10
80.7743583536
 20
97.3219129006
 11
80.7743583536
 21
96.8219129006
  0
LINE
  5
304
100
AcDbEntity
  8
0
100
AcDbLine
 62
7
  6
CONTINUOUS
 10
80.7743583536
 20
96.5219128999
 11
80.7743583536
 21
96.0219128999
  0
LINE
  5
305
100
AcDbEntity
  8
0
100
AcDbLine
 62
7
  6
CONTINUOUS
 10
80.7743583536
 20
95.721912901
 11
80.7743583536
 21
95.221912901
  0
LINE
  5
306
100
AcDbEntity
  8
0
100
AcDbLine
 62
7
  6
CONTINUOUS
 10
80.7743583536
 20
94.9219129003
 11
80.7743583536
 21
94.4219129003
  0
LINE
  5
307
100
AcDbEntity
  8
0
100
AcDbLine
 62
7
  6
CONTINUOUS
 10
80.7743583536
 20
94.1219128995
 11
80.7743583536
 21
93.6219128995
  0
LINE
  5
308
100
AcDbEntity
  8
0
100
AcDbLine
 62
7
  6
CONTINUOUS
 10
80.7743583536
 20
93.3219129006
 11
80.7743583536
 21
92.0121052797
  0
LINE
  5
309
100
AcDbEntity
  8
0
100
AcDbLine
 62
7
  6
CONTINUOUS
 10
81.1393583538
 20
20.5719129002
 11
81.1393583538
 21
29.5719129002
  0
LINE
  5
30A
100
AcDbEntity
  8
0
100
AcDbLine
 62
7
  6
CONTINUOUS
 10
81.2093583541
 20
108.8219129006
 11
81.2093583541
 21
108.5219128999
  0
LINE
  5
30B
100
AcDbEntity
  8
0
100
AcDbLine
 62
7
  6
CONTINUOUS
 10
81.2093583541
 20
108.0219128999
 11
81.2093583541
 21
107.721912901
  0
LINE
  5
30C
100
AcDbEntity
  8
0
100
AcDbLine
 62
7
  6
CONTINUOUS
 10
81.2093583541
 20
107.221912901
 11
81.2093583541
 21
106.9219129003
  0
LINE
  5
30D
100
AcDbEntity
  8
0
100
AcDbLine
 62
7
  6
CONTINUOUS
 10
81.2093583541
 20
106.4219129003
 11
81.2093583541
 21
106.1219128995
  0
LINE
  5
30E
100
AcDbEntity
  8
0
100
AcDbLine
 62
7
  6
CONTINUOUS
 10
81.2093583541
 20
105.6219128995
 11
81.2093583541
 21
105.3219129006
  0
LINE
  5
30F
100
AcDbEntity
  8
0
100
AcDbLine
 62
7
  6
CONTINUOUS
 10
81.2093583541
 20
104.8219129006
 11
81.2093583541
 21
104.5219128999
  0
LINE
  5
310
100
AcDbEntity
  8
0
100
AcDbLine
 62
7
  6
CONTINUOUS
 10
81.2093583541
 20
104.0219128999
 11
81.2093583541
 21
103.721912901
  0
LINE
  5
311
100
AcDbEntity
  8
0
100
AcDbLine
 62
7
  6
CONTINUOUS
 10
81.2093583541
 20
103.221912901
 11
81.2093583541
 21
102.9219129003
  0
LINE
  5
312
100
AcDbEntity
  8
0
100
AcDbLine
 62
7
  6
CONTINUOUS
 10
81.2093583541
 20
102.4219129003
 11
81.2093583541
 21
102.1219128995
  0
LINE
  5
313
100
AcDbEntity
  8
0
100
AcDbLine
 62
7
  6
CONTINUOUS
 10
81.2093583541
 20
101.6219128995
 11
81.2093583541
 21
101.3219129006
  0
LINE
  5
314
100
AcDbEntity
  8
0
100
AcDbLine
 62
7
  6
CONTINUOUS
 10
81.2093583541
 20
100.8219129006
 11
81.2093583541
 21
100.5219128999
  0
LINE
  5
315
100
AcDbEntity
  8
0
100
AcDbLine
 62
7
  6
CONTINUOUS
 10
81.2093583541
 20
100.0219128999
 11
81.2093583541
 21
99.721912901
  0
LINE
  5
316
100
AcDbEntity
  8
0
100
AcDbLine
 62
7
  6
CONTINUOUS
 10
81.2093583541
 20
99.221912901
 11
81.2093583541
 21
98.9219129003
  0
LINE
  5
317
100
AcDbEntity
  8
0
100
AcDbLine
 62
7
  6
CONTINUOUS
 10
81.2093583541
 20
98.4219129003
 11
81.2093583541
 21
98.1219128995
  0
LINE
  5
318
100
AcDbEntity
  8
0
100
AcDbLine
 62
7
  6
CONTINUOUS
 10
81.2093583541
 20
97.6219128995
 11
81.2093583541
 21
97.3219129006
  0
LINE
  5
319
100
AcDbEntity
  8
0
100
AcDbLine
 62
7
  6
CONTINUOUS
 10
81.2093583541
 20
96.8219129006
 11
81.2093583541
 21
96.5219128999
  0
LINE
  5
31A
100
AcDbEntity
  8
0
100
AcDbLine
 62
7
  6
CONTINUOUS
 10
81.2093583541
 20
96.0219128999
 11
81.2093583541
 21
95.721912901
  0
LINE
  5
31B
100
AcDbEntity
  8
0
100
AcDbLine
 62
7
  6
CONTINUOUS
 10
81.2093583541
 20
95.221912901
 11
81.2093583541
 21
94.9219129003
  0
LINE
  5
31C
100
AcDbEntity
  8
0
100
AcDbLine
 62
7
  6
CONTINUOUS
 10
81.2093583541
 20
94.4219129003
 11
81.2093583541
 21
94.1219128995
  0
LINE
  5
31D
100
AcDbEntity
  8
0
100
AcDbLine
 62
7
  6
CONTINUOUS
 10
81.2093583541
 20
93.6219128995
 11
81.2093583541
 21
93.3219129006
  0
LINE
  5
31E
100
AcDbEntity
  8
0
100
AcDbLine
 62
7
  6
CONTINUOUS
 10
81.3175797562
 20
25.3719129002
 11
81.3175797562
 21
29.5719129002
  0
LINE
  5
31F
100
AcDbEntity
  8
0
100
AcDbLine
 62
7
  6
CONTINUOUS
 10
81.7093583541
 20
110.9469129006
 11
81.7093583541
 21
91.1969129006
  0
LINE
  5
320
100
AcDbEntity
  8
0
100
AcDbLine
 62
7
  6
CONTINUOUS
 10
81.9093583497
 20
91.1969129001
 11
81.90935835
 21
92.2719129006
  0
LINE
  5
321
100
AcDbEntity
  8
0
100
AcDbLine
 62
7
  6
CONTINUOUS
 10
81.9093583536
 20
109.8719129029
 11
81.9093583538
 21
110.9469129001
  0
LINE
  5
322
100
AcDbEntity
  8
0
100
AcDbLine
 62
7
  6
CONTINUOUS
 10
83.0093583538
 20
111.5719129
 11
83.0093583533
 21
109.8719129
  0
LINE
  5
323
100
AcDbEntity
  8
0
100
AcDbLine
 62
7
  6
CONTINUOUS
 10
83.0093583481
 20
92.2719128971
 11
83.0093583476
 21
90.5719129004
  0
LINE
  5
324
100
AcDbEntity
  8
0
100
AcDbLine
 62
7
  6
CONTINUOUS
 10
83.1220830294
 20
25.3719129002
 11
83.1220830294
 21
29.5719129002
  0
LINE
  5
325
100
AcDbEntity
  8
0
100
AcDbLine
 62
7
  6
CONTINUOUS
 10
83.5093583531
 20
31.3827069129
 11
83.5093583531
 21
34.5719129002
  0
LINE
  5
326
100
AcDbEntity
  8
0
100
AcDbLine
 62
7
  6
CONTINUOUS
 10
83.5093583531
 20
114.5062993778
 11
83.5093583531
 21
117.6696612636
  0
LINE
  5
327
100
AcDbEntity
  8
0
100
AcDbLine
 62
7
  6
CONTINUOUS
 10
81.2093583541
 20
101.3219129006
 11
80.7743583536
 21
101.3219129006
  0
LINE
  5
328
100
AcDbEntity
  8
0
100
AcDbLine
 62
7
  6
CONTINUOUS
 10
79.2443583543
 20
101.3219129006
 11
78.8093583538
 21
101.3219129006
  0
LINE
  5
329
100
AcDbEntity
  8
0
100
AcDbLine
 62
7
  6
CONTINUOUS
 10
78.8093583538
 20
101.6219128995
 11
79.2443583543
 21
101.6219128995
  0
LINE
  5
32A
100
AcDbEntity
  8
0
100
AcDbLine
 62
7
  6
CONTINUOUS
 10
80.7743583536
 20
101.6219128995
 11
81.2093583541
 21
101.6219128995
  0
LINE
  5
32B
100
AcDbEntity
  8
0
100
AcDbLine
 62
7
  6
CONTINUOUS
 10
81.2093583541
 20
102.1219128995
 11
80.7743583536
 21
102.1219128995
  0
LINE
  5
32C
100
AcDbEntity
  8
0
100
AcDbLine
 62
7
  6
CONTINUOUS
 10
79.2443583543
 20
102.1219128995
 11
78.8093583538
 21
102.1219128995
  0
LINE
  5
32D
100
AcDbEntity
  8
0
100
AcDbLine
 62
7
  6
CONTINUOUS
 10
78.8093583538
 20
102.4219129003
 11
79.2443583543
 21
102.4219129003
  0
LINE
  5
32E
100
AcDbEntity
  8
0
100
AcDbLine
 62
7
  6
CONTINUOUS
 10
80.7743583536
 20
102.4219129003
 11
81.2093583541
 21
102.4219129003
  0
LINE
  5
32F
100
AcDbEntity
  8
0
100
AcDbLine
 62
7
  6
CONTINUOUS
 10
81.2093583541
 20
102.9219129003
 11
80.7743583536
 21
102.9219129003
  0
LINE
  5
330
100
AcDbEntity
  8
0
100
AcDbLine
 62
7
  6
CONTINUOUS
 10
79.2443583543
 20
102.9219129003
 11
78.8093583538
 21
102.9219129003
  0
LINE
  5
331
100
AcDbEntity
  8
0
100
AcDbLine
 62
7
  6
CONTINUOUS
 10
78.8093583538
 20
103.221912901
 11
79.2443583543
 21
103.221912901
  0
LINE
  5
332
100
AcDbEntity
  8
0
100
AcDbLine
 62
7
  6
CONTINUOUS
 10
80.7743583536
 20
103.221912901
 11
81.2093583541
 21
103.221912901
  0
LINE
  5
333
100
AcDbEntity
  8
0
100
AcDbLine
 62
7
  6
CONTINUOUS
 10
81.2093583541
 20
103.721912901
 11
80.7743583536
 21
103.721912901
  0
LINE
  5
334
100
AcDbEntity
  8
0
100
AcDbLine
 62
7
  6
CONTINUOUS
 10
79.2443583543
 20
103.721912901
 11
78.8093583538
 21
103.721912901
  0
LINE
  5
335
100
AcDbEntity
  8
0
100
AcDbLine
 62
7
  6
CONTINUOUS
 10
78.8093583538
 20
104.0219128999
 11
79.2443583543
 21
104.0219128999
  0
LINE
  5
336
100
AcDbEntity
  8
0
100
AcDbLine
 62
7
  6
CONTINUOUS
 10
80.7743583536
 20
104.0219128999
 11
81.2093583541
 21
104.0219128999
  0
LINE
  5
337
100
AcDbEntity
  8
0
100
AcDbLine
 62
7
  6
CONTINUOUS
 10
81.2093583541
 20
104.5219128999
 11
80.7743583536
 21
104.5219128999
  0
LINE
  5
338
100
AcDbEntity
  8
0
100
AcDbLine
 62
7
  6
CONTINUOUS
 10
79.2443583543
 20
104.5219128999
 11
78.8093583538
 21
104.5219128999
  0
LINE
  5
339
100
AcDbEntity
  8
0
100
AcDbLine
 62
7
  6
CONTINUOUS
 10
78.8093583538
 20
104.8219129006
 11
79.2443583543
 21
104.8219129006
  0
LINE
  5
33A
100
AcDbEntity
  8
0
100
AcDbLine
 62
7
  6
CONTINUOUS
 10
80.7743583536
 20
104.8219129006
 11
81.2093583541
 21
104.8219129006
  0
LINE
  5
33B
100
AcDbEntity
  8
0
100
AcDbLine
 62
7
  6
CONTINUOUS
 10
81.2093583541
 20
105.3219129006
 11
80.7743583536
 21
105.3219129006
  0
LINE
  5
33C
100
AcDbEntity
  8
0
100
AcDbLine
 62
7
  6
CONTINUOUS
 10
79.2443583543
 20
105.3219129006
 11
78.8093583538
 21
105.3219129006
  0
LINE
  5
33D
100
AcDbEntity
  8
0
100
AcDbLine
 62
7
  6
CONTINUOUS
 10
85.4093583534
 20
117.6696612636
 11
85.4093583534
 21
114.5062993778
  0
LINE
  5
33E
100
AcDbEntity
  8
0
100
AcDbLine
 62
7
  6
CONTINUOUS
 10
85.4093583534
 20
34.5719129002
 11
85.4093583534
 21
31.3827069129
  0
LINE
  5
33F
100
AcDbEntity
  8
0
100
AcDbLine
 62
7
  6
CONTINUOUS
 10
85.843744831
 20
114.5062993778
 11
85.843744831
 21
87.6375264222
  0
LINE
  5
340
100
AcDbEntity
  8
0
100
AcDbLine
 62
7
  6
CONTINUOUS
 10
88.4471657566
 20
92.5841054978
 11
88.4471657566
 21
90.2219129006
  0
LINE
  5
341
100
AcDbEntity
  8
0
100
AcDbLine
 62
7
  6
CONTINUOUS
 10
88.8093583538
 20
116.8373392711
 11
88.8093583538
 21
114.3064865294
  0
LINE
  5
342
100
AcDbEntity
  8
0
100
AcDbLine
 62
7
  6
CONTINUOUS
 10
88.8093583538
 20
87.224859182
 11
88.8093583538
 21
56.9219129002
  0
LINE
  5
343
100
AcDbEntity
  8
0
100
AcDbLine
 62
7
  6
CONTINUOUS
 10
88.8093583538
 20
34.8373392706
 11
88.8093583538
 21
32.3064865294
  0
LINE
  5
344
100
AcDbEntity
  8
0
100
AcDbLine
 62
7
  6
CONTINUOUS
 10
89.0093583538
 20
24.5719129002
 11
89.0093583538
 21
29.5507496409
  0
LINE
  5
345
100
AcDbEntity
  8
0
100
AcDbLine
 62
7
  6
CONTINUOUS
 10
89.0093583538
 20
119.5719129002
 11
89.0093583538
 21
128.7930761588
  0
LINE
  5
346
100
AcDbEntity
  8
0
100
AcDbLine
 62
7
  6
CONTINUOUS
 10
78.8093583538
 20
105.6219128995
 11
79.2443583543
 21
105.6219128995
  0
LINE
  5
347
100
AcDbEntity
  8
0
100
AcDbLine
 62
7
  6
CONTINUOUS
 10
80.7743583536
 20
105.6219128995
 11
81.2093583541
 21
105.6219128995
  0
LINE
  5
348
100
AcDbEntity
  8
0
100
AcDbLine
 62
7
  6
CONTINUOUS
 10
81.2093583541
 20
106.1219128995
 11
80.7743583536
 21
106.1219128995
  0
LINE
  5
349
100
AcDbEntity
  8
0
100
AcDbLine
 62
7
  6
CONTINUOUS
 10
79.2443583543
 20
106.1219128995
 11
78.8093583538
 21
106.1219128995
  0
LINE
  5
34A
100
AcDbEntity
  8
0
100
AcDbLine
 62
7
  6
CONTINUOUS
 10
78.8093583538
 20
106.4219129003
 11
79.2443583543
 21
106.4219129003
  0
LINE
  5
34B
100
AcDbEntity
  8
0
100
AcDbLine
 62
7
  6
CONTINUOUS
 10
80.7743583536
 20
106.4219129003
 11
81.2093583541
 21
106.4219129003
  0
LINE
  5
34C
100
AcDbEntity
  8
0
100
AcDbLine
 62
7
  6
CONTINUOUS
 10
81.2093583541
 20
106.9219129003
 11
80.7743583536
 21
106.9219129003
  0
LINE
  5
34D
100
AcDbEntity
  8
0
100
AcDbLine
 62
7
  6
CONTINUOUS
 10
79.2443583543
 20
106.9219129003
 11
78.8093583538
 21
106.9219129003
  0
LINE
  5
34E
100
AcDbEntity
  8
0
100
AcDbLine
 62
7
  6
CONTINUOUS
 10
78.8093583538
 20
107.221912901
 11
79.2443583543
 21
107.221912901
  0
LINE
  5
34F
100
AcDbEntity
  8
0
100
AcDbLine
 62
7
  6
CONTINUOUS
 10
80.7743583536
 20
107.221912901
 11
81.2093583541
 21
107.221912901
  0
LINE
  5
350
100
AcDbEntity
  8
0
100
AcDbLine
 62
7
  6
CONTINUOUS
 10
67.508834702
 20
107.5719129002
 11
58.0919032889
 21
107.5719129002
  0
LINE
  5
351
100
AcDbEntity
  8
0
100
AcDbLine
 62
7
  6
CONTINUOUS
 10
81.2093583541
 20
107.721912901
 11
80.7743583536
 21
107.721912901
  0
LINE
  5
352
100
AcDbEntity
  8
0
100
AcDbLine
 62
7
  6
CONTINUOUS
 10
79.2443583543
 20
107.721912901
 11
78.8093583538
 21
107.721912901
  0
LINE
  5
353
100
AcDbEntity
  8
0
100
AcDbLine
 62
7
  6
CONTINUOUS
 10
78.8093583538
 20
108.0219128999
 11
79.2443583543
 21
108.0219128999
  0
LINE
  5
354
100
AcDbEntity
  8
0
100
AcDbLine
 62
7
  6
CONTINUOUS
 10
80.7743583536
 20
108.0219128999
 11
81.2093583541
 21
108.0219128999
  0
LINE
  5
355
100
AcDbEntity
  8
0
100
AcDbLine
 62
7
  6
CONTINUOUS
 10
81.2093583541
 20
108.5219128999
 11
80.7743583536
 21
108.5219128999
  0
LINE
  5
356
100
AcDbEntity
  8
0
100
AcDbLine
 62
7
  6
CONTINUOUS
 10
79.2443583543
 20
108.5219128999
 11
78.8093583538
 21
108.5219128999
  0
LINE
  5
357
100
AcDbEntity
  8
0
100
AcDbLine
 62
7
  6
CONTINUOUS
 10
78.8093583538
 20
108.8219129006
 11
79.2443583543
 21
108.8219129006
  0
LINE
  5
358
100
AcDbEntity
  8
0
100
AcDbLine
 62
7
  6
CONTINUOUS
 10
80.7743583536
 20
108.8219129006
 11
81.2093583541
 21
108.8219129006
  0
LINE
  5
359
100
AcDbEntity
  8
0
100
AcDbLine
 62
7
  6
CONTINUOUS
 10
83.0093583533
 20
109.8719129036
 11
81.9093583536
 21
109.8719129029
  0
LINE
  5
35A
100
AcDbEntity
  8
0
100
AcDbLine
 62
7
  6
CONTINUOUS
 10
78.1093583535
 20
109.8719129007
 11
77.0093583533
 21
109.8719129001
  0
LINE
  5
35B
100
AcDbEntity
  8
0
100
AcDbLine
 62
7
  6
CONTINUOUS
 10
79.2443583543
 20
110.1317205216
 11
80.7743583536
 21
110.1317205216
  0
LINE
  5
35C
100
AcDbEntity
  8
0
100
AcDbLine
 62
7
  6
CONTINUOUS
 10
90.4715509518
 20
91.5891639727
 11
90.4715509518
 21
92.5841054978
  0
LINE
  5
35D
100
AcDbEntity
  8
0
100
AcDbLine
 62
7
  6
CONTINUOUS
 10
92.3093583538
 20
128.7930761588
 11
92.3093583538
 21
123.7930761595
  0
LINE
  5
35E
100
AcDbEntity
  8
0
100
AcDbLine
 62
7
  6
CONTINUOUS
 10
92.8093583538
 20
128.2930761588
 11
92.8093583538
 21
92.2219129006
  0
LINE
  5
35F
100
AcDbEntity
  8
0
100
AcDbLine
 62
7
  6
CONTINUOUS
 10
92.8093583538
 20
24.5719129002
 11
92.8093583538
 21
55.9219128998
  0
LINE
  5
360
100
AcDbEntity
  8
0
100
AcDbLine
 62
7
  6
CONTINUOUS
 10
78.3093583538
 20
110.2719128999
 11
79.8093583538
 21
110.2719128999
  0
LINE
  5
361
100
AcDbEntity
  8
0
100
AcDbLine
 62
7
  6
CONTINUOUS
 10
79.8093583539
 20
110.4719129002
 11
78.3093583539
 21
110.4719129002
  0
LINE
  5
362
100
AcDbEntity
  8
0
100
AcDbLine
 62
7
  6
CONTINUOUS
 10
80.2093583541
 20
110.9469129006
 11
81.7093583541
 21
110.9469129006
  0
LINE
  5
363
100
AcDbEntity
  8
0
100
AcDbLine
 62
7
  6
CONTINUOUS
 10
81.7093583539
 20
111.1469129002
 11
80.2093583539
 21
111.1469129002
  0
LINE
  5
364
100
AcDbEntity
  8
0
100
AcDbLine
 62
7
  6
CONTINUOUS
 10
77.4093583538
 20
111.9719129002
 11
82.6093583538
 21
111.9719129002
  0
LINE
  5
365
100
AcDbEntity
  8
0
100
AcDbLine
 62
7
  6
CONTINUOUS
 10
19.5093583538
 20
113.572674424
 11
22.8093583538
 21
113.572674424
  0
LINE
  5
366
100
AcDbEntity
  8
0
100
AcDbLine
 62
7
  6
CONTINUOUS
 10
74.7749718762
 20
114.5062993778
 11
83.5093583531
 21
114.5062993778
  0
LINE
  5
367
100
AcDbEntity
  8
0
100
AcDbLine
 62
7
  6
CONTINUOUS
 10
85.4093583534
 20
114.5062993778
 11
85.843744831
 21
114.5062993778
  0
LINE
  5
368
100
AcDbEntity
  8
0
100
AcDbLine
 62
7
  6
CONTINUOUS
 10
49.4093583534
 20
114.5719129002
 11
47.5093583531
 21
114.5719129002
  0
LINE
  5
369
100
AcDbEntity
  8
0
100
AcDbLine
 62
7
  6
CONTINUOUS
 10
45.4093583534
 20
114.5719129002
 11
43.5093583531
 21
114.5719129002
  0
LINE
  5
36A
100
AcDbEntity
  8
0
100
AcDbLine
 62
7
  6
CONTINUOUS
 10
73.4093583534
 20
114.5723318061
 11
71.5093583531
 21
114.5723318061
  0
LINE
  5
36B
100
AcDbEntity
  8
0
100
AcDbLine
 62
7
  6
CONTINUOUS
 10
58.0919032889
 20
114.5893679658
 11
67.508834702
 21
114.5893679658
  0
LINE
  5
36C
100
AcDbEntity
  8
0
100
AcDbLine
 62
7
  6
CONTINUOUS
 10
89.1410255394
 20
88.2809878674
 11
88.8093583538
 21
90.2219129006
  0
LINE
  5
36D
100
AcDbEntity
  8
0
100
AcDbLine
 62
7
  6
CONTINUOUS
 10
74.8361796535
 20
25.5040093999
 11
74.1825370557
 21
24.3718672112
  0
LINE
  5
36E
100
AcDbEntity
  8
0
100
AcDbLine
 62
7
  6
CONTINUOUS
 10
47.5093583531
 20
117.6696612636
 11
49.4093583534
 21
117.6696612636
  0
LINE
  5
36F
100
AcDbEntity
  8
0
100
AcDbLine
 62
7
  6
CONTINUOUS
 10
83.5093583531
 20
117.6696612636
 11
85.4093583534
 21
117.6696612636
  0
LINE
  5
370
100
AcDbEntity
  8
0
100
AcDbLine
 62
7
  6
CONTINUOUS
 10
43.5093583531
 20
117.7611188876
 11
45.4093583534
 21
117.7611188876
  0
LINE
  5
371
100
AcDbEntity
  8
0
100
AcDbLine
 62
7
  6
CONTINUOUS
 10
71.5093583531
 20
117.7611188876
 11
73.4093583534
 21
117.7611188876
  0
LINE
  5
372
100
AcDbEntity
  8
0
100
AcDbLine
 62
7
  6
CONTINUOUS
 10
22.8093583538
 20
118.5719129002
 11
19.5093583538
 21
118.5719129002
  0
LINE
  5
373
100
AcDbEntity
  8
0
100
AcDbLine
 62
7
  6
CONTINUOUS
 10
90.4715509518
 20
91.5891639727
 11
90.9948288976
 21
90.2286413132
  0
LINE
  5
374
100
AcDbEntity
  8
0
100
AcDbLine
 62
7
  6
CONTINUOUS
 10
30.8093583536
 20
119.5719129002
 11
23.3006321507
 21
119.4408475968
  0
LINE
  5
375
100
AcDbEntity
  8
0
100
AcDbLine
 62
7
  6
CONTINUOUS
 10
30.8093583538
 20
119.5719129002
 11
92.8093583538
 21
119.5719129002
  0
LINE
  5
376
100
AcDbEntity
  8
0
100
AcDbLine
 62
7
  6
CONTINUOUS
 10
92.3136303174
 20
123.7930761588
 11
89.0093583538
 21
123.7930761588
  0
LINE
  5
377
100
AcDbEntity
  8
0
100
AcDbLine
 62
7
  6
CONTINUOUS
 10
70.2094040402
 20
20.3987341972
 11
69.077261859
 21
19.7450916047
  0
LINE
  5
378
100
AcDbEntity
  8
0
100
AcDbLine
 62
7
  6
CONTINUOUS
 10
89.0093583538
 20
127.7352379261
 11
92.3093583538
 21
127.7352379261
  0
LINE
  5
379
100
AcDbEntity
  8
0
100
AcDbLine
 62
7
  6
CONTINUOUS
 10
89.0093583538
 20
128.2876908754
 11
92.3093583538
 21
128.2876908754
  0
LINE
  5
37A
100
AcDbEntity
  8
0
100
AcDbLine
 62
7
  6
CONTINUOUS
 10
89.0093583538
 20
128.7930761588
 11
92.3093583538
 21
128.7930761588
  0
ARC
  5
37B
100
AcDbEntity
  8
0
100
AcDbCircle
 62
7
  6
CONTINUOUS
 10
70.5093583538
 20
24.0719129002
 40
5.0
100
AcDbArc
 50
270.0
 51
360.0
  0
ARC
  5
37C
100
AcDbEntity
  8
0
100
AcDbCircle
 62
7
  6
CONTINUOUS
 10
70.5093583538
 20
24.0719129002
 40
4.0
100
AcDbArc
 50
270.0
 51
360.0
  0
CIRCLE
  5
37D
100
AcDbEntity
  8
0
100
AcDbCircle
 62
7
  6
CONTINUOUS
 10
50.8093583538
 20
115.5719129002
 40
1.2849101299
  0
CIRCLE
  5
37E
100
AcDbEntity
  8
0
100
AcDbCircle
 62
7
  6
CONTINUOUS
 10
88.8093583538
 20
115.5719129002
 40
1.2849101299
  0
CIRCLE
  5
37F
100
AcDbEntity
  8
0
100
AcDbCircle
 62
7
  6
CONTINUOUS
 10
50.8093583538
 20
33.5719129002
 40
1.2849101294
  0
CIRCLE
  5
380
100
AcDbEntity
  8
0
100
AcDbCircle
 62
7
  6
CONTINUOUS
 10
88.8093583538
 20
33.5719129002
 40
1.2849101294
  0
ARC
  5
381
100
AcDbEntity
  8
0
100
AcDbCircle
 62
7
  6
CONTINUOUS
 10
87.9593583538
 20
88.0719129002
 40
1.2
100
AcDbArc
 50
315.0994720439
 51
9.6970971909
  0
ARC
  5
382
100
AcDbEntity
  8
0
100
AcDbCircle
 62
7
  6
CONTINUOUS
 10
23.3093583538
 20
30.2029020512
 40
0.5
100
AcDbArc
 50
180.0
 51
269.0000000002
  0
ARC
  5
383
100
AcDbEntity
  8
0
100
AcDbCircle
 62
7
  6
CONTINUOUS
 10
23.3093583538
 20
118.9409237492
 40
0.5
100
AcDbArc
 50
90.999999989
 51
180.0
  0
ARC
  5
384
100
AcDbEntity
  8
0
100
AcDbCircle
 62
7
  6
CONTINUOUS
 10
92.3093583538
 20
123.2930761588
 40
0.5
100
AcDbArc
 50
0.0
 51
90.0
  0
ARC
  5
385
100
AcDbEntity
  8
0
100
AcDbCircle
 62
7
  6
CONTINUOUS
 10
92.3093583538
 20
128.2930761588
 40
0.5
100
AcDbArc
 50
0.0
 51
90.0
  0
ARC
  5
386
100
AcDbEntity
  8
0
100
AcDbCircle
 62
7
  6
CONTINUOUS
 10
77.4095240531
 20
90.5720785995
 40
0.4001657336
100
AcDbArc
 50
180.0237204207
 51
269.9999755261
  0
ARC
  5
387
100
AcDbEntity
  8
0
100
AcDbCircle
 62
7
  6
CONTINUOUS
 10
82.6091926545
 20
90.5720785995
 40
0.4001657336
100
AcDbArc
 50
270.0237248142
 51
359.9762708212
  0
ARC
  5
388
100
AcDbEntity
  8
0
100
AcDbCircle
 62
7
  6
CONTINUOUS
 10
82.6091926545
 20
111.5717472009
 40
0.4001657336
100
AcDbArc
 50
0.0237247665
 51
89.9999755261
  0
ARC
  5
389
100
AcDbEntity
  8
0
100
AcDbCircle
 62
7
  6
CONTINUOUS
 10
77.409524053
 20
111.571747201
 40
0.4001657335
100
AcDbArc
 50
90.0000245211
 51
179.9762751026
  0
ARC
  5
38A
100
AcDbEntity
  8
0
100
AcDbCircle
 62
7
  6
CONTINUOUS
 10
79.8093583538
 20
91.4719129002
 40
0.4
100
AcDbArc
 50
359.9999997858
 51
89.9999995002
  0
ARC
  5
38B
100
AcDbEntity
  8
0
100
AcDbCircle
 62
7
  6
CONTINUOUS
 10
79.8093583538
 20
110.6719129002
 40
0.4
100
AcDbArc
 50
269.9999997851
 51
0.0000002292
  0
ARC
  5
38C
100
AcDbEntity
  8
0
100
AcDbCircle
 62
7
  6
CONTINUOUS
 10
81.7092755042
 20
91.1969957498
 40
0.2000828668
100
AcDbArc
 50
270.0237248252
 51
359.9999774484
  0
ARC
  5
38D
100
AcDbEntity
  8
0
100
AcDbCircle
 62
7
  6
CONTINUOUS
 10
80.2094412033
 20
91.1969957497
 40
0.2000828667
100
AcDbArc
 50
180.0237249715
 51
269.9999817181
  0
ARC
  5
38E
100
AcDbEntity
  8
0
100
AcDbCircle
 62
7
  6
CONTINUOUS
 10
79.8092755041
 20
91.4718300505
 40
0.2000828668
100
AcDbArc
 50
0.0237247534
 51
89.9999817637
  0
ARC
  5
38F
100
AcDbEntity
  8
0
100
AcDbCircle
 62
7
  6
CONTINUOUS
 10
78.3094412034
 20
91.8719957498
 40
0.2000828668
100
AcDbArc
 50
180.0237092539
 51
269.9999817404
  0
ARC
  5
390
100
AcDbEntity
  8
0
100
AcDbCircle
 62
7
  6
CONTINUOUS
 10
78.3094412035
 20
110.2718300505
 40
0.2000828668
100
AcDbArc
 50
90.0000182344
 51
179.999981802
  0
ARC
  5
391
100
AcDbEntity
  8
0
100
AcDbCircle
 62
7
  6
CONTINUOUS
 10
79.8092755043
 20
110.6719957497
 40
0.2000828667
100
AcDbArc
 50
270.0237248629
 51
359.9999817254
  0
ARC
  5
392
100
AcDbEntity
  8
0
100
AcDbCircle
 62
7
  6
CONTINUOUS
 10
80.2094412035
 20
110.9468300505
 40
0.2000828668
100
AcDbArc
 50
90.0000182312
 51
179.9999817615
  0
ARC
  5
393
100
AcDbEntity
  8
0
100
AcDbCircle
 62
7
  6
CONTINUOUS
 10
81.7092755042
 20
110.9468300506
 40
0.2000828668
100
AcDbArc
 50
0.0237248128
 51
89.9999817223
  0
SPLINE
  5
394
100
AcDbEntity
  8
0
100
AcDbSpline
 62
7
  6
CONTINUOUS
 70
0
 71
3
 72
11
 73
7
 74
0
 42
0.0000001
 43
0.0000001
 44
0.0000000001
 40
0.0
 40
0.0
 40
0.0
 40
0.0
 40
0.2480329412
 40
0.4972226981
 40
0.7480393314
 40
1.0
 40
1.0
 40
1.0
 40
1.0
 10
92.8093583538
 20
127.7961220678
 30
0.0
 10
92.8093583538
 20
127.8600976919
 30
0.0
 10
92.783182049
 20
127.9897828877
 30
0.0
 10
92.6715849659
 20
128.1531823126
 30
0.0
 10
92.5054159898
 20
128.2622590635
 30
0.0
 10
92.3743470644
 20
128.2876908754
 30
0.0
 10
92.3093583538
 20
128.2876908754
 30
0.0
  0
SPLINE
  5
395
100
AcDbEntity
  8
0
100
AcDbSpline
 62
7
  6
CONTINUOUS
 70
0
 71
3
 72
13
 73
9
 74
0
 42
0.0000001
 43
0.0000001
 44
0.0000000001
 40
0.0
 40
0.0
 40
0.0
 40
0.0
 40
0.3321124088
 40
0.6232647772
 40
0.7436830821
 40
0.8448772529
 40
0.9282759637
 40
1.0
 40
1.0
 40
1.0
 40
1.0
 10
92.3093583538
 20
127.7352373842
 30
0.0
 10
92.373355116
 20
127.7352373842
 30
0.0
 10
92.4935764483
 20
127.7258727574
 30
0.0
 10
92.633759399
 20
127.6903775725
 30
0.0
 10
92.7228695077
 20
127.6468307761
 30
0.0
 10
92.7704788438
 20
127.6115772901
 30
0.0
 10
92.8014387264
 20
127.5719983763
 30
0.0
 10
92.8093583538
 20
127.5419179825
 30
0.0
 10
92.8093583538
 20
127.5280970412
 30
0.0
  0
ELLIPSE
  5
396
100
AcDbEntity
  8
0
100
AcDbEllipse
 62
7
  6
CONTINUOUS
 10
70.3093278882
 20
18.9183758297
 30
0.0
 11
0.1000609173
 21
-0.1733105926
 31
0.0
 40
0.9993911978
 41
5.2362515367
 42
7.330119119
  0
ELLIPSE
  5
397
100
AcDbEntity
  8
0
100
AcDbEllipse
 62
7
  6
CONTINUOUS
 10
75.6628954243
 20
24.2719433659
 30
0.0
 11
0.1733105926
 21
-0.1000609173
 31
0.0
 40
0.9993911978
 41
5.2362515171
 42
7.3301191338
  0
ELLIPSE
  5
398
100
AcDbEntity
  8
0
100
AcDbEllipse
 62
7
  6
CONTINUOUS
 10
75.0093583538
 20
25.4039027766
 30
0.0
 11
0.0
 21
0.2001218346
 31
0.0
 40
0.9993911978
 41
5.2362514996
 42
7.3301191148
  0
ELLIPSE
  5
399
100
AcDbEntity
  8
0
100
AcDbEllipse
 62
7
  6
CONTINUOUS
 10
74.3558212833
 20
24.2719433659
 30
0.0
 11
-0.1733105926
 21
-0.1000609173
 31
0.0
 40
0.9993911978
 41
5.2362514822
 42
7.3301190972
  0
ELLIPSE
  5
39A
100
AcDbEntity
  8
0
100
AcDbEllipse
 62
7
  6
CONTINUOUS
 10
70.3093278882
 20
20.2254499707
 30
0.0
 11
0.1000609173
 21
0.1733105926
 31
0.0
 40
0.9993911978
 41
5.2362514997
 42
7.3301191464
  0
ELLIPSE
  5
39B
100
AcDbEntity
  8
0
100
AcDbEllipse
 62
7
  6
CONTINUOUS
 10
69.1773684774
 20
19.5719129002
 30
0.0
 11
-0.2001218346
 21
-0.0
 31
0.0
 40
0.9993911978
 41
5.2362514678
 42
7.3301191073
  0
ENDSEC
  0
SECTION
  2
OBJECTS
  0
DICTIONARY
  5
C
100
AcDbDictionary
280
0
281
1
  3
ACAD_GROUP
350
D
  3
ACAD_MLINESTYLE
350
17
  3
ACAD_LAYOUT
350
1A
  3
ACAD_PLOTSETTINGS
350
19
  3
ACAD_PLOTSTYLENAME
350
E
  0
DICTIONARY
  5
D
102
{ACAD_REACTORS
330
C
102
}
100
AcDbDictionary
280
0
281
1
  0
ACDBDICTIONARYWDFLT
  5
E
102
{ACAD_REACTORS
330
C
102
}
100
AcDbDictionary
281
1
  3
Normal
350
F
100
AcDbDictionaryWithDefault
340
F
  0
DICTIONARY
  5
17
102
{ACAD_REACTORS
330
C
102
}
100
AcDbDictionary
280
0
281
1
  3
Standard
350
18
  0
DICTIONARY
  5
19
102
{ACAD_REACTORS
330
C
102
}
100
AcDbDictionary
281
1
  0
DICTIONARY
  5
1A
102
{ACAD_REACTORS
330
C
102
}
100
AcDbDictionary
281
1
  3
Model
350
39C
  3
Layout1
350
39D
  0
ACDBPLACEHOLDER
  5
F
102
{ACAD_REACTORS
330
E
102
}
  0
MLINESTYLE
  5
18
102
{ACAD_REACTORS
330
17
102
}
100
AcDbMlineStyle
  2
STANDARD
 70
0
  3

 62
256
 51
90.0
 52
90.0
 71
2
 49
0.5
 62
256
  6
BYLAYER
 49
-0.5
 62
256
  6
BYLAYER
  0
LAYOUT
  5
39C
102
{ACAD_REACTORS
330
1A
102
}
100
AcDbPlotSettings
  1

  2
none_device
  4

  6

 40
0.0
 41
0.0
 42
0.0
 43
0.0
 44
210.0
 45
297.0
 46
0.0
 47
0.0
 48
0.0
 49
0.0
140
0.0
141
0.0
142
1.0
143
1.0
 70
1024
 72
1
 73
0
 74
0
  7

 75
0
147
1.0
148
0.0
149
0.0
100
AcDbLayout
  1
Model
 70
0
 71
0
 10
0.0
 20
0.0
 11
210.0
 21
297.0
 12
0.0
 22
0.0
 32
0.0
 14
0.0
 24
0.0
 34
0.0
 15
0.0
 25
0.0
 35
0.0
146
0.0
 13
0.0
 23
0.0
 33
0.0
 16
1.0
 26
0.0
 36
0.0
 17
0.0
 27
1.0
 37
0.0
 76
0
330
210
345
0
346
0
  0
LAYOUT
  5
39D
102
{ACAD_REACTORS
330
1A
102
}
100
AcDbPlotSettings
  1

  2
none_device
  4

  6

 40
0.0
 41
0.0
 42
0.0
 43
0.0
 44
210.0
 45
297.0
 46
0.0
 47
0.0
 48
0.0
 49
0.0
140
0.0
141
0.0
142
1.0
143
1.0
 70
0
 72
1
 73
0
 74
0
  7

 75
0
147
1.0
148
0.0
149
0.0
100
AcDbLayout
  1
Layout1
 70
0
 71
1
 10
0.0
 20
0.0
 11
210.0
 21
297.0
 12
0.0
 22
0.0
 32
0.0
 14
0.0
 24
0.0
 34
0.0
 15
0.0
 25
0.0
 35
0.0
146
0.0
 13
0.0
 23
0.0
 33
0.0
 16
1.0
 26
0.0
 36
0.0
 17
0.0
 27
1.0
 37
0.0
 76
0
330
211
345
0
346
0
  0
ENDSEC
  0
EOF
