999
DXF file: C:\Users\sesa63760\Dev\_Creo\CAD\MCADFD0002497_3D-CAD\drw0001_7.dxf
999
Pro/ENGINEER 2019471 by Parametric Technology Corporation
  0
SECTION
  2
HEADER
  9
$ACADVER
  1
AC1024
  9
$DWGCODEPAGE
  3
ANSI_1252
  9
$EXTMAX
 10
88.1405964034
 20
124.655986342
 30
0.0
  9
$EXTMIN
 10
0.0
 20
0.0
 30
0.0
  9
$LIMMIN
 10
0.0
 20
0.0
  9
$LIMMAX
 10
88.1405964034
 20
124.655986342
  9
$VIEWCTR
 10
44.0702982017
 20
62.327993171
  9
$VIEWSIZE
 40
124.655986342
  9
$CLAYER
  8
0
  9
$LTSCALE
 40
8.1257235541
  9
$CELTYPE
  6
BYLAYER
  9
$DIMSCALE
 40
1.0
  9
$DIMASZ
 40
1.0492928143
  9
$DIMEXO
 40
1.0
  9
$DIMDLI
 40
5.6141362738
  9
$DIMEXE
 40
1.0
  9
$DIMCEN
 40
1.3296638543
  9
$DIMLFAC
 40
1.0
  9
$DIMBLK
  1
_FILLED
  9
$DIMALT
 70
0
  9
$DIMALTF
 40
0.0393700787
  9
$DIMTXT
 40
1.4690099401
  9
$DIMTOL
 70
1
  9
$DIMLIM
 70
0
  9
$DIMTFAC
 40
1.0
  9
$DIMTP
 40
0.01
  9
$DIMTM
 40
0.01
  9
$DIMGAP
 40
0.625
  9
$DIMDSEP
 70
46
  9
$AUNITS
 70
0
  9
$PDMODE
 70
3
  9
$PDSIZE
 40
0.3125
  9
$HANDSEED
  5
31E
  9
$TILEMODE
 70
1
  9
$MEASUREMENT
 70
1
  9
$INSUNITS
 70
4
  0
ENDSEC
  0
SECTION
  2
CLASSES
  0
CLASS
  1
ACDBDICTIONARYWDFLT
  2
AcDbDictionaryWithDefault
  3
AutoCAD 2000
 90
0
 91
1
280
0
281
0
  0
CLASS
  1
ACDBPLACEHOLDER
  2
AcDbPlaceHolder
  3
AutoCAD 2000
 90
0
 91
1
280
0
281
0
  0
CLASS
  1
LAYOUT
  2
AcDbLayout
  3
AutoCAD 2000
 90
0
 91
0
280
0
281
0
  0
ENDSEC
  0
SECTION
  2
TABLES
  0
TABLE
  2
VPORT
  5
8
100
AcDbSymbolTable
 70
2
  0
VPORT
  5
1F4
100
AcDbSymbolTableRecord
100
AcDbViewportTableRecord
  2
*ACTIVE
 70
0
 10
0.0
 20
0.0
 11
1.0
 21
1.0
 12
44.0702982017
 22
62.327993171
 13
0.0
 23
0.0
 14
1.0
 24
1.0
 15
0.0
 25
0.0
 16
0.0
 26
0.0
 36
1.0
 17
0.0
 27
0.0
 37
0.0
 40
124.655986342
 41
0.7070707071
 42
50.0
 43
0.0
 44
0.0
 50
0.0
 51
0.0
 71
0
 72
100
 73
1
 74
1
 75
0
 76
0
 77
0
 78
0
  0
ENDTAB
  0
TABLE
  2
LTYPE
  5
5
100
AcDbSymbolTable
 70
6
  0
LTYPE
  5
14
100
AcDbSymbolTableRecord
100
AcDbLinetypeTableRecord
  2
BYBLOCK
 70
0
  3

 72
65
 73
0
 40
0.0
  0
LTYPE
  5
15
100
AcDbSymbolTableRecord
100
AcDbLinetypeTableRecord
  2
BYLAYER
 70
0
  3

 72
65
 73
0
 40
0.0
  0
LTYPE
  5
16
100
AcDbSymbolTableRecord
100
AcDbLinetypeTableRecord
  2
CONTINUOUS
 70
64
  3
Solid line
 72
65
 73
0
 40
0.0
  0
LTYPE
  5
1F5
100
AcDbSymbolTableRecord
100
AcDbLinetypeTableRecord
  2
CENTER
 70
64
  3
____ _ ____ _ ____ _ ____ _ ____ _ ____ _ ____
 72
65
 73
4
 40
0.6
 49
0.375
 74
0
 49
-0.075
 74
0
 49
0.075
 74
0
 49
-0.075
 74
0
  0
LTYPE
  5
1F6
100
AcDbSymbolTableRecord
100
AcDbLinetypeTableRecord
  2
HIDDEN
 70
64
  3
- - - - - - - - - - - - - - - - - - - -
 72
65
 73
2
 40
0.2
 49
0.1
 74
0
 49
-0.1
 74
0
  0
LTYPE
  5
1F7
100
AcDbSymbolTableRecord
100
AcDbLinetypeTableRecord
  2
PHANTOM
 70
64
  3
_____ _ _ _____ _ _ _____ _ _ _____
 72
65
 73
6
 40
0.8
 49
0.45
 74
0
 49
-0.05
 74
0
 49
0.1
 74
0
 49
-0.05
 74
0
 49
0.1
 74
0
 49
-0.05
 74
0
  0
LTYPE
  5
1F8
100
AcDbSymbolTableRecord
100
AcDbLinetypeTableRecord
  2
DOT
 70
64
  3
. . . . . . . . . . . . . . . . . . . .
 72
65
 73
2
 40
0.2
 49
0.1
 74
0
 49
-0.1
 74
0
  0
LTYPE
  5
1F9
100
AcDbSymbolTableRecord
100
AcDbLinetypeTableRecord
  2
DASHED
 70
64
  3
- - - - - - - - - - - - - - - - - - - -
 72
65
 73
2
 40
0.2
 49
0.1
 74
0
 49
-0.1
 74
0
  0
ENDTAB
  0
TABLE
  2
LAYER
  5
2
100
AcDbSymbolTable
 70
36
  0
LAYER
  5
10
100
AcDbSymbolTableRecord
100
AcDbLayerTableRecord
  2
0
 70
0
 62
7
  6
CONTINUOUS
370
-3
390
F
  0
LAYER
  5
1FA
100
AcDbSymbolTableRecord
100
AcDbLayerTableRecord
  2
DEFAULT_1
 70
0
 62
7
  6
CENTER
370
-3
390
F
  0
LAYER
  5
1FB
100
AcDbSymbolTableRecord
100
AcDbLayerTableRecord
  2
DEFAULT_2
 70
0
 62
8
  6
HIDDEN
370
-3
390
F
  0
LAYER
  5
1FC
100
AcDbSymbolTableRecord
100
AcDbLayerTableRecord
  2
DEFAULT_3
 70
0
 62
7
  6
PHANTOM
370
-3
390
F
  0
LAYER
  5
1FD
100
AcDbSymbolTableRecord
100
AcDbLayerTableRecord
  2
00_COMPONENTS
 70
0
 62
7
  6
CONTINUOUS
370
-3
390
F
  0
LAYER
  5
1FE
100
AcDbSymbolTableRecord
100
AcDbLayerTableRecord
  2
01_1_DEFAULT_DATUMS
 70
0
 62
7
  6
CONTINUOUS
370
-3
390
F
  0
LAYER
  5
1FF
100
AcDbSymbolTableRecord
100
AcDbLayerTableRecord
  2
01_PLANES
 70
0
 62
7
  6
CONTINUOUS
370
-3
390
F
  0
LAYER
  5
200
100
AcDbSymbolTableRecord
100
AcDbLayerTableRecord
  2
02_COORD_SYS
 70
0
 62
7
  6
CONTINUOUS
370
-3
390
F
  0
LAYER
  5
201
100
AcDbSymbolTableRecord
100
AcDbLayerTableRecord
  2
03_AXES
 70
0
 62
7
  6
CONTINUOUS
370
-3
390
F
  0
LAYER
  5
202
100
AcDbSymbolTableRecord
100
AcDbLayerTableRecord
  2
04_POINTS
 70
0
 62
7
  6
CONTINUOUS
370
-3
390
F
  0
LAYER
  5
203
100
AcDbSymbolTableRecord
100
AcDbLayerTableRecord
  2
05_CURVES
 70
0
 62
7
  6
CONTINUOUS
370
-3
390
F
  0
LAYER
  5
204
100
AcDbSymbolTableRecord
100
AcDbLayerTableRecord
  2
06_SURFS
 70
0
 62
7
  6
CONTINUOUS
370
-3
390
F
  0
LAYER
  5
205
100
AcDbSymbolTableRecord
100
AcDbLayerTableRecord
  2
07_COSMETICS
 70
0
 62
7
  6
CONTINUOUS
370
-3
390
F
  0
LAYER
  5
206
100
AcDbSymbolTableRecord
100
AcDbLayerTableRecord
  2
10_NOTES
 70
0
 62
7
  6
CONTINUOUS
370
-3
390
F
  0
LAYER
  5
207
100
AcDbSymbolTableRecord
100
AcDbLayerTableRecord
  2
11_NOTES_PUB
 70
0
 62
7
  6
CONTINUOUS
370
-3
390
F
  0
LAYER
  5
208
100
AcDbSymbolTableRecord
100
AcDbLayerTableRecord
  2
13_REF_GTOL
 70
0
 62
7
  6
CONTINUOUS
370
-3
390
F
  0
LAYER
  5
209
100
AcDbSymbolTableRecord
100
AcDbLayerTableRecord
  2
16_MISC
 70
0
 62
7
  6
CONTINUOUS
370
-3
390
F
  0
LAYER
  5
20A
100
AcDbSymbolTableRecord
100
AcDbLayerTableRecord
  2
17_NO_PRINT
 70
0
 62
7
  6
CONTINUOUS
370
-3
390
F
  0
LAYER
  5
20B
100
AcDbSymbolTableRecord
100
AcDbLayerTableRecord
  2
18_DATUM_CAMS_JOINTS
 70
0
 62
7
  6
CONTINUOUS
370
-3
390
F
  0
LAYER
  5
20C
100
AcDbSymbolTableRecord
100
AcDbLayerTableRecord
  2
19_DATUM_FUNCTIONAL
 70
0
 62
7
  6
CONTINUOUS
370
-3
390
F
  0
LAYER
  5
20D
100
AcDbSymbolTableRecord
100
AcDbLayerTableRecord
  2
20_DATUM_KINEMATIC_SCHEME
 70
0
 62
7
  6
CONTINUOUS
370
-3
390
F
  0
ENDTAB
  0
TABLE
  2
STYLE
  5
3
100
AcDbSymbolTable
 70
1
  0
STYLE
  5
11
100
AcDbSymbolTableRecord
100
AcDbTextStyleTableRecord
  2
STANDARD
 70
0
 40
0.0
 41
0.8
 50
0.0
 71
0
 42
0.2
  3
txt
  4

  0
STYLE
  5
20E
100
AcDbSymbolTableRecord
100
AcDbTextStyleTableRecord
  2
TEXTSTYLE_1
 70
0
 40
0.0
 41
0.8
 50
0.0
 71
0
 42
0.2
  3
gdt
  4

  0
ENDTAB
  0
TABLE
  2
VIEW
  5
6
100
AcDbSymbolTable
 70
0
  0
ENDTAB
  0
TABLE
  2
UCS
  5
7
100
AcDbSymbolTable
 70
0
  0
ENDTAB
  0
TABLE
  2
APPID
  5
9
100
AcDbSymbolTable
 70
1
  0
APPID
  5
20F
100
AcDbSymbolTableRecord
100
AcDbRegAppTableRecord
  2
ACAD
 70
0
  0
ENDTAB
  0
TABLE
  2
BLOCK_RECORD
  5
1
100
AcDbSymbolTable
 70
0
  0
BLOCK_RECORD
  5
210
100
AcDbSymbolTableRecord
100
AcDbBlockTableRecord
  2
*Model_Space
  0
BLOCK_RECORD
  5
211
100
AcDbSymbolTableRecord
100
AcDbBlockTableRecord
  2
*Paper_Space
  0
BLOCK_RECORD
  5
212
100
AcDbSymbolTableRecord
100
AcDbBlockTableRecord
  2
_FILLED
  0
ENDTAB
  0
TABLE
  2
DIMSTYLE
  5
A
100
AcDbSymbolTable
 70
1
100
AcDbDimStyleTable
 71
0
  0
DIMSTYLE
105
213
100
AcDbSymbolTableRecord
100
AcDbDimStyleTableRecord
  2
STANDARD
 70
0
  3

  4

 40
1.0
 41
1.0492928143
 42
1.0
 43
0.38
 44
1.0
 45
0.0
 46
0.0
 47
0.01
 48
0.01
140
1.4690099401
141
0.09
142
0.0
143
25.4
144
1.0
145
0.0
146
1.0
147
0.625
 71
1
 72
0
 73
0
 74
0
 75
0
 76
0
 77
1
 78
8
 79
2
170
0
171
1
172
0
173
0
174
0
175
0
176
0
177
0
178
0
270
2
179
2
271
2
272
2
273
2
274
2
275
0
280
0
281
0
282
0
283
1
284
8
285
0
286
0
287
3
288
0
340
11
278
46
341
212
342
212
343
212
344
212
  0
ENDTAB
  0
ENDSEC
  0
SECTION
  2
BLOCKS
  0
BLOCK
  5
20
100
AcDbEntity
  8
0
100
AcDbBlockBegin
  2
*Model_Space
 70
0
 10
0.0
 20
0.0
 30
0.0
  3
*Model_Space
  1

  0
ENDBLK
  5
21
100
AcDbEntity
  8
0
100
AcDbBlockEnd
  0
BLOCK
  5
1C
100
AcDbEntity
  8
0
100
AcDbBlockBegin
  2
*Paper_Space
 70
0
 10
0.0
 20
0.0
 30
0.0
  3
*Paper_Space
  1

  0
ENDBLK
  5
1D
100
AcDbEntity
  8
0
100
AcDbBlockEnd
  0
BLOCK
  5
214
100
AcDbEntity
  8
0
100
AcDbBlockBegin
  2
_FILLED
 70
64
 10
0.0
 20
0.0
  3
_FILLED
  1

  0
SOLID
  5
215
100
AcDbEntity
  8
0
  6
BYBLOCK
 62
0
100
AcDbTrace
 10
0.0
 20
0.0
 11
-1.0
 21
0.25
 12
-1.0
 22
-0.25
 13
-1.0
 23
-0.25
  0
ENDBLK
  5
216
100
AcDbEntity
  8
0
  6
BYBLOCK
 62
0
100
AcDbBlockEnd
  0
ENDSEC
  0
SECTION
  2
ENTITIES
  0
LINE
  5
217
100
AcDbEntity
  8
0
100
AcDbLine
 62
7
  6
CONTINUOUS
 10
45.10017591
 20
9.230951253
 11
60.34017591
 21
9.230951253
  0
LINE
  5
218
100
AcDbEntity
  8
0
100
AcDbLine
 62
7
  6
CONTINUOUS
 10
60.34017591
 20
9.540951253
 11
58.2171116604
 21
9.540951253
  0
LINE
  5
219
100
AcDbEntity
  8
0
100
AcDbLine
 62
7
  6
CONTINUOUS
 10
57.3832401596
 20
9.540951253
 11
53.1371116604
 21
9.540951253
  0
LINE
  5
21A
100
AcDbEntity
  8
0
100
AcDbLine
 62
7
  6
CONTINUOUS
 10
52.3032401596
 20
9.540951253
 11
48.0255423317
 21
9.540951253
  0
LINE
  5
21B
100
AcDbEntity
  8
0
100
AcDbLine
 62
7
  6
CONTINUOUS
 10
47.2548094883
 20
9.540951253
 11
45.10017591
 21
9.540951253
  0
LINE
  5
21C
100
AcDbEntity
  8
0
100
AcDbLine
 62
7
  6
CONTINUOUS
 10
60.34017591
 20
10.730951253
 11
45.10017591
 21
10.730951253
  0
LINE
  5
21D
100
AcDbEntity
  8
0
100
AcDbLine
 62
7
  6
CONTINUOUS
 10
46.2326964769
 20
14.130951253
 11
48.9676553431
 21
14.130951253
  0
LINE
  5
21E
100
AcDbEntity
  8
0
100
AcDbLine
 62
7
  6
CONTINUOUS
 10
51.3326964769
 20
14.130951253
 11
54.0676553431
 21
14.130951253
  0
LINE
  5
21F
100
AcDbEntity
  8
0
100
AcDbLine
 62
7
  6
CONTINUOUS
 10
56.4326964769
 20
14.130951253
 11
59.1676553431
 21
14.130951253
  0
LINE
  5
220
100
AcDbEntity
  8
0
100
AcDbLine
 62
7
  6
CONTINUOUS
 10
60.5376432111
 20
14.4809512521
 11
45.3524241409
 21
14.4809512521
  0
LINE
  5
221
100
AcDbEntity
  8
0
100
AcDbLine
 62
7
  6
CONTINUOUS
 10
43.0630432113
 20
14.4809512521
 11
27.8778241412
 21
14.4809512521
  0
LINE
  5
222
100
AcDbEntity
  8
0
100
AcDbLine
 62
7
  6
CONTINUOUS
 10
61.7101759065
 20
16.1309512524
 11
44.3101759068
 21
16.1309512524
  0
LINE
  5
223
100
AcDbEntity
  8
0
100
AcDbLine
 62
7
  6
CONTINUOUS
 10
44.2355759068
 20
16.1309512524
 11
26.835575907
 21
16.1309512524
  0
LINE
  5
224
100
AcDbEntity
  8
0
100
AcDbLine
 62
7
  6
CONTINUOUS
 10
26.7355759085
 20
18.1902700146
 11
26.835575907
 21
18.1902700146
  0
LINE
  5
225
100
AcDbEntity
  8
0
100
AcDbLine
 62
7
  6
CONTINUOUS
 10
44.2355759068
 20
18.1902700146
 11
44.3101759068
 21
18.1902700146
  0
LINE
  5
226
100
AcDbEntity
  8
0
100
AcDbLine
 62
7
  6
CONTINUOUS
 10
44.3101759068
 20
18.2444005336
 11
44.2355759068
 21
18.2444005336
  0
LINE
  5
227
100
AcDbEntity
  8
0
100
AcDbLine
 62
7
  6
CONTINUOUS
 10
26.835575907
 20
18.2444005336
 11
26.7355759085
 21
18.2444005336
  0
LINE
  5
228
100
AcDbEntity
  8
0
100
AcDbLine
 62
7
  6
CONTINUOUS
 10
26.7355759085
 20
18.4680594797
 11
26.835575907
 21
18.4680594797
  0
LINE
  5
229
100
AcDbEntity
  8
0
100
AcDbLine
 62
7
  6
CONTINUOUS
 10
44.2355759068
 20
18.4680594797
 11
44.3101759068
 21
18.4680594797
  0
LINE
  5
22A
100
AcDbEntity
  8
0
100
AcDbLine
 62
7
  6
CONTINUOUS
 10
61.7101759065
 20
19.9786204104
 11
44.3101759068
 21
19.9786204104
  0
LINE
  5
22B
100
AcDbEntity
  8
0
100
AcDbLine
 62
7
  6
CONTINUOUS
 10
44.2355759068
 20
19.9786204104
 11
26.835575907
 21
19.9786204104
  0
LINE
  5
22C
100
AcDbEntity
  8
0
100
AcDbLine
 62
7
  6
CONTINUOUS
 10
45.25017591
 20
11.9943487126
 11
45.62517591
 21
11.7778423617
  0
LINE
  5
22D
100
AcDbEntity
  8
0
100
AcDbLine
 62
7
  6
CONTINUOUS
 10
33.4855759183
 20
24.8309759318
 11
34.9855759184
 21
24.8309759318
  0
LINE
  5
22E
100
AcDbEntity
  8
0
100
AcDbLine
 62
7
  6
CONTINUOUS
 10
35.9855759184
 20
24.8309759318
 11
37.4855759183
 21
24.8309759318
  0
LINE
  5
22F
100
AcDbEntity
  8
0
100
AcDbLine
 62
7
  6
CONTINUOUS
 10
50.960175918
 20
24.8309759318
 11
52.4601759181
 21
24.8309759318
  0
LINE
  5
230
100
AcDbEntity
  8
0
100
AcDbLine
 62
7
  6
CONTINUOUS
 10
53.4601759181
 20
24.8309759318
 11
54.960175918
 21
24.8309759318
  0
LINE
  5
231
100
AcDbEntity
  8
0
100
AcDbLine
 62
7
  6
CONTINUOUS
 10
54.960175918
 20
25.8309759318
 11
53.4601759181
 21
25.8309759318
  0
LINE
  5
232
100
AcDbEntity
  8
0
100
AcDbLine
 62
7
  6
CONTINUOUS
 10
52.4601759181
 20
25.8309759318
 11
50.960175918
 21
25.8309759318
  0
LINE
  5
233
100
AcDbEntity
  8
0
100
AcDbLine
 62
7
  6
CONTINUOUS
 10
37.4855759183
 20
25.8309759318
 11
35.9855759184
 21
25.8309759318
  0
LINE
  5
234
100
AcDbEntity
  8
0
100
AcDbLine
 62
7
  6
CONTINUOUS
 10
34.9855759184
 20
25.8309759318
 11
33.4855759183
 21
25.8309759318
  0
LINE
  5
235
100
AcDbEntity
  8
0
100
AcDbLine
 62
7
  6
CONTINUOUS
 10
60.7901759099
 20
11.8211436319
 11
60.4151759099
 21
12.0376499828
  0
LINE
  5
236
100
AcDbEntity
  8
0
100
AcDbLine
 62
7
  6
CONTINUOUS
 10
60.7901759099
 20
16.0211436319
 11
60.5999835322
 21
16.1309512524
  0
LINE
  5
237
100
AcDbEntity
  8
0
100
AcDbLine
 62
7
  6
CONTINUOUS
 10
61.7101759065
 20
36.982728832
 11
44.3101759068
 21
36.982728832
  0
LINE
  5
238
100
AcDbEntity
  8
0
100
AcDbLine
 62
7
  6
CONTINUOUS
 10
44.2355759068
 20
36.982728832
 11
26.835575907
 21
36.982728832
  0
LINE
  5
239
100
AcDbEntity
  8
0
100
AcDbLine
 62
7
  6
CONTINUOUS
 10
26.835575907
 20
37.4096858713
 11
44.2355759068
 21
37.4096858713
  0
LINE
  5
23A
100
AcDbEntity
  8
0
100
AcDbLine
 62
7
  6
CONTINUOUS
 10
44.3101759068
 20
37.4096858713
 11
61.7101759065
 21
37.4096858713
  0
LINE
  5
23B
100
AcDbEntity
  8
0
100
AcDbLine
 62
7
  6
CONTINUOUS
 10
34.5451759068
 20
37.5309512522
 11
36.3751759068
 21
37.5309512522
  0
LINE
  5
23C
100
AcDbEntity
  8
0
100
AcDbLine
 62
7
  6
CONTINUOUS
 10
52.0197759065
 20
37.5309512522
 11
53.8497759065
 21
37.5309512522
  0
LINE
  5
23D
100
AcDbEntity
  8
0
100
AcDbLine
 62
7
  6
CONTINUOUS
 10
61.7101759065
 20
38.2599336478
 11
53.8497759065
 21
38.2599336478
  0
LINE
  5
23E
100
AcDbEntity
  8
0
100
AcDbLine
 62
7
  6
CONTINUOUS
 10
52.0197759065
 20
38.2599336478
 11
44.3101759068
 21
38.2599336478
  0
LINE
  5
23F
100
AcDbEntity
  8
0
100
AcDbLine
 62
7
  6
CONTINUOUS
 10
44.2355759068
 20
38.2599336478
 11
36.3751759068
 21
38.2599336478
  0
LINE
  5
240
100
AcDbEntity
  8
0
100
AcDbLine
 62
7
  6
CONTINUOUS
 10
34.5451759068
 20
38.2599336478
 11
26.835575907
 21
38.2599336478
  0
LINE
  5
241
100
AcDbEntity
  8
0
100
AcDbLine
 62
7
  6
CONTINUOUS
 10
26.835575907
 20
38.3519516331
 11
34.5451759068
 21
38.3519516331
  0
LINE
  5
242
100
AcDbEntity
  8
0
100
AcDbLine
 62
7
  6
CONTINUOUS
 10
36.3751759068
 20
38.3519516331
 11
44.2355759068
 21
38.3519516331
  0
LINE
  5
243
100
AcDbEntity
  8
0
100
AcDbLine
 62
7
  6
CONTINUOUS
 10
44.3101759068
 20
38.3519516331
 11
52.0197759065
 21
38.3519516331
  0
LINE
  5
244
100
AcDbEntity
  8
0
100
AcDbLine
 62
7
  6
CONTINUOUS
 10
53.8497759065
 20
38.3519516331
 11
61.7101759065
 21
38.3519516331
  0
LINE
  5
245
100
AcDbEntity
  8
0
100
AcDbLine
 62
7
  6
CONTINUOUS
 10
26.8101759068
 20
38.4050354756
 11
44.1101759068
 21
38.4050354756
  0
LINE
  5
246
100
AcDbEntity
  8
0
100
AcDbLine
 62
7
  6
CONTINUOUS
 10
44.2847759065
 20
38.4050354756
 11
61.5847759065
 21
38.4050354756
  0
LINE
  5
247
100
AcDbEntity
  8
0
100
AcDbLine
 62
7
  6
CONTINUOUS
 10
61.7101759065
 20
38.5783560386
 11
61.5847759065
 21
38.5783560386
  0
LINE
  5
248
100
AcDbEntity
  8
0
100
AcDbLine
 62
7
  6
CONTINUOUS
 10
44.2355759068
 20
38.5783560386
 11
44.1101759068
 21
38.5783560386
  0
LINE
  5
249
100
AcDbEntity
  8
0
100
AcDbLine
 62
7
  6
CONTINUOUS
 10
61.5847759065
 20
38.6309512522
 11
44.2847759065
 21
38.6309512522
  0
LINE
  5
24A
100
AcDbEntity
  8
0
100
AcDbLine
 62
7
  6
CONTINUOUS
 10
44.1101759068
 20
38.6309512522
 11
26.8101759068
 21
38.6309512522
  0
LINE
  5
24B
100
AcDbEntity
  8
0
100
AcDbLine
 62
7
  6
CONTINUOUS
 10
44.1101759068
 20
38.6801048762
 11
44.2355759068
 21
38.6801048762
  0
LINE
  5
24C
100
AcDbEntity
  8
0
100
AcDbLine
 62
7
  6
CONTINUOUS
 10
61.5847759065
 20
38.6801048762
 11
61.7101759065
 21
38.6801048762
  0
LINE
  5
24D
100
AcDbEntity
  8
0
100
AcDbLine
 62
7
  6
CONTINUOUS
 10
26.8101759068
 20
40.1416155281
 11
44.1101759068
 21
40.1416155281
  0
LINE
  5
24E
100
AcDbEntity
  8
0
100
AcDbLine
 62
7
  6
CONTINUOUS
 10
44.2847759065
 20
40.1416155281
 11
61.5847759065
 21
40.1416155281
  0
LINE
  5
24F
100
AcDbEntity
  8
0
100
AcDbLine
 62
7
  6
CONTINUOUS
 10
28.3965330609
 20
106.1309512524
 11
28.3870561609
 21
110.0158484594
  0
LINE
  5
250
100
AcDbEntity
  8
0
100
AcDbLine
 62
7
  6
CONTINUOUS
 10
26.7355759085
 20
76.2278897673
 11
26.7355759085
 21
71.630953632
  0
LINE
  5
251
100
AcDbEntity
  8
0
100
AcDbLine
 62
7
  6
CONTINUOUS
 10
26.7355759085
 20
71.6217810762
 11
26.7355759085
 21
56.3903391202
  0
LINE
  5
252
100
AcDbEntity
  8
0
100
AcDbLine
 62
7
  6
CONTINUOUS
 10
26.7355759085
 20
18.1902700146
 11
26.7355759085
 21
56.3809493485
  0
LINE
  5
253
100
AcDbEntity
  8
0
100
AcDbLine
 62
7
  6
CONTINUOUS
 10
26.7355759085
 20
76.230953632
 11
26.7355759085
 21
104.1309512523
  0
LINE
  5
254
100
AcDbEntity
  8
0
100
AcDbLine
 62
7
  6
CONTINUOUS
 10
26.8101759068
 20
83.8568823052
 11
26.8101759068
 21
83.6546099517
  0
LINE
  5
255
100
AcDbEntity
  8
0
100
AcDbLine
 62
7
  6
CONTINUOUS
 10
26.8101759068
 20
83.6309512522
 11
26.8101759068
 21
38.6309512522
  0
LINE
  5
256
100
AcDbEntity
  8
0
100
AcDbLine
 62
7
  6
CONTINUOUS
 10
26.8101759068
 20
38.4050354756
 11
26.8101759068
 21
38.6056810675
  0
LINE
  5
257
100
AcDbEntity
  8
0
100
AcDbLine
 62
7
  6
CONTINUOUS
 10
26.835575907
 20
106.1309512524
 11
26.835575907
 21
83.8568823052
  0
LINE
  5
258
100
AcDbEntity
  8
0
100
AcDbLine
 62
7
  6
CONTINUOUS
 10
26.835575907
 20
38.4050354756
 11
26.835575907
 21
16.1309512524
  0
LINE
  5
259
100
AcDbEntity
  8
0
100
AcDbLine
 62
7
  6
CONTINUOUS
 10
27.8778241412
 20
16.1309512524
 11
27.8778241412
 21
14.4809512521
  0
LINE
  5
25A
100
AcDbEntity
  8
0
100
AcDbLine
 62
7
  6
CONTINUOUS
 10
44.2847759065
 20
45.778760731
 11
44.2355759068
 21
45.778760731
  0
LINE
  5
25B
100
AcDbEntity
  8
0
100
AcDbLine
 62
7
  6
CONTINUOUS
 10
26.8101759068
 20
45.778760731
 11
26.7355759085
 21
45.778760731
  0
LINE
  5
25C
100
AcDbEntity
  8
0
100
AcDbLine
 62
7
  6
CONTINUOUS
 10
26.7355759085
 20
46.0287488101
 11
26.8101759068
 21
46.0287488101
  0
LINE
  5
25D
100
AcDbEntity
  8
0
100
AcDbLine
 62
7
  6
CONTINUOUS
 10
44.2355759068
 20
46.0287488101
 11
44.2847759065
 21
46.0287488101
  0
LINE
  5
25E
100
AcDbEntity
  8
0
100
AcDbLine
 62
7
  6
CONTINUOUS
 10
44.2847759065
 20
46.0385626662
 11
44.2355759068
 21
46.0385626662
  0
LINE
  5
25F
100
AcDbEntity
  8
0
100
AcDbLine
 62
7
  6
CONTINUOUS
 10
26.8101759068
 20
46.0385626662
 11
26.7355759085
 21
46.0385626662
  0
LINE
  5
260
100
AcDbEntity
  8
0
100
AcDbLine
 62
7
  6
CONTINUOUS
 10
26.7355759085
 20
46.288553147
 11
26.8101759068
 21
46.288553147
  0
LINE
  5
261
100
AcDbEntity
  8
0
100
AcDbLine
 62
7
  6
CONTINUOUS
 10
44.2355759068
 20
46.288553147
 11
44.2847759065
 21
46.288553147
  0
LINE
  5
262
100
AcDbEntity
  8
0
100
AcDbLine
 62
7
  6
CONTINUOUS
 10
31.2201759065
 20
74.9320556559
 11
31.2201759065
 21
77.1863932857
  0
LINE
  5
263
100
AcDbEntity
  8
0
100
AcDbLine
 62
7
  6
CONTINUOUS
 10
33.4855759169
 20
97.6309759318
 11
33.4855759169
 21
96.6309759318
  0
LINE
  5
264
100
AcDbEntity
  8
0
100
AcDbLine
 62
7
  6
CONTINUOUS
 10
33.4855759183
 20
25.8309759318
 11
33.4855759183
 21
24.8309759318
  0
LINE
  5
265
100
AcDbEntity
  8
0
100
AcDbLine
 62
7
  6
CONTINUOUS
 10
33.8133925057
 20
113.0290945037
 11
33.8249105502
 21
108.3074640964
  0
LINE
  5
266
100
AcDbEntity
  8
0
100
AcDbLine
 62
7
  6
CONTINUOUS
 10
36.9575597228
 20
108.3151059468
 11
36.9460416783
 21
113.0367363531
  0
LINE
  5
267
100
AcDbEntity
  8
0
100
AcDbLine
 62
7
  6
CONTINUOUS
 10
34.5451759068
 20
37.5309512522
 11
34.5451759068
 21
38.4050354756
  0
LINE
  5
268
100
AcDbEntity
  8
0
100
AcDbLine
 62
7
  6
CONTINUOUS
 10
34.5451759068
 20
83.8568823052
 11
34.5451759068
 21
84.7309512522
  0
LINE
  5
269
100
AcDbEntity
  8
0
100
AcDbLine
 62
7
  6
CONTINUOUS
 10
34.985575917
 20
100.113428029
 11
34.985575917
 21
97.6309759318
  0
LINE
  5
26A
100
AcDbEntity
  8
0
100
AcDbLine
 62
7
  6
CONTINUOUS
 10
34.9855759184
 20
28.6135107443
 11
34.9855759184
 21
25.8309759318
  0
LINE
  5
26B
100
AcDbEntity
  8
0
100
AcDbLine
 62
7
  6
CONTINUOUS
 10
34.9855759184
 20
21.8336330946
 11
34.9855759184
 21
24.8309759318
  0
LINE
  5
26C
100
AcDbEntity
  8
0
100
AcDbLine
 62
7
  6
CONTINUOUS
 10
34.985575917
 20
93.6336330946
 11
34.985575917
 21
96.6309759318
  0
LINE
  5
26D
100
AcDbEntity
  8
0
100
AcDbLine
 62
7
  6
CONTINUOUS
 10
35.9855759184
 20
21.8336330978
 11
35.9855759184
 21
24.8309759318
  0
LINE
  5
26E
100
AcDbEntity
  8
0
100
AcDbLine
 62
7
  6
CONTINUOUS
 10
35.9855759184
 20
25.8309759318
 11
35.9855759184
 21
28.6104427291
  0
LINE
  5
26F
100
AcDbEntity
  8
0
100
AcDbLine
 62
7
  6
CONTINUOUS
 10
35.985575917
 20
93.6336330978
 11
35.985575917
 21
96.6309759318
  0
LINE
  5
270
100
AcDbEntity
  8
0
100
AcDbLine
 62
7
  6
CONTINUOUS
 10
35.985575917
 20
97.6309759318
 11
35.985575917
 21
100.110462477
  0
LINE
  5
271
100
AcDbEntity
  8
0
100
AcDbLine
 62
7
  6
CONTINUOUS
 10
36.3751759068
 20
37.5309512522
 11
36.3751759068
 21
38.4050354756
  0
LINE
  5
272
100
AcDbEntity
  8
0
100
AcDbLine
 62
7
  6
CONTINUOUS
 10
36.3751759068
 20
83.8568823052
 11
36.3751759068
 21
84.7309512522
  0
LINE
  5
273
100
AcDbEntity
  8
0
100
AcDbLine
 62
7
  6
CONTINUOUS
 10
44.2847759065
 20
54.9733493578
 11
44.2355759068
 21
54.9733493578
  0
LINE
  5
274
100
AcDbEntity
  8
0
100
AcDbLine
 62
7
  6
CONTINUOUS
 10
26.8101759068
 20
54.9733493578
 11
26.7355759085
 21
54.9733493578
  0
LINE
  5
275
100
AcDbEntity
  8
0
100
AcDbLine
 62
7
  6
CONTINUOUS
 10
44.2847759065
 20
55.2233398386
 11
44.2355759068
 21
55.2233398386
  0
LINE
  5
276
100
AcDbEntity
  8
0
100
AcDbLine
 62
7
  6
CONTINUOUS
 10
26.8101759068
 20
55.2233398386
 11
26.7355759085
 21
55.2233398386
  0
LINE
  5
277
100
AcDbEntity
  8
0
100
AcDbLine
 62
7
  6
CONTINUOUS
 10
37.4855759183
 20
24.8309759318
 11
37.4855759183
 21
25.8309759318
  0
LINE
  5
278
100
AcDbEntity
  8
0
100
AcDbLine
 62
7
  6
CONTINUOUS
 10
37.4855759169
 20
96.6309759318
 11
37.4855759169
 21
97.6309759318
  0
LINE
  5
279
100
AcDbEntity
  8
0
100
AcDbLine
 62
7
  6
CONTINUOUS
 10
40.0201759065
 20
77.1863932857
 11
40.0201759065
 21
74.9320556559
  0
LINE
  5
27A
100
AcDbEntity
  8
0
100
AcDbLine
 62
7
  6
CONTINUOUS
 10
44.2847759065
 20
56.0385626662
 11
44.2355759068
 21
56.0385626662
  0
LINE
  5
27B
100
AcDbEntity
  8
0
100
AcDbLine
 62
7
  6
CONTINUOUS
 10
26.8101759068
 20
56.0385626662
 11
26.7355759085
 21
56.0385626662
  0
LINE
  5
27C
100
AcDbEntity
  8
0
100
AcDbLine
 62
7
  6
CONTINUOUS
 10
44.2847759065
 20
56.2097496467
 11
44.2355759068
 21
56.2097496467
  0
LINE
  5
27D
100
AcDbEntity
  8
0
100
AcDbLine
 62
7
  6
CONTINUOUS
 10
26.8101759068
 20
56.2097496467
 11
26.7355759085
 21
56.2097496467
  0
LINE
  5
27E
100
AcDbEntity
  8
0
100
AcDbLine
 62
7
  6
CONTINUOUS
 10
26.7355759085
 20
56.3809493485
 11
26.8101759068
 21
56.3809493485
  0
LINE
  5
27F
100
AcDbEntity
  8
0
100
AcDbLine
 62
7
  6
CONTINUOUS
 10
44.2355759068
 20
56.3809493485
 11
44.2847759065
 21
56.3809493485
  0
LINE
  5
280
100
AcDbEntity
  8
0
100
AcDbLine
 62
7
  6
CONTINUOUS
 10
44.2847759065
 20
56.3903391202
 11
44.2355759068
 21
56.3903391202
  0
LINE
  5
281
100
AcDbEntity
  8
0
100
AcDbLine
 62
7
  6
CONTINUOUS
 10
26.8101759068
 20
56.3903391202
 11
26.7355759085
 21
56.3903391202
  0
LINE
  5
282
100
AcDbEntity
  8
0
100
AcDbLine
 62
7
  6
CONTINUOUS
 10
26.7355759085
 20
56.6403367404
 11
26.8101759068
 21
56.6403367404
  0
LINE
  5
283
100
AcDbEntity
  8
0
100
AcDbLine
 62
7
  6
CONTINUOUS
 10
44.2355759068
 20
56.6403367404
 11
44.2847759065
 21
56.6403367404
  0
LINE
  5
284
100
AcDbEntity
  8
0
100
AcDbLine
 62
7
  6
CONTINUOUS
 10
42.3870145057
 20
110.0500002506
 11
42.3965747163
 21
106.1309512524
  0
LINE
  5
285
100
AcDbEntity
  8
0
100
AcDbLine
 62
7
  6
CONTINUOUS
 10
43.0630432113
 20
16.1309512524
 11
43.0630432113
 21
14.4809512521
  0
LINE
  5
286
100
AcDbEntity
  8
0
100
AcDbLine
 62
7
  6
CONTINUOUS
 10
44.1101759068
 20
38.4050354756
 11
44.1101759068
 21
38.605661066
  0
LINE
  5
287
100
AcDbEntity
  8
0
100
AcDbLine
 62
7
  6
CONTINUOUS
 10
44.1101759068
 20
38.6309512522
 11
44.1101759068
 21
83.6309512522
  0
LINE
  5
288
100
AcDbEntity
  8
0
100
AcDbLine
 62
7
  6
CONTINUOUS
 10
44.1101759068
 20
83.6512894325
 11
44.1101759068
 21
83.8568823052
  0
LINE
  5
289
100
AcDbEntity
  8
0
100
AcDbLine
 62
7
  6
CONTINUOUS
 10
44.2355759068
 20
16.1309512524
 11
44.2355759068
 21
106.1309512524
  0
LINE
  5
28A
100
AcDbEntity
  8
0
100
AcDbLine
 62
7
  6
CONTINUOUS
 10
44.2847759065
 20
83.8568823052
 11
44.2847759065
 21
83.6546099517
  0
LINE
  5
28B
100
AcDbEntity
  8
0
100
AcDbLine
 62
7
  6
CONTINUOUS
 10
44.2847759065
 20
83.6309512522
 11
44.2847759065
 21
38.6309512522
  0
LINE
  5
28C
100
AcDbEntity
  8
0
100
AcDbLine
 62
7
  6
CONTINUOUS
 10
44.2847759065
 20
38.4050354756
 11
44.2847759065
 21
38.6056810675
  0
LINE
  5
28D
100
AcDbEntity
  8
0
100
AcDbLine
 62
7
  6
CONTINUOUS
 10
44.3101759068
 20
106.1309512524
 11
44.3101759068
 21
83.8568823052
  0
LINE
  5
28E
100
AcDbEntity
  8
0
100
AcDbLine
 62
7
  6
CONTINUOUS
 10
44.3101759068
 20
38.4050354756
 11
44.3101759068
 21
16.1309512524
  0
LINE
  5
28F
100
AcDbEntity
  8
0
100
AcDbLine
 62
7
  6
CONTINUOUS
 10
45.10017591
 20
9.230951253
 11
45.10017591
 21
16.1077461722
  0
LINE
  5
290
100
AcDbEntity
  8
0
100
AcDbLine
 62
7
  6
CONTINUOUS
 10
45.3524241409
 20
16.1309512524
 11
45.3524241409
 21
14.4809512521
  0
LINE
  5
291
100
AcDbEntity
  8
0
100
AcDbLine
 62
7
  6
CONTINUOUS
 10
45.70017591
 20
11.8211436319
 11
45.70017591
 21
12.8407588741
  0
LINE
  5
292
100
AcDbEntity
  8
0
100
AcDbLine
 62
7
  6
CONTINUOUS
 10
47.2548094883
 20
9.230951253
 11
47.2548094883
 21
9.540951253
  0
LINE
  5
293
100
AcDbEntity
  8
0
100
AcDbLine
 62
7
  6
CONTINUOUS
 10
48.0255423317
 20
9.540951253
 11
48.0255423317
 21
9.230951253
  0
LINE
  5
294
100
AcDbEntity
  8
0
100
AcDbLine
 62
7
  6
CONTINUOUS
 10
48.6947759063
 20
74.9320556559
 11
48.6947759063
 21
77.1863932857
  0
LINE
  5
295
100
AcDbEntity
  8
0
100
AcDbLine
 62
7
  6
CONTINUOUS
 10
50.960175918
 20
25.8309759318
 11
50.960175918
 21
24.8309759318
  0
LINE
  5
296
100
AcDbEntity
  8
0
100
AcDbLine
 62
7
  6
CONTINUOUS
 10
52.0197759065
 20
37.5309512522
 11
52.0197759065
 21
38.4050354756
  0
LINE
  5
297
100
AcDbEntity
  8
0
100
AcDbLine
 62
7
  6
CONTINUOUS
 10
52.0197759065
 20
83.8568823052
 11
52.0197759065
 21
84.7309512522
  0
LINE
  5
298
100
AcDbEntity
  8
0
100
AcDbLine
 62
7
  6
CONTINUOUS
 10
52.3032401596
 20
9.230951253
 11
52.3032401596
 21
9.540951253
  0
LINE
  5
299
100
AcDbEntity
  8
0
100
AcDbLine
 62
7
  6
CONTINUOUS
 10
52.4601759168
 20
100.113428029
 11
52.4601759168
 21
100.078265215
  0
LINE
  5
29A
100
AcDbEntity
  8
0
100
AcDbLine
 62
7
  6
CONTINUOUS
 10
52.4601759181
 20
28.6135107443
 11
52.4601759181
 21
25.8309759318
  0
LINE
  5
29B
100
AcDbEntity
  8
0
100
AcDbLine
 62
7
  6
CONTINUOUS
 10
52.4601759181
 20
21.8336330946
 11
52.4601759181
 21
24.8309759318
  0
LINE
  5
29C
100
AcDbEntity
  8
0
100
AcDbLine
 62
7
  6
CONTINUOUS
 10
53.1371116604
 20
9.540951253
 11
53.1371116604
 21
9.230951253
  0
LINE
  5
29D
100
AcDbEntity
  8
0
100
AcDbLine
 62
7
  6
CONTINUOUS
 10
53.4601759181
 20
21.8336330978
 11
53.4601759181
 21
24.8309759318
  0
LINE
  5
29E
100
AcDbEntity
  8
0
100
AcDbLine
 62
7
  6
CONTINUOUS
 10
53.4601759181
 20
25.8309759318
 11
53.4601759181
 21
28.6104427291
  0
LINE
  5
29F
100
AcDbEntity
  8
0
100
AcDbLine
 62
7
  6
CONTINUOUS
 10
53.8497759065
 20
37.5309512522
 11
53.8497759065
 21
38.4050354756
  0
LINE
  5
2A0
100
AcDbEntity
  8
0
100
AcDbLine
 62
7
  6
CONTINUOUS
 10
53.8497759065
 20
83.8568823052
 11
53.8497759065
 21
84.7309512522
  0
LINE
  5
2A1
100
AcDbEntity
  8
0
100
AcDbLine
 62
7
  6
CONTINUOUS
 10
54.960175918
 20
24.8309759318
 11
54.960175918
 21
25.8309759318
  0
LINE
  5
2A2
100
AcDbEntity
  8
0
100
AcDbLine
 62
7
  6
CONTINUOUS
 10
44.2847759065
 20
71.371783456
 11
44.2355759068
 21
71.371783456
  0
LINE
  5
2A3
100
AcDbEntity
  8
0
100
AcDbLine
 62
7
  6
CONTINUOUS
 10
26.8101759068
 20
71.371783456
 11
26.7355759085
 21
71.371783456
  0
LINE
  5
2A4
100
AcDbEntity
  8
0
100
AcDbLine
 62
7
  6
CONTINUOUS
 10
26.7355759085
 20
71.6217810762
 11
26.8101759068
 21
71.6217810762
  0
LINE
  5
2A5
100
AcDbEntity
  8
0
100
AcDbLine
 62
7
  6
CONTINUOUS
 10
44.2355759068
 20
71.6217810762
 11
44.2847759065
 21
71.6217810762
  0
LINE
  5
2A6
100
AcDbEntity
  8
0
100
AcDbLine
 62
7
  6
CONTINUOUS
 10
44.2847759065
 20
71.630953632
 11
44.2355759068
 21
71.630953632
  0
LINE
  5
2A7
100
AcDbEntity
  8
0
100
AcDbLine
 62
7
  6
CONTINUOUS
 10
26.8101759068
 20
71.630953632
 11
26.7355759085
 21
71.630953632
  0
LINE
  5
2A8
100
AcDbEntity
  8
0
100
AcDbLine
 62
7
  6
CONTINUOUS
 10
26.7355759085
 20
71.8809512521
 11
26.8101759068
 21
71.8809512521
  0
LINE
  5
2A9
100
AcDbEntity
  8
0
100
AcDbLine
 62
7
  6
CONTINUOUS
 10
44.2355759068
 20
71.8809512521
 11
44.2847759065
 21
71.8809512521
  0
LINE
  5
2AA
100
AcDbEntity
  8
0
100
AcDbLine
 62
7
  6
CONTINUOUS
 10
57.3832401596
 20
9.230951253
 11
57.3832401596
 21
9.540951253
  0
LINE
  5
2AB
100
AcDbEntity
  8
0
100
AcDbLine
 62
7
  6
CONTINUOUS
 10
57.4947759063
 20
77.1863932857
 11
57.4947759063
 21
74.9320556559
  0
LINE
  5
2AC
100
AcDbEntity
  8
0
100
AcDbLine
 62
7
  6
CONTINUOUS
 10
58.2171116604
 20
9.540951253
 11
58.2171116604
 21
9.230951253
  0
LINE
  5
2AD
100
AcDbEntity
  8
0
100
AcDbLine
 62
7
  6
CONTINUOUS
 10
57.4947759063
 20
74.9320558714
 11
48.6947759063
 21
74.9320558714
  0
LINE
  5
2AE
100
AcDbEntity
  8
0
100
AcDbLine
 62
7
  6
CONTINUOUS
 10
40.0201759065
 20
74.9320558714
 11
31.2201759065
 21
74.9320558714
  0
LINE
  5
2AF
100
AcDbEntity
  8
0
100
AcDbLine
 62
7
  6
CONTINUOUS
 10
44.2847759065
 20
75.9778921471
 11
44.2355759068
 21
75.9778921471
  0
LINE
  5
2B0
100
AcDbEntity
  8
0
100
AcDbLine
 62
7
  6
CONTINUOUS
 10
26.8101759068
 20
75.9778921471
 11
26.7355759085
 21
75.9778921471
  0
LINE
  5
2B1
100
AcDbEntity
  8
0
100
AcDbLine
 62
7
  6
CONTINUOUS
 10
44.2847759065
 20
76.230953632
 11
44.2355759068
 21
76.230953632
  0
LINE
  5
2B2
100
AcDbEntity
  8
0
100
AcDbLine
 62
7
  6
CONTINUOUS
 10
26.8101759068
 20
76.230953632
 11
26.7355759085
 21
76.230953632
  0
LINE
  5
2B3
100
AcDbEntity
  8
0
100
AcDbLine
 62
7
  6
CONTINUOUS
 10
26.7355759085
 20
76.4809512521
 11
26.8101759068
 21
76.4809512521
  0
LINE
  5
2B4
100
AcDbEntity
  8
0
100
AcDbLine
 62
7
  6
CONTINUOUS
 10
44.2355759068
 20
76.4809512521
 11
44.2847759065
 21
76.4809512521
  0
LINE
  5
2B5
100
AcDbEntity
  8
0
100
AcDbLine
 62
7
  6
CONTINUOUS
 10
31.2201759065
 20
77.1863932857
 11
40.0201759065
 21
77.1863932857
  0
LINE
  5
2B6
100
AcDbEntity
  8
0
100
AcDbLine
 62
7
  6
CONTINUOUS
 10
48.6947759063
 20
77.1863932857
 11
57.4947759063
 21
77.1863932857
  0
LINE
  5
2B7
100
AcDbEntity
  8
0
100
AcDbLine
 62
7
  6
CONTINUOUS
 10
60.34017591
 20
14.4809512521
 11
60.34017591
 21
12.6675537934
  0
LINE
  5
2B8
100
AcDbEntity
  8
0
100
AcDbLine
 62
7
  6
CONTINUOUS
 10
60.34017591
 20
9.230951253
 11
60.34017591
 21
11.9943487126
  0
LINE
  5
2B9
100
AcDbEntity
  8
0
100
AcDbLine
 62
7
  6
CONTINUOUS
 10
60.5376432111
 20
16.1309512524
 11
60.5376432111
 21
14.4809512521
  0
LINE
  5
2BA
100
AcDbEntity
  8
0
100
AcDbLine
 62
7
  6
CONTINUOUS
 10
60.94017591
 20
11.9077461722
 11
60.94017591
 21
12.7541563337
  0
LINE
  5
2BB
100
AcDbEntity
  8
0
100
AcDbLine
 62
7
  6
CONTINUOUS
 10
60.94017591
 20
16.1077461722
 11
60.94017591
 21
16.1309512524
  0
LINE
  5
2BC
100
AcDbEntity
  8
0
100
AcDbLine
 62
7
  6
CONTINUOUS
 10
61.5847759065
 20
38.4050354756
 11
61.5847759065
 21
38.605661066
  0
LINE
  5
2BD
100
AcDbEntity
  8
0
100
AcDbLine
 62
7
  6
CONTINUOUS
 10
61.5847759065
 20
38.6309512522
 11
61.5847759065
 21
83.6309512522
  0
LINE
  5
2BE
100
AcDbEntity
  8
0
100
AcDbLine
 62
7
  6
CONTINUOUS
 10
61.5847759065
 20
83.6512894325
 11
61.5847759065
 21
83.8568823052
  0
LINE
  5
2BF
100
AcDbEntity
  8
0
100
AcDbLine
 62
7
  6
CONTINUOUS
 10
61.7101759065
 20
16.1309512524
 11
61.7101759065
 21
106.1309512524
  0
LINE
  5
2C0
100
AcDbEntity
  8
0
100
AcDbLine
 62
7
  6
CONTINUOUS
 10
26.8101759068
 20
82.1192025571
 11
44.1101759068
 21
82.1192025571
  0
LINE
  5
2C1
100
AcDbEntity
  8
0
100
AcDbLine
 62
7
  6
CONTINUOUS
 10
44.2847759065
 20
82.1192025571
 11
61.5847759065
 21
82.1192025571
  0
LINE
  5
2C2
100
AcDbEntity
  8
0
100
AcDbLine
 62
7
  6
CONTINUOUS
 10
61.7101759065
 20
83.5817976282
 11
61.5847759065
 21
83.5817976282
  0
LINE
  5
2C3
100
AcDbEntity
  8
0
100
AcDbLine
 62
7
  6
CONTINUOUS
 10
44.2355759068
 20
83.5817976282
 11
44.1101759068
 21
83.5817976282
  0
LINE
  5
2C4
100
AcDbEntity
  8
0
100
AcDbLine
 62
7
  6
CONTINUOUS
 10
26.8101759068
 20
83.6309512522
 11
44.1101759068
 21
83.6309512522
  0
LINE
  5
2C5
100
AcDbEntity
  8
0
100
AcDbLine
 62
7
  6
CONTINUOUS
 10
44.2847759065
 20
83.6309512522
 11
61.5847759065
 21
83.6309512522
  0
LINE
  5
2C6
100
AcDbEntity
  8
0
100
AcDbLine
 62
7
  6
CONTINUOUS
 10
44.1101759068
 20
83.6835464661
 11
44.2355759068
 21
83.6835464661
  0
LINE
  5
2C7
100
AcDbEntity
  8
0
100
AcDbLine
 62
7
  6
CONTINUOUS
 10
61.5847759065
 20
83.6835464661
 11
61.7101759065
 21
83.6835464661
  0
LINE
  5
2C8
100
AcDbEntity
  8
0
100
AcDbLine
 62
7
  6
CONTINUOUS
 10
26.8101759068
 20
83.8568823052
 11
44.1101759068
 21
83.8568823052
  0
LINE
  5
2C9
100
AcDbEntity
  8
0
100
AcDbLine
 62
7
  6
CONTINUOUS
 10
44.2847759065
 20
83.8568823052
 11
61.5847759065
 21
83.8568823052
  0
LINE
  5
2CA
100
AcDbEntity
  8
0
100
AcDbLine
 62
7
  6
CONTINUOUS
 10
61.7101759065
 20
83.9099508717
 11
53.8497759065
 21
83.9099508717
  0
LINE
  5
2CB
100
AcDbEntity
  8
0
100
AcDbLine
 62
7
  6
CONTINUOUS
 10
52.0197759065
 20
83.9099508717
 11
44.3101759068
 21
83.9099508717
  0
LINE
  5
2CC
100
AcDbEntity
  8
0
100
AcDbLine
 62
7
  6
CONTINUOUS
 10
44.2355759068
 20
83.9099508717
 11
36.3751759068
 21
83.9099508717
  0
LINE
  5
2CD
100
AcDbEntity
  8
0
100
AcDbLine
 62
7
  6
CONTINUOUS
 10
34.5451759068
 20
83.9099508717
 11
26.835575907
 21
83.9099508717
  0
LINE
  5
2CE
100
AcDbEntity
  8
0
100
AcDbLine
 62
7
  6
CONTINUOUS
 10
26.835575907
 20
84.0019688569
 11
34.5451759068
 21
84.0019688569
  0
LINE
  5
2CF
100
AcDbEntity
  8
0
100
AcDbLine
 62
7
  6
CONTINUOUS
 10
36.3751759068
 20
84.0019688569
 11
44.2355759068
 21
84.0019688569
  0
LINE
  5
2D0
100
AcDbEntity
  8
0
100
AcDbLine
 62
7
  6
CONTINUOUS
 10
44.3101759068
 20
84.0019688569
 11
52.0197759065
 21
84.0019688569
  0
LINE
  5
2D1
100
AcDbEntity
  8
0
100
AcDbLine
 62
7
  6
CONTINUOUS
 10
53.8497759065
 20
84.0019688569
 11
61.7101759065
 21
84.0019688569
  0
LINE
  5
2D2
100
AcDbEntity
  8
0
100
AcDbLine
 62
7
  6
CONTINUOUS
 10
34.5451759068
 20
84.7309512522
 11
36.3751759068
 21
84.7309512522
  0
LINE
  5
2D3
100
AcDbEntity
  8
0
100
AcDbLine
 62
7
  6
CONTINUOUS
 10
52.0197759065
 20
84.7309512522
 11
53.8497759065
 21
84.7309512522
  0
LINE
  5
2D4
100
AcDbEntity
  8
0
100
AcDbLine
 62
7
  6
CONTINUOUS
 10
61.7101759065
 20
84.8522166334
 11
44.3101759068
 21
84.8522166334
  0
LINE
  5
2D5
100
AcDbEntity
  8
0
100
AcDbLine
 62
7
  6
CONTINUOUS
 10
44.2355759068
 20
84.8522166334
 11
26.835575907
 21
84.8522166334
  0
LINE
  5
2D6
100
AcDbEntity
  8
0
100
AcDbLine
 62
7
  6
CONTINUOUS
 10
61.7101759065
 20
85.2791736756
 11
44.3101759068
 21
85.2791736756
  0
LINE
  5
2D7
100
AcDbEntity
  8
0
100
AcDbLine
 62
7
  6
CONTINUOUS
 10
44.2355759068
 20
85.2791736756
 11
26.835575907
 21
85.2791736756
  0
LINE
  5
2D8
100
AcDbEntity
  8
0
100
AcDbLine
 62
7
  6
CONTINUOUS
 10
44.3101759068
 20
94.1461199007
 11
44.2355759068
 21
94.1461199007
  0
LINE
  5
2D9
100
AcDbEntity
  8
0
100
AcDbLine
 62
7
  6
CONTINUOUS
 10
26.835575907
 20
94.1461199007
 11
26.7355759085
 21
94.1461199007
  0
LINE
  5
2DA
100
AcDbEntity
  8
0
100
AcDbLine
 62
7
  6
CONTINUOUS
 10
44.3101759068
 20
94.5077466693
 11
44.2355759068
 21
94.5077466693
  0
LINE
  5
2DB
100
AcDbEntity
  8
0
100
AcDbLine
 62
7
  6
CONTINUOUS
 10
26.835575907
 20
94.5077466693
 11
26.7355759085
 21
94.5077466693
  0
LINE
  5
2DC
100
AcDbEntity
  8
0
100
AcDbLine
 62
7
  6
CONTINUOUS
 10
33.4855759169
 20
96.6309759318
 11
34.985575917
 21
96.6309759318
  0
LINE
  5
2DD
100
AcDbEntity
  8
0
100
AcDbLine
 62
7
  6
CONTINUOUS
 10
35.985575917
 20
96.6309759318
 11
37.4855759169
 21
96.6309759318
  0
LINE
  5
2DE
100
AcDbEntity
  8
0
100
AcDbLine
 62
7
  6
CONTINUOUS
 10
37.4855759169
 20
97.6309759318
 11
35.985575917
 21
97.6309759318
  0
LINE
  5
2DF
100
AcDbEntity
  8
0
100
AcDbLine
 62
7
  6
CONTINUOUS
 10
34.985575917
 20
97.6309759318
 11
33.4855759169
 21
97.6309759318
  0
LINE
  5
2E0
100
AcDbEntity
  8
0
100
AcDbLine
 62
7
  6
CONTINUOUS
 10
44.3101759068
 20
100.7053473203
 11
44.2355759068
 21
100.7053473203
  0
LINE
  5
2E1
100
AcDbEntity
  8
0
100
AcDbLine
 62
7
  6
CONTINUOUS
 10
26.835575907
 20
100.7053473203
 11
26.7355759085
 21
100.7053473203
  0
LINE
  5
2E2
100
AcDbEntity
  8
0
100
AcDbLine
 62
7
  6
CONTINUOUS
 10
26.7355759085
 20
101.1981023681
 11
26.835575907
 21
101.1981023681
  0
LINE
  5
2E3
100
AcDbEntity
  8
0
100
AcDbLine
 62
7
  6
CONTINUOUS
 10
44.2355759068
 20
101.1981023681
 11
44.3101759068
 21
101.1981023681
  0
LINE
  5
2E4
100
AcDbEntity
  8
0
100
AcDbLine
 62
7
  6
CONTINUOUS
 10
44.3101759068
 20
104.0572092195
 11
44.2355759068
 21
104.0572092195
  0
LINE
  5
2E5
100
AcDbEntity
  8
0
100
AcDbLine
 62
7
  6
CONTINUOUS
 10
26.835575907
 20
104.0572092195
 11
26.7355759085
 21
104.0572092195
  0
LINE
  5
2E6
100
AcDbEntity
  8
0
100
AcDbLine
 62
7
  6
CONTINUOUS
 10
26.7355759085
 20
104.1309512523
 11
26.835575907
 21
104.1309512523
  0
LINE
  5
2E7
100
AcDbEntity
  8
0
100
AcDbLine
 62
7
  6
CONTINUOUS
 10
44.2355759068
 20
104.1309512523
 11
44.3101759068
 21
104.1309512523
  0
LINE
  5
2E8
100
AcDbEntity
  8
0
100
AcDbLine
 62
7
  6
CONTINUOUS
 10
45.62517591
 20
12.8840601443
 11
45.25017591
 21
12.6675537934
  0
LINE
  5
2E9
100
AcDbEntity
  8
0
100
AcDbLine
 62
7
  6
CONTINUOUS
 10
61.7101759065
 20
105.2002777321
 11
44.3101759068
 21
105.2002777321
  0
LINE
  5
2EA
100
AcDbEntity
  8
0
100
AcDbLine
 62
7
  6
CONTINUOUS
 10
44.2355759068
 20
105.2002777321
 11
26.835575907
 21
105.2002777321
  0
LINE
  5
2EB
100
AcDbEntity
  8
0
100
AcDbLine
 62
7
  6
CONTINUOUS
 10
26.835575907
 20
106.1309512524
 11
44.2355759068
 21
106.1309512524
  0
LINE
  5
2EC
100
AcDbEntity
  8
0
100
AcDbLine
 62
7
  6
CONTINUOUS
 10
44.3101759068
 20
106.1309512524
 11
61.7101759065
 21
106.1309512524
  0
LINE
  5
2ED
100
AcDbEntity
  8
0
100
AcDbLine
 62
7
  6
CONTINUOUS
 10
60.41517591
 20
12.6242525232
 11
60.79017591
 21
12.8407588741
  0
LINE
  5
2EE
100
AcDbEntity
  8
0
100
AcDbLine
 62
7
  6
CONTINUOUS
 10
36.3723958753
 20
116.0353459156
 11
34.372401826
 21
116.0304670881
  0
CIRCLE
  5
2EF
100
AcDbEntity
  8
0
100
AcDbCircle
 62
7
  6
CONTINUOUS
 10
35.4855759093
 20
25.1309512525
 40
3.5354273543
  0
ARC
  5
2F0
100
AcDbEntity
  8
0
100
AcDbCircle
 62
7
  6
CONTINUOUS
 10
35.4855759074
 20
25.3231098858
 40
3.5251167732
100
AcDbArc
 50
278.1542912264
 51
359.7448244535
  0
ARC
  5
2F1
100
AcDbEntity
  8
0
100
AcDbCircle
 62
7
  6
CONTINUOUS
 10
35.4855759074
 20
25.3231098858
 40
3.5251167732
100
AcDbArc
 50
203.7549481759
 51
261.8457091335
  0
ARC
  5
2F2
100
AcDbEntity
  8
0
100
AcDbCircle
 62
7
  6
CONTINUOUS
 10
35.4855759074
 20
25.3231098858
 40
3.5251167732
100
AcDbArc
 50
180.0
 51
188.140959396
  0
ARC
  5
2F3
100
AcDbEntity
  8
0
100
AcDbCircle
 62
7
  6
CONTINUOUS
 10
35.4855759074
 20
25.3231098858
 40
2.3251167732
100
AcDbArc
 50
282.4180481316
 51
77.5819518684
  0
ARC
  5
2F4
100
AcDbEntity
  8
0
100
AcDbCircle
 62
7
  6
CONTINUOUS
 10
35.4855759074
 20
25.3231098858
 40
2.3251167732
100
AcDbArc
 50
102.4180475784
 51
257.5819524216
  0
ARC
  5
2F5
100
AcDbEntity
  8
0
100
AcDbCircle
 62
7
  6
CONTINUOUS
 10
47.60017591
 20
14.430951253
 40
1.4
100
AcDbArc
 50
177.9506232535
 51
198.7949647744
  0
ARC
  5
2F6
100
AcDbEntity
  8
0
100
AcDbCircle
 62
7
  6
CONTINUOUS
 10
47.60017591
 20
14.430951253
 40
1.4
100
AcDbArc
 50
210.9948232808
 51
2.0493767465
  0
ARC
  5
2F7
100
AcDbEntity
  8
0
100
AcDbCircle
 62
7
  6
CONTINUOUS
 10
45.20017591
 20
12.7541563337
 40
0.1
100
AcDbArc
 50
180.0
 51
300.0000000067
  0
ARC
  5
2F8
100
AcDbEntity
  8
0
100
AcDbCircle
 62
7
  6
CONTINUOUS
 10
45.20017591
 20
16.1077461722
 40
0.1
100
AcDbArc
 50
167.1900923558
 51
180.0
  0
ARC
  5
2F9
100
AcDbEntity
  8
0
100
AcDbCircle
 62
7
  6
CONTINUOUS
 10
45.20017591
 20
11.9077461722
 40
0.1
100
AcDbArc
 50
60.000000015
 51
180.0
  0
ARC
  5
2FA
100
AcDbEntity
  8
0
100
AcDbCircle
 62
7
  6
CONTINUOUS
 10
45.65017591
 20
12.8407588741
 40
0.05
100
AcDbArc
 50
0.0000000132
 51
119.9999999425
  0
ARC
  5
2FB
100
AcDbEntity
  8
0
100
AcDbCircle
 62
7
  6
CONTINUOUS
 10
45.65017591
 20
11.8211436319
 40
0.05
100
AcDbArc
 50
240.000000013
 51
359.9999999984
  0
ARC
  5
2FC
100
AcDbEntity
  8
0
100
AcDbCircle
 62
7
  6
CONTINUOUS
 10
36.3870323579
 20
110.0353637679
 40
6.0
100
AcDbArc
 50
0.1397682528
 51
90.1397682514
  0
ARC
  5
2FD
100
AcDbEntity
  8
0
100
AcDbCircle
 62
7
  6
CONTINUOUS
 10
34.3870383087
 20
110.0304849403
 40
6.0
100
AcDbArc
 50
90.1397682532
 51
180.1397682364
  0
CIRCLE
  5
2FE
100
AcDbEntity
  8
0
100
AcDbCircle
 62
7
  6
CONTINUOUS
 10
35.4855759093
 20
96.6309512525
 40
3.5354273543
  0
ARC
  5
2FF
100
AcDbEntity
  8
0
100
AcDbCircle
 62
7
  6
CONTINUOUS
 10
35.4855759061
 20
97.1231098858
 40
3.5251167732
100
AcDbArc
 50
278.1542912264
 51
351.0555348525
  0
ARC
  5
300
100
AcDbEntity
  8
0
100
AcDbCircle
 62
7
  6
CONTINUOUS
 10
35.4855759061
 20
97.1231098858
 40
3.5251167732
100
AcDbArc
 50
189.1479149626
 51
261.8457091335
  0
ARC
  5
301
100
AcDbEntity
  8
0
100
AcDbCircle
 62
7
  6
CONTINUOUS
 10
35.4855759061
 20
97.1231098858
 40
2.3251167732
100
AcDbArc
 50
282.4180481316
 51
77.5819518684
  0
ARC
  5
302
100
AcDbEntity
  8
0
100
AcDbCircle
 62
7
  6
CONTINUOUS
 10
35.4855759061
 20
97.1231098858
 40
2.3251167732
100
AcDbArc
 50
102.4180475784
 51
257.5819524216
  0
ARC
  5
303
100
AcDbEntity
  8
0
100
AcDbCircle
 62
7
  6
CONTINUOUS
 10
35.3912351365
 20
108.3112850216
 40
1.5663292467
100
AcDbArc
 50
180.1397682528
 51
0.1397682564
  0
ARC
  5
304
100
AcDbEntity
  8
0
100
AcDbCircle
 62
7
  6
CONTINUOUS
 10
35.379717092
 20
113.032915428
 40
1.5663292467
100
AcDbArc
 50
0.1397682531
 51
180.1397682223
  0
CIRCLE
  5
305
100
AcDbEntity
  8
0
100
AcDbCircle
 62
7
  6
CONTINUOUS
 10
52.9601759091
 20
25.1309512525
 40
3.5354273543
  0
ARC
  5
306
100
AcDbEntity
  8
0
100
AcDbCircle
 62
7
  6
CONTINUOUS
 10
52.9601759072
 20
25.3231098858
 40
3.5251167732
100
AcDbArc
 50
278.1542912264
 51
359.7448244535
  0
ARC
  5
307
100
AcDbEntity
  8
0
100
AcDbCircle
 62
7
  6
CONTINUOUS
 10
52.9601759072
 20
25.3231098858
 40
3.5251167732
100
AcDbArc
 50
203.7549481759
 51
261.8457091335
  0
ARC
  5
308
100
AcDbEntity
  8
0
100
AcDbCircle
 62
7
  6
CONTINUOUS
 10
52.9601759072
 20
25.3231098858
 40
3.5251167732
100
AcDbArc
 50
180.0
 51
188.140959396
  0
ARC
  5
309
100
AcDbEntity
  8
0
100
AcDbCircle
 62
7
  6
CONTINUOUS
 10
52.9601759072
 20
25.3231098858
 40
2.3251167732
100
AcDbArc
 50
282.4180481316
 51
77.5819518684
  0
ARC
  5
30A
100
AcDbEntity
  8
0
100
AcDbCircle
 62
7
  6
CONTINUOUS
 10
52.9601759072
 20
25.3231098858
 40
2.3251167732
100
AcDbArc
 50
102.4180475784
 51
257.5819524216
  0
ARC
  5
30B
100
AcDbEntity
  8
0
100
AcDbCircle
 62
7
  6
CONTINUOUS
 10
52.72017591
 20
14.430951253
 40
1.45
100
AcDbArc
 50
176.6546591172
 51
3.3455444427
  0
ARC
  5
30C
100
AcDbEntity
  8
0
100
AcDbCircle
 62
7
  6
CONTINUOUS
 10
47.64017591
 20
14.430951253
 40
1.45
100
AcDbArc
 50
176.6546591172
 51
3.3455444427
  0
ARC
  5
30D
100
AcDbEntity
  8
0
100
AcDbCircle
 62
7
  6
CONTINUOUS
 10
57.80017591
 20
14.430951253
 40
1.45
100
AcDbArc
 50
176.6546591173
 51
3.3455444427
  0
ARC
  5
30E
100
AcDbEntity
  8
0
100
AcDbCircle
 62
7
  6
CONTINUOUS
 10
57.80017591
 20
14.430951253
 40
1.4
100
AcDbArc
 50
177.9506232535
 51
2.0493767465
  0
ARC
  5
30F
100
AcDbEntity
  8
0
100
AcDbCircle
 62
7
  6
CONTINUOUS
 10
52.70017591
 20
14.430951253
 40
1.4
100
AcDbArc
 50
177.9506232535
 51
2.0493767465
  0
ARC
  5
310
100
AcDbEntity
  8
0
100
AcDbCircle
 62
7
  6
CONTINUOUS
 10
60.84017591
 20
16.1077461722
 40
0.1
100
AcDbArc
 50
239.9999999625
 51
360.0
  0
ARC
  5
311
100
AcDbEntity
  8
0
100
AcDbCircle
 62
7
  6
CONTINUOUS
 10
60.84017591
 20
12.7541563337
 40
0.1
100
AcDbArc
 50
0.0
 51
120.0000000074
  0
ARC
  5
312
100
AcDbEntity
  8
0
100
AcDbCircle
 62
7
  6
CONTINUOUS
 10
60.84017591
 20
11.9077461722
 40
0.1
100
AcDbArc
 50
239.9999999643
 51
360.0
  0
ARC
  5
313
100
AcDbEntity
  8
0
100
AcDbCircle
 62
7
  6
CONTINUOUS
 10
60.39017591
 20
12.6675537934
 40
0.05
100
AcDbArc
 50
180.0
 51
299.9999999848
  0
ARC
  5
314
100
AcDbEntity
  8
0
100
AcDbCircle
 62
7
  6
CONTINUOUS
 10
60.39017591
 20
11.9943487126
 40
0.05
100
AcDbArc
 50
60.0000000794
 51
180.0
  0
CIRCLE
  5
315
100
AcDbEntity
  8
0
100
AcDbCircle
 62
7
  6
CONTINUOUS
 10
52.9601759091
 20
96.6309512525
 40
3.5354273543
  0
SPLINE
  5
316
100
AcDbEntity
  8
0
100
AcDbSpline
 62
7
  6
CONTINUOUS
 70
0
 71
3
 72
16
 73
12
 74
0
 42
0.0000001
 43
0.0000001
 44
0.0000000001
 40
0.0
 40
0.0
 40
0.0
 40
0.0
 40
0.1760323914
 40
0.3459301933
 40
0.5037560228
 40
0.6448222827
 40
0.7656165906
 40
0.8642855604
 40
0.9053519379
 40
0.9412228317
 40
1.0
 40
1.0
 40
1.0
 40
1.0
 10
52.7201775331
 20
9.65837315
 30
0.0
 10
52.693838042
 20
9.6583731812
 30
0.0
 10
52.642064558
 20
9.6568568828
 30
0.0
 10
52.5669338914
 20
9.6502414838
 30
0.0
 10
52.4975480523
 20
9.6395912193
 30
0.0
 10
52.4362979634
 20
9.6253742512
 30
0.0
 10
52.3850841798
 20
9.6081474521
 30
0.0
 10
52.3498621689
 20
9.5909887509
 30
0.0
 10
52.3283394158
 20
9.575753341
 30
0.0
 10
52.3135046611
 20
9.5619201893
 30
0.0
 10
52.3055307472
 20
9.5494424731
 30
0.0
 10
52.3032401596
 20
9.540951253
 30
0.0
  0
SPLINE
  5
317
100
AcDbEntity
  8
0
100
AcDbSpline
 62
7
  6
CONTINUOUS
 70
0
 71
3
 72
16
 73
12
 74
0
 42
0.0000001
 43
0.0000001
 44
0.0000000001
 40
0.0
 40
0.0
 40
0.0
 40
0.0
 40
0.0587768218
 40
0.0946429838
 40
0.1356982334
 40
0.2343549141
 40
0.3551699343
 40
0.4962553902
 40
0.6540761506
 40
0.8239643595
 40
1.0
 40
1.0
 40
1.0
 40
1.0
 10
53.1371116604
 20
9.540951253
 30
0.0
 10
53.1348210961
 20
9.5494423869
 30
0.0
 10
53.1268466118
 20
9.5619186762
 30
0.0
 10
53.1120153163
 20
9.5757515096
 30
0.0
 10
53.0904996857
 20
9.5909894957
 30
0.0
 10
53.055278615
 20
9.6081501645
 30
0.0
 10
53.0040591748
 20
9.6253725457
 30
0.0
 10
52.9428038395
 20
9.6395877896
 30
0.0
 10
52.8734184373
 20
9.6502428653
 30
0.0
 10
52.7982897953
 20
9.656860167
 30
0.0
 10
52.7465173983
 20
9.6583731187
 30
0.0
 10
52.7201775331
 20
9.65837315
 30
0.0
  0
SPLINE
  5
318
100
AcDbEntity
  8
0
100
AcDbSpline
 62
7
  6
CONTINUOUS
 70
0
 71
3
 72
16
 73
12
 74
0
 42
0.0000001
 43
0.0000001
 44
0.0000000001
 40
0.0
 40
0.0
 40
0.0
 40
0.0
 40
0.1760323914
 40
0.3459301933
 40
0.5037560228
 40
0.6448222827
 40
0.7656165906
 40
0.8642855604
 40
0.9053519379
 40
0.9412228317
 40
1.0
 40
1.0
 40
1.0
 40
1.0
 10
57.8001775331
 20
9.65837315
 30
0.0
 10
57.773838042
 20
9.6583731812
 30
0.0
 10
57.722064558
 20
9.6568568828
 30
0.0
 10
57.6469338914
 20
9.6502414838
 30
0.0
 10
57.5775480523
 20
9.6395912193
 30
0.0
 10
57.5162979634
 20
9.6253742512
 30
0.0
 10
57.4650841798
 20
9.6081474521
 30
0.0
 10
57.4298621689
 20
9.5909887509
 30
0.0
 10
57.4083394158
 20
9.575753341
 30
0.0
 10
57.3935046611
 20
9.5619201893
 30
0.0
 10
57.3855307472
 20
9.5494424731
 30
0.0
 10
57.3832401596
 20
9.540951253
 30
0.0
  0
SPLINE
  5
319
100
AcDbEntity
  8
0
100
AcDbSpline
 62
7
  6
CONTINUOUS
 70
0
 71
3
 72
16
 73
12
 74
0
 42
0.0000001
 43
0.0000001
 44
0.0000000001
 40
0.0
 40
0.0
 40
0.0
 40
0.0
 40
0.0587768218
 40
0.0946429838
 40
0.1356982334
 40
0.2343549141
 40
0.3551699343
 40
0.4962553902
 40
0.6540761506
 40
0.8239643595
 40
1.0
 40
1.0
 40
1.0
 40
1.0
 10
58.2171116604
 20
9.540951253
 30
0.0
 10
58.2148210961
 20
9.5494423869
 30
0.0
 10
58.2068466118
 20
9.5619186762
 30
0.0
 10
58.1920153163
 20
9.5757515096
 30
0.0
 10
58.1704996857
 20
9.5909894957
 30
0.0
 10
58.135278615
 20
9.6081501645
 30
0.0
 10
58.0840591748
 20
9.6253725457
 30
0.0
 10
58.0228038395
 20
9.6395877896
 30
0.0
 10
57.9534184373
 20
9.6502428653
 30
0.0
 10
57.8782897953
 20
9.656860167
 30
0.0
 10
57.8265173983
 20
9.6583731187
 30
0.0
 10
57.8001775331
 20
9.65837315
 30
0.0
  0
SPLINE
  5
31A
100
AcDbEntity
  8
0
100
AcDbSpline
 62
7
  6
CONTINUOUS
 70
0
 71
3
 72
23
 73
19
 74
0
 42
0.0000001
 43
0.0000001
 44
0.0000000001
 40
0.0
 40
0.0
 40
0.0
 40
0.0
 40
0.0624788798
 40
0.1249830555
 40
0.187460954
 40
0.2499594177
 40
0.3124598778
 40
0.3749697408
 40
0.4374851586
 40
0.5000008919
 40
0.562516421
 40
0.6250309457
 40
0.6875406477
 40
0.7500430412
 40
0.8125446849
 40
0.8750273641
 40
0.937533427
 40
1.0
 40
1.0
 40
1.0
 40
1.0
 10
49.4240568476
 20
96.6296212234
 30
0.0
 10
49.426535484
 20
96.8592276871
 30
0.0
 10
49.4774004672
 20
97.3192192364
 30
0.0
 10
49.6843371215
 20
97.9806386639
 30
0.0
 10
50.0154289171
 20
98.5899576261
 30
0.0
 10
50.4583484661
 20
99.123437009
 30
0.0
 10
50.9964774925
 20
99.5609319269
 30
0.0
 10
51.6093590687
 20
99.8856111686
 30
0.0
 10
52.2735555098
 20
100.0855174581
 30
0.0
 10
52.9639905051
 20
100.1525671469
 30
0.0
 10
53.6542686008
 20
100.0840042394
 30
0.0
 10
54.3180437584
 20
99.8827257162
 30
0.0
 10
54.9302364484
 20
99.5567327886
 30
0.0
 10
55.4674202731
 20
99.1180497933
 30
0.0
 10
55.9092203785
 20
98.5835983283
 30
0.0
 10
56.2390316709
 20
97.9735423705
 30
0.0
 10
56.4444542564
 20
97.3116545525
 30
0.0
 10
56.4939417679
 20
96.8515210785
 30
0.0
 10
56.4956299158
 20
96.6219526727
 30
0.0
  0
ELLIPSE
  5
31B
100
AcDbEntity
  8
0
100
AcDbEllipse
 62
7
  6
CONTINUOUS
 10
47.64017591
 20
9.540951253
 30
0.0
 11
0.3853664217
 21
-0.0
 31
0.0
 40
0.3057306815
 41
6.2831853072
 42
9.4247779608
  0
ENDSEC
  0
SECTION
  2
OBJECTS
  0
DICTIONARY
  5
C
100
AcDbDictionary
280
0
281
1
  3
ACAD_GROUP
350
D
  3
ACAD_MLINESTYLE
350
17
  3
ACAD_LAYOUT
350
1A
  3
ACAD_PLOTSETTINGS
350
19
  3
ACAD_PLOTSTYLENAME
350
E
  0
DICTIONARY
  5
D
102
{ACAD_REACTORS
330
C
102
}
100
AcDbDictionary
280
0
281
1
  0
ACDBDICTIONARYWDFLT
  5
E
102
{ACAD_REACTORS
330
C
102
}
100
AcDbDictionary
281
1
  3
Normal
350
F
100
AcDbDictionaryWithDefault
340
F
  0
DICTIONARY
  5
17
102
{ACAD_REACTORS
330
C
102
}
100
AcDbDictionary
280
0
281
1
  3
Standard
350
18
  0
DICTIONARY
  5
19
102
{ACAD_REACTORS
330
C
102
}
100
AcDbDictionary
281
1
  0
DICTIONARY
  5
1A
102
{ACAD_REACTORS
330
C
102
}
100
AcDbDictionary
281
1
  3
Model
350
31C
  3
Layout1
350
31D
  0
ACDBPLACEHOLDER
  5
F
102
{ACAD_REACTORS
330
E
102
}
  0
MLINESTYLE
  5
18
102
{ACAD_REACTORS
330
17
102
}
100
AcDbMlineStyle
  2
STANDARD
 70
0
  3

 62
256
 51
90.0
 52
90.0
 71
2
 49
0.5
 62
256
  6
BYLAYER
 49
-0.5
 62
256
  6
BYLAYER
  0
LAYOUT
  5
31C
102
{ACAD_REACTORS
330
1A
102
}
100
AcDbPlotSettings
  1

  2
none_device
  4

  6

 40
0.0
 41
0.0
 42
0.0
 43
0.0
 44
210.0
 45
297.0
 46
0.0
 47
0.0
 48
0.0
 49
0.0
140
0.0
141
0.0
142
1.0
143
1.0
 70
1024
 72
1
 73
0
 74
0
  7

 75
0
147
1.0
148
0.0
149
0.0
100
AcDbLayout
  1
Model
 70
0
 71
0
 10
0.0
 20
0.0
 11
210.0
 21
297.0
 12
0.0
 22
0.0
 32
0.0
 14
0.0
 24
0.0
 34
0.0
 15
0.0
 25
0.0
 35
0.0
146
0.0
 13
0.0
 23
0.0
 33
0.0
 16
1.0
 26
0.0
 36
0.0
 17
0.0
 27
1.0
 37
0.0
 76
0
330
210
345
0
346
0
  0
LAYOUT
  5
31D
102
{ACAD_REACTORS
330
1A
102
}
100
AcDbPlotSettings
  1

  2
none_device
  4

  6

 40
0.0
 41
0.0
 42
0.0
 43
0.0
 44
210.0
 45
297.0
 46
0.0
 47
0.0
 48
0.0
 49
0.0
140
0.0
141
0.0
142
1.0
143
1.0
 70
0
 72
1
 73
0
 74
0
  7

 75
0
147
1.0
148
0.0
149
0.0
100
AcDbLayout
  1
Layout1
 70
0
 71
1
 10
0.0
 20
0.0
 11
210.0
 21
297.0
 12
0.0
 22
0.0
 32
0.0
 14
0.0
 24
0.0
 34
0.0
 15
0.0
 25
0.0
 35
0.0
146
0.0
 13
0.0
 23
0.0
 33
0.0
 16
1.0
 26
0.0
 36
0.0
 17
0.0
 27
1.0
 37
0.0
 76
0
330
211
345
0
346
0
  0
ENDSEC
  0
EOF
