999
DXF file: C:\Users\sesa63760\Dev\_Creo\CAD\MCADID0001955_3D-CAD\drw0001_3.dxf
999
Pro/ENGINEER 2019471 by Parametric Technology Corporation
  0
SECTION
  2
HEADER
  9
$ACADVER
  1
AC1024
  9
$DWGCODEPAGE
  3
ANSI_1252
  9
$EXTMAX
 10
134.6227040647
 20
190.3949671772
 30
0.0
  9
$EXTMIN
 10
0.0
 20
0.0
 30
0.0
  9
$LIMMIN
 10
0.0
 20
0.0
  9
$LIMMAX
 10
134.6227040647
 20
190.3949671772
  9
$VIEWCTR
 10
67.3113520324
 20
95.1974835886
  9
$VIEWSIZE
 40
190.3949671772
  9
$CLAYER
  8
0
  9
$LTSCALE
 40
12.4109311938
  9
$CELTYPE
  6
BYLAYER
  9
$DIMSCALE
 40
1.0
  9
$DIMASZ
 40
1.6026512389
  9
$DIMEXO
 40
1.0
  9
$DIMDLI
 40
8.5748251884
  9
$DIMEXE
 40
1.0
  9
$DIMCEN
 40
2.0308796499
  9
$DIMLFAC
 40
1.0
  9
$DIMBLK
  1
_FILLED
  9
$DIMALT
 70
0
  9
$DIMALTF
 40
0.0393700787
  9
$DIMTXT
 40
2.2437117344
  9
$DIMTOL
 70
1
  9
$DIMLIM
 70
0
  9
$DIMTFAC
 40
1.0
  9
$DIMTP
 40
0.01
  9
$DIMTM
 40
0.01
  9
$DIMGAP
 40
0.625
  9
$DIMDSEP
 70
46
  9
$AUNITS
 70
0
  9
$PDMODE
 70
3
  9
$PDSIZE
 40
0.3125
  9
$HANDSEED
  5
4D6
  9
$TILEMODE
 70
1
  9
$MEASUREMENT
 70
1
  9
$INSUNITS
 70
4
  0
ENDSEC
  0
SECTION
  2
CLASSES
  0
CLASS
  1
ACDBDICTIONARYWDFLT
  2
AcDbDictionaryWithDefault
  3
AutoCAD 2000
 90
0
 91
1
280
0
281
0
  0
CLASS
  1
ACDBPLACEHOLDER
  2
AcDbPlaceHolder
  3
AutoCAD 2000
 90
0
 91
1
280
0
281
0
  0
CLASS
  1
LAYOUT
  2
AcDbLayout
  3
AutoCAD 2000
 90
0
 91
0
280
0
281
0
  0
ENDSEC
  0
SECTION
  2
TABLES
  0
TABLE
  2
VPORT
  5
8
100
AcDbSymbolTable
 70
2
  0
VPORT
  5
1F4
100
AcDbSymbolTableRecord
100
AcDbViewportTableRecord
  2
*ACTIVE
 70
0
 10
0.0
 20
0.0
 11
1.0
 21
1.0
 12
67.3113520324
 22
95.1974835886
 13
0.0
 23
0.0
 14
1.0
 24
1.0
 15
0.0
 25
0.0
 16
0.0
 26
0.0
 36
1.0
 17
0.0
 27
0.0
 37
0.0
 40
190.3949671772
 41
0.7070707071
 42
50.0
 43
0.0
 44
0.0
 50
0.0
 51
0.0
 71
0
 72
100
 73
1
 74
1
 75
0
 76
0
 77
0
 78
0
  0
ENDTAB
  0
TABLE
  2
LTYPE
  5
5
100
AcDbSymbolTable
 70
6
  0
LTYPE
  5
14
100
AcDbSymbolTableRecord
100
AcDbLinetypeTableRecord
  2
BYBLOCK
 70
0
  3

 72
65
 73
0
 40
0.0
  0
LTYPE
  5
15
100
AcDbSymbolTableRecord
100
AcDbLinetypeTableRecord
  2
BYLAYER
 70
0
  3

 72
65
 73
0
 40
0.0
  0
LTYPE
  5
16
100
AcDbSymbolTableRecord
100
AcDbLinetypeTableRecord
  2
CONTINUOUS
 70
64
  3
Solid line
 72
65
 73
0
 40
0.0
  0
LTYPE
  5
1F5
100
AcDbSymbolTableRecord
100
AcDbLinetypeTableRecord
  2
CENTER
 70
64
  3
____ _ ____ _ ____ _ ____ _ ____ _ ____ _ ____
 72
65
 73
4
 40
0.6
 49
0.375
 74
0
 49
-0.075
 74
0
 49
0.075
 74
0
 49
-0.075
 74
0
  0
LTYPE
  5
1F6
100
AcDbSymbolTableRecord
100
AcDbLinetypeTableRecord
  2
HIDDEN
 70
64
  3
- - - - - - - - - - - - - - - - - - - -
 72
65
 73
2
 40
0.2
 49
0.1
 74
0
 49
-0.1
 74
0
  0
LTYPE
  5
1F7
100
AcDbSymbolTableRecord
100
AcDbLinetypeTableRecord
  2
PHANTOM
 70
64
  3
_____ _ _ _____ _ _ _____ _ _ _____
 72
65
 73
6
 40
0.8
 49
0.45
 74
0
 49
-0.05
 74
0
 49
0.1
 74
0
 49
-0.05
 74
0
 49
0.1
 74
0
 49
-0.05
 74
0
  0
LTYPE
  5
1F8
100
AcDbSymbolTableRecord
100
AcDbLinetypeTableRecord
  2
DOT
 70
64
  3
. . . . . . . . . . . . . . . . . . . .
 72
65
 73
2
 40
0.2
 49
0.1
 74
0
 49
-0.1
 74
0
  0
LTYPE
  5
1F9
100
AcDbSymbolTableRecord
100
AcDbLinetypeTableRecord
  2
DASHED
 70
64
  3
- - - - - - - - - - - - - - - - - - - -
 72
65
 73
2
 40
0.2
 49
0.1
 74
0
 49
-0.1
 74
0
  0
ENDTAB
  0
TABLE
  2
LAYER
  5
2
100
AcDbSymbolTable
 70
36
  0
LAYER
  5
10
100
AcDbSymbolTableRecord
100
AcDbLayerTableRecord
  2
0
 70
0
 62
7
  6
CONTINUOUS
370
-3
390
F
  0
LAYER
  5
1FA
100
AcDbSymbolTableRecord
100
AcDbLayerTableRecord
  2
DEFAULT_1
 70
0
 62
7
  6
CENTER
370
-3
390
F
  0
LAYER
  5
1FB
100
AcDbSymbolTableRecord
100
AcDbLayerTableRecord
  2
DEFAULT_2
 70
0
 62
8
  6
HIDDEN
370
-3
390
F
  0
LAYER
  5
1FC
100
AcDbSymbolTableRecord
100
AcDbLayerTableRecord
  2
DEFAULT_3
 70
0
 62
7
  6
PHANTOM
370
-3
390
F
  0
LAYER
  5
1FD
100
AcDbSymbolTableRecord
100
AcDbLayerTableRecord
  2
00_COMPONENTS
 70
0
 62
7
  6
CONTINUOUS
370
-3
390
F
  0
LAYER
  5
1FE
100
AcDbSymbolTableRecord
100
AcDbLayerTableRecord
  2
01_1_DEFAULT_DATUMS
 70
0
 62
7
  6
CONTINUOUS
370
-3
390
F
  0
LAYER
  5
1FF
100
AcDbSymbolTableRecord
100
AcDbLayerTableRecord
  2
01_PLANES
 70
0
 62
7
  6
CONTINUOUS
370
-3
390
F
  0
LAYER
  5
200
100
AcDbSymbolTableRecord
100
AcDbLayerTableRecord
  2
02_COORD_SYS
 70
0
 62
7
  6
CONTINUOUS
370
-3
390
F
  0
LAYER
  5
201
100
AcDbSymbolTableRecord
100
AcDbLayerTableRecord
  2
03_AXES
 70
0
 62
7
  6
CONTINUOUS
370
-3
390
F
  0
LAYER
  5
202
100
AcDbSymbolTableRecord
100
AcDbLayerTableRecord
  2
04_POINTS
 70
0
 62
7
  6
CONTINUOUS
370
-3
390
F
  0
LAYER
  5
203
100
AcDbSymbolTableRecord
100
AcDbLayerTableRecord
  2
05_CURVES
 70
0
 62
7
  6
CONTINUOUS
370
-3
390
F
  0
LAYER
  5
204
100
AcDbSymbolTableRecord
100
AcDbLayerTableRecord
  2
06_SURFS
 70
0
 62
7
  6
CONTINUOUS
370
-3
390
F
  0
LAYER
  5
205
100
AcDbSymbolTableRecord
100
AcDbLayerTableRecord
  2
07_COSMETICS
 70
0
 62
7
  6
CONTINUOUS
370
-3
390
F
  0
LAYER
  5
206
100
AcDbSymbolTableRecord
100
AcDbLayerTableRecord
  2
10_NOTES
 70
0
 62
7
  6
CONTINUOUS
370
-3
390
F
  0
LAYER
  5
207
100
AcDbSymbolTableRecord
100
AcDbLayerTableRecord
  2
11_NOTES_PUB
 70
0
 62
7
  6
CONTINUOUS
370
-3
390
F
  0
LAYER
  5
208
100
AcDbSymbolTableRecord
100
AcDbLayerTableRecord
  2
13_REF_GTOL
 70
0
 62
7
  6
CONTINUOUS
370
-3
390
F
  0
LAYER
  5
209
100
AcDbSymbolTableRecord
100
AcDbLayerTableRecord
  2
16_MISC
 70
0
 62
7
  6
CONTINUOUS
370
-3
390
F
  0
LAYER
  5
20A
100
AcDbSymbolTableRecord
100
AcDbLayerTableRecord
  2
17_NO_PRINT
 70
0
 62
7
  6
CONTINUOUS
370
-3
390
F
  0
LAYER
  5
20B
100
AcDbSymbolTableRecord
100
AcDbLayerTableRecord
  2
18_DATUM_CAMS_JOINTS
 70
0
 62
7
  6
CONTINUOUS
370
-3
390
F
  0
LAYER
  5
20C
100
AcDbSymbolTableRecord
100
AcDbLayerTableRecord
  2
19_DATUM_FUNCTIONAL
 70
0
 62
7
  6
CONTINUOUS
370
-3
390
F
  0
LAYER
  5
20D
100
AcDbSymbolTableRecord
100
AcDbLayerTableRecord
  2
20_DATUM_KINEMATIC_SCHEME
 70
0
 62
7
  6
CONTINUOUS
370
-3
390
F
  0
ENDTAB
  0
TABLE
  2
STYLE
  5
3
100
AcDbSymbolTable
 70
1
  0
STYLE
  5
11
100
AcDbSymbolTableRecord
100
AcDbTextStyleTableRecord
  2
STANDARD
 70
0
 40
0.0
 41
0.8
 50
0.0
 71
0
 42
0.2
  3
txt
  4

  0
STYLE
  5
20E
100
AcDbSymbolTableRecord
100
AcDbTextStyleTableRecord
  2
TEXTSTYLE_1
 70
0
 40
0.0
 41
0.8
 50
0.0
 71
0
 42
0.2
  3
gdt
  4

  0
ENDTAB
  0
TABLE
  2
VIEW
  5
6
100
AcDbSymbolTable
 70
0
  0
ENDTAB
  0
TABLE
  2
UCS
  5
7
100
AcDbSymbolTable
 70
0
  0
ENDTAB
  0
TABLE
  2
APPID
  5
9
100
AcDbSymbolTable
 70
1
  0
APPID
  5
20F
100
AcDbSymbolTableRecord
100
AcDbRegAppTableRecord
  2
ACAD
 70
0
  0
ENDTAB
  0
TABLE
  2
BLOCK_RECORD
  5
1
100
AcDbSymbolTable
 70
0
  0
BLOCK_RECORD
  5
210
100
AcDbSymbolTableRecord
100
AcDbBlockTableRecord
  2
*Model_Space
  0
BLOCK_RECORD
  5
211
100
AcDbSymbolTableRecord
100
AcDbBlockTableRecord
  2
*Paper_Space
  0
BLOCK_RECORD
  5
212
100
AcDbSymbolTableRecord
100
AcDbBlockTableRecord
  2
_FILLED
  0
ENDTAB
  0
TABLE
  2
DIMSTYLE
  5
A
100
AcDbSymbolTable
 70
1
100
AcDbDimStyleTable
 71
0
  0
DIMSTYLE
105
213
100
AcDbSymbolTableRecord
100
AcDbDimStyleTableRecord
  2
STANDARD
 70
0
  3

  4

 40
1.0
 41
1.6026512389
 42
1.0
 43
0.38
 44
1.0
 45
0.0
 46
0.0
 47
0.01
 48
0.01
140
2.2437117344
141
0.09
142
0.0
143
25.4
144
1.0
145
0.0
146
1.0
147
0.625
 71
1
 72
0
 73
0
 74
0
 75
0
 76
0
 77
1
 78
8
 79
2
170
0
171
1
172
0
173
0
174
0
175
0
176
0
177
0
178
0
270
2
179
2
271
2
272
2
273
2
274
2
275
0
280
0
281
0
282
0
283
1
284
8
285
0
286
0
287
3
288
0
340
11
278
46
341
212
342
212
343
212
344
212
  0
ENDTAB
  0
ENDSEC
  0
SECTION
  2
BLOCKS
  0
BLOCK
  5
20
100
AcDbEntity
  8
0
100
AcDbBlockBegin
  2
*Model_Space
 70
0
 10
0.0
 20
0.0
 30
0.0
  3
*Model_Space
  1

  0
ENDBLK
  5
21
100
AcDbEntity
  8
0
100
AcDbBlockEnd
  0
BLOCK
  5
1C
100
AcDbEntity
  8
0
100
AcDbBlockBegin
  2
*Paper_Space
 70
0
 10
0.0
 20
0.0
 30
0.0
  3
*Paper_Space
  1

  0
ENDBLK
  5
1D
100
AcDbEntity
  8
0
100
AcDbBlockEnd
  0
BLOCK
  5
214
100
AcDbEntity
  8
0
100
AcDbBlockBegin
  2
_FILLED
 70
64
 10
0.0
 20
0.0
  3
_FILLED
  1

  0
SOLID
  5
215
100
AcDbEntity
  8
0
  6
BYBLOCK
 62
0
100
AcDbTrace
 10
0.0
 20
0.0
 11
-1.0
 21
0.25
 12
-1.0
 22
-0.25
 13
-1.0
 23
-0.25
  0
ENDBLK
  5
216
100
AcDbEntity
  8
0
  6
BYBLOCK
 62
0
100
AcDbBlockEnd
  0
ENDSEC
  0
SECTION
  2
ENTITIES
  0
LINE
  5
217
100
AcDbEntity
  8
0
100
AcDbLine
 62
7
  6
CONTINUOUS
 10
15.9256846363
 20
88.1635667396
 11
15.9256846363
 21
103.1635667396
  0
LINE
  5
218
100
AcDbEntity
  8
0
100
AcDbLine
 62
7
  6
CONTINUOUS
 10
16.1956846363
 20
96.2135667396
 11
16.1956846363
 21
100.3135667396
  0
LINE
  5
219
100
AcDbEntity
  8
0
100
AcDbLine
 62
7
  6
CONTINUOUS
 10
16.5256846363
 20
101.2635667396
 11
16.5256846363
 21
103.1635667396
  0
LINE
  5
21A
100
AcDbEntity
  8
0
100
AcDbLine
 62
7
  6
CONTINUOUS
 10
17.0756846363
 20
100.9135667396
 11
17.0756846363
 21
100.3135667396
  0
LINE
  5
21B
100
AcDbEntity
  8
0
100
AcDbLine
 62
7
  6
CONTINUOUS
 10
17.2756846363
 20
93.2635667396
 11
17.2756846363
 21
95.0635667396
  0
LINE
  5
21C
100
AcDbEntity
  8
0
100
AcDbLine
 62
7
  6
CONTINUOUS
 10
18.0756846363
 20
95.0635667396
 11
18.0756846363
 21
93.2635667396
  0
LINE
  5
21D
100
AcDbEntity
  8
0
100
AcDbLine
 62
7
  6
CONTINUOUS
 10
18.2756846363
 20
100.9135667396
 11
18.2756846363
 21
100.3135667396
  0
LINE
  5
21E
100
AcDbEntity
  8
0
100
AcDbLine
 62
7
  6
CONTINUOUS
 10
19.0006846363
 20
101.2635667396
 11
19.0006846363
 21
95.0635667396
  0
LINE
  5
21F
100
AcDbEntity
  8
0
100
AcDbLine
 62
7
  6
CONTINUOUS
 10
19.4256846363
 20
101.2635667396
 11
19.4256846363
 21
103.1635667396
  0
LINE
  5
220
100
AcDbEntity
  8
0
100
AcDbLine
 62
7
  6
CONTINUOUS
 10
19.8506846363
 20
95.0635667396
 11
19.8506846363
 21
101.2635667396
  0
LINE
  5
221
100
AcDbEntity
  8
0
100
AcDbLine
 62
7
  6
CONTINUOUS
 10
20.5756846363
 20
100.9135667396
 11
20.5756846363
 21
100.3135667396
  0
LINE
  5
222
100
AcDbEntity
  8
0
100
AcDbLine
 62
7
  6
CONTINUOUS
 10
20.7756846363
 20
93.2635667396
 11
20.7756846363
 21
95.0635667396
  0
LINE
  5
223
100
AcDbEntity
  8
0
100
AcDbLine
 62
7
  6
CONTINUOUS
 10
21.5756846363
 20
95.0635667396
 11
21.5756846363
 21
93.2635667396
  0
LINE
  5
224
100
AcDbEntity
  8
0
100
AcDbLine
 62
7
  6
CONTINUOUS
 10
21.7756846363
 20
100.9135667396
 11
21.7756846363
 21
100.3135667396
  0
LINE
  5
225
100
AcDbEntity
  8
0
100
AcDbLine
 62
7
  6
CONTINUOUS
 10
22.5006846363
 20
101.2635667396
 11
22.5006846363
 21
95.0635667396
  0
LINE
  5
226
100
AcDbEntity
  8
0
100
AcDbLine
 62
7
  6
CONTINUOUS
 10
22.9256846363
 20
101.2635667396
 11
22.9256846363
 21
103.1635667396
  0
LINE
  5
227
100
AcDbEntity
  8
0
100
AcDbLine
 62
7
  6
CONTINUOUS
 10
23.3506846363
 20
95.0635667396
 11
23.3506846363
 21
101.2635667396
  0
LINE
  5
228
100
AcDbEntity
  8
0
100
AcDbLine
 62
7
  6
CONTINUOUS
 10
24.0756846363
 20
100.9135667396
 11
24.0756846363
 21
100.3135667396
  0
LINE
  5
229
100
AcDbEntity
  8
0
100
AcDbLine
 62
7
  6
CONTINUOUS
 10
24.2756846363
 20
93.2635667396
 11
24.2756846363
 21
95.0635667396
  0
LINE
  5
22A
100
AcDbEntity
  8
0
100
AcDbLine
 62
7
  6
CONTINUOUS
 10
25.0756846363
 20
95.0635667396
 11
25.0756846363
 21
93.2635667396
  0
LINE
  5
22B
100
AcDbEntity
  8
0
100
AcDbLine
 62
7
  6
CONTINUOUS
 10
25.2756846363
 20
100.9135667396
 11
25.2756846363
 21
100.3135667396
  0
LINE
  5
22C
100
AcDbEntity
  8
0
100
AcDbLine
 62
7
  6
CONTINUOUS
 10
25.8256846363
 20
101.2635667396
 11
25.8256846363
 21
103.1635667396
  0
LINE
  5
22D
100
AcDbEntity
  8
0
100
AcDbLine
 62
7
  6
CONTINUOUS
 10
26.1556846363
 20
100.3135667396
 11
26.1556846363
 21
96.2135667396
  0
LINE
  5
22E
100
AcDbEntity
  8
0
100
AcDbLine
 62
7
  6
CONTINUOUS
 10
26.4256846363
 20
92.0635667396
 11
26.4256846363
 21
103.1635667396
  0
LINE
  5
22F
100
AcDbEntity
  8
0
100
AcDbLine
 62
7
  6
CONTINUOUS
 10
27.5256846363
 20
98.7088539389
 11
27.5256846363
 21
96.1779845422
  0
LINE
  5
230
100
AcDbEntity
  8
0
100
AcDbLine
 62
7
  6
CONTINUOUS
 10
27.5256846363
 20
96.0093057797
 11
27.5256846363
 21
94.8085667396
  0
LINE
  5
231
100
AcDbEntity
  8
0
100
AcDbLine
 62
7
  6
CONTINUOUS
 10
29.1256846363
 20
93.1060023049
 11
29.1256846363
 21
90.6811311743
  0
LINE
  5
232
100
AcDbEntity
  8
0
100
AcDbLine
 62
7
  6
CONTINUOUS
 10
29.4256846363
 20
92.0635667396
 11
29.4256846363
 21
103.1635667396
  0
LINE
  5
233
100
AcDbEntity
  8
0
100
AcDbLine
 62
7
  6
CONTINUOUS
 10
29.6956846363
 20
96.2135667396
 11
29.6956846363
 21
100.3135667396
  0
LINE
  5
234
100
AcDbEntity
  8
0
100
AcDbLine
 62
7
  6
CONTINUOUS
 10
30.0256846363
 20
101.2635667396
 11
30.0256846363
 21
103.1635667396
  0
LINE
  5
235
100
AcDbEntity
  8
0
100
AcDbLine
 62
7
  6
CONTINUOUS
 10
26.9356846363
 20
94.1285667396
 11
27.1706846363
 21
94.8085667396
  0
LINE
  5
236
100
AcDbEntity
  8
0
100
AcDbLine
 62
7
  6
CONTINUOUS
 10
30.5756846363
 20
100.9135667396
 11
30.5756846363
 21
100.3135667396
  0
LINE
  5
237
100
AcDbEntity
  8
0
100
AcDbLine
 62
7
  6
CONTINUOUS
 10
30.7756846363
 20
93.2635667396
 11
30.7756846363
 21
95.0635667396
  0
LINE
  5
238
100
AcDbEntity
  8
0
100
AcDbLine
 62
7
  6
CONTINUOUS
 10
30.9256846363
 20
88.1635667396
 11
30.9256846363
 21
92.0635667396
  0
LINE
  5
239
100
AcDbEntity
  8
0
100
AcDbLine
 62
7
  6
CONTINUOUS
 10
31.5756846363
 20
95.0635667396
 11
31.5756846363
 21
93.2635667396
  0
LINE
  5
23A
100
AcDbEntity
  8
0
100
AcDbLine
 62
7
  6
CONTINUOUS
 10
31.7756846363
 20
100.9135667396
 11
31.7756846363
 21
100.3135667396
  0
LINE
  5
23B
100
AcDbEntity
  8
0
100
AcDbLine
 62
7
  6
CONTINUOUS
 10
32.5006846363
 20
101.2635667396
 11
32.5006846363
 21
95.0635667396
  0
LINE
  5
23C
100
AcDbEntity
  8
0
100
AcDbLine
 62
7
  6
CONTINUOUS
 10
32.9256846363
 20
101.2635667396
 11
32.9256846363
 21
103.1635667396
  0
LINE
  5
23D
100
AcDbEntity
  8
0
100
AcDbLine
 62
7
  6
CONTINUOUS
 10
33.3506846363
 20
95.0635667396
 11
33.3506846363
 21
101.2635667396
  0
LINE
  5
23E
100
AcDbEntity
  8
0
100
AcDbLine
 62
7
  6
CONTINUOUS
 10
16.7256846363
 20
96.2135667396
 11
17.1756846363
 21
96.6635667396
  0
LINE
  5
23F
100
AcDbEntity
  8
0
100
AcDbLine
 62
7
  6
CONTINUOUS
 10
33.9256846363
 20
88.1635667396
 11
33.9256846363
 21
92.0635667396
  0
LINE
  5
240
100
AcDbEntity
  8
0
100
AcDbLine
 62
7
  6
CONTINUOUS
 10
34.0756846363
 20
100.9135667396
 11
34.0756846363
 21
100.3135667396
  0
LINE
  5
241
100
AcDbEntity
  8
0
100
AcDbLine
 62
7
  6
CONTINUOUS
 10
34.2756846363
 20
93.2635667396
 11
34.2756846363
 21
95.0635667396
  0
LINE
  5
242
100
AcDbEntity
  8
0
100
AcDbLine
 62
7
  6
CONTINUOUS
 10
35.0756846363
 20
95.0635667396
 11
35.0756846363
 21
93.2635667396
  0
LINE
  5
243
100
AcDbEntity
  8
0
100
AcDbLine
 62
7
  6
CONTINUOUS
 10
35.2756846363
 20
100.9135667396
 11
35.2756846363
 21
100.3135667396
  0
LINE
  5
244
100
AcDbEntity
  8
0
100
AcDbLine
 62
7
  6
CONTINUOUS
 10
36.0006846363
 20
101.2635667396
 11
36.0006846363
 21
95.0635667396
  0
LINE
  5
245
100
AcDbEntity
  8
0
100
AcDbLine
 62
7
  6
CONTINUOUS
 10
36.4256846363
 20
101.2635667396
 11
36.4256846363
 21
103.1635667396
  0
LINE
  5
246
100
AcDbEntity
  8
0
100
AcDbLine
 62
7
  6
CONTINUOUS
 10
36.8506846363
 20
95.0635667396
 11
36.8506846363
 21
101.2635667396
  0
LINE
  5
247
100
AcDbEntity
  8
0
100
AcDbLine
 62
7
  6
CONTINUOUS
 10
20.2256846363
 20
96.2135667396
 11
20.6756846363
 21
96.6635667396
  0
LINE
  5
248
100
AcDbEntity
  8
0
100
AcDbLine
 62
7
  6
CONTINUOUS
 10
23.7256846363
 20
96.2135667396
 11
24.1756846363
 21
96.6635667396
  0
LINE
  5
249
100
AcDbEntity
  8
0
100
AcDbLine
 62
7
  6
CONTINUOUS
 10
18.1756846363
 20
96.6635667396
 11
18.6256846363
 21
96.2135667396
  0
LINE
  5
24A
100
AcDbEntity
  8
0
100
AcDbLine
 62
7
  6
CONTINUOUS
 10
21.6756846363
 20
96.6635667396
 11
22.1256846363
 21
96.2135667396
  0
LINE
  5
24B
100
AcDbEntity
  8
0
100
AcDbLine
 62
7
  6
CONTINUOUS
 10
37.5756846363
 20
100.9135667396
 11
37.5756846363
 21
100.3135667396
  0
LINE
  5
24C
100
AcDbEntity
  8
0
100
AcDbLine
 62
7
  6
CONTINUOUS
 10
37.7756846363
 20
93.2635667396
 11
37.7756846363
 21
95.0635667396
  0
LINE
  5
24D
100
AcDbEntity
  8
0
100
AcDbLine
 62
7
  6
CONTINUOUS
 10
38.5756846363
 20
95.0635667396
 11
38.5756846363
 21
93.2635667396
  0
LINE
  5
24E
100
AcDbEntity
  8
0
100
AcDbLine
 62
7
  6
CONTINUOUS
 10
38.7756846363
 20
100.9135667396
 11
38.7756846363
 21
100.3135667396
  0
LINE
  5
24F
100
AcDbEntity
  8
0
100
AcDbLine
 62
7
  6
CONTINUOUS
 10
39.3256846363
 20
101.2635667396
 11
39.3256846363
 21
103.1635667396
  0
LINE
  5
250
100
AcDbEntity
  8
0
100
AcDbLine
 62
7
  6
CONTINUOUS
 10
39.6556846363
 20
100.3135667396
 11
39.6556846363
 21
96.2135667396
  0
LINE
  5
251
100
AcDbEntity
  8
0
100
AcDbLine
 62
7
  6
CONTINUOUS
 10
39.9256846363
 20
92.0635667396
 11
39.9256846363
 21
103.1635667396
  0
LINE
  5
252
100
AcDbEntity
  8
0
100
AcDbLine
 62
7
  6
CONTINUOUS
 10
25.1756846363
 20
96.6635667396
 11
25.6256846363
 21
96.2135667396
  0
LINE
  5
253
100
AcDbEntity
  8
0
100
AcDbLine
 62
7
  6
CONTINUOUS
 10
42.9256846363
 20
92.0635667396
 11
42.9256846363
 21
103.1635667396
  0
LINE
  5
254
100
AcDbEntity
  8
0
100
AcDbLine
 62
7
  6
CONTINUOUS
 10
43.1956846363
 20
96.2135667396
 11
43.1956846363
 21
100.3135667396
  0
LINE
  5
255
100
AcDbEntity
  8
0
100
AcDbLine
 62
7
  6
CONTINUOUS
 10
43.5256846304
 20
101.2635667396
 11
43.5256846304
 21
103.1635667396
  0
LINE
  5
256
100
AcDbEntity
  8
0
100
AcDbLine
 62
7
  6
CONTINUOUS
 10
44.0756846363
 20
100.9135667396
 11
44.0756846363
 21
100.3135667396
  0
LINE
  5
257
100
AcDbEntity
  8
0
100
AcDbLine
 62
7
  6
CONTINUOUS
 10
44.2756846363
 20
93.2635667396
 11
44.2756846363
 21
95.0635667396
  0
LINE
  5
258
100
AcDbEntity
  8
0
100
AcDbLine
 62
7
  6
CONTINUOUS
 10
39.9356846363
 20
94.1285667396
 11
40.1706846363
 21
94.8085667396
  0
LINE
  5
259
100
AcDbEntity
  8
0
100
AcDbLine
 62
7
  6
CONTINUOUS
 10
30.2256846363
 20
96.2135667396
 11
30.6756846363
 21
96.6635667396
  0
LINE
  5
25A
100
AcDbEntity
  8
0
100
AcDbLine
 62
7
  6
CONTINUOUS
 10
33.7256846363
 20
96.2135667396
 11
34.1756846363
 21
96.6635667396
  0
LINE
  5
25B
100
AcDbEntity
  8
0
100
AcDbLine
 62
7
  6
CONTINUOUS
 10
31.6756846363
 20
96.6635667396
 11
32.1256846363
 21
96.2135667396
  0
LINE
  5
25C
100
AcDbEntity
  8
0
100
AcDbLine
 62
7
  6
CONTINUOUS
 10
42.6806846363
 20
94.8085667396
 11
42.9156846363
 21
94.1285667396
  0
LINE
  5
25D
100
AcDbEntity
  8
0
100
AcDbLine
 62
7
  6
CONTINUOUS
 10
45.0756846363
 20
95.0635667396
 11
45.0756846363
 21
93.2635667396
  0
LINE
  5
25E
100
AcDbEntity
  8
0
100
AcDbLine
 62
7
  6
CONTINUOUS
 10
45.2756846363
 20
100.9135667396
 11
45.2756846363
 21
100.3135667396
  0
LINE
  5
25F
100
AcDbEntity
  8
0
100
AcDbLine
 62
7
  6
CONTINUOUS
 10
46.0006846363
 20
101.2635667396
 11
46.0006846363
 21
95.0635667396
  0
LINE
  5
260
100
AcDbEntity
  8
0
100
AcDbLine
 62
7
  6
CONTINUOUS
 10
46.4256846378
 20
101.2635667396
 11
46.4256846378
 21
103.1635667396
  0
LINE
  5
261
100
AcDbEntity
  8
0
100
AcDbLine
 62
7
  6
CONTINUOUS
 10
46.8506846363
 20
95.0635667396
 11
46.8506846363
 21
101.2635667396
  0
LINE
  5
262
100
AcDbEntity
  8
0
100
AcDbLine
 62
7
  6
CONTINUOUS
 10
47.1256846363
 20
92.0635667396
 11
47.1256846363
 21
90.6811311743
  0
LINE
  5
263
100
AcDbEntity
  8
0
100
AcDbLine
 62
7
  6
CONTINUOUS
 10
47.5756846363
 20
100.9135667396
 11
47.5756846363
 21
100.3135667396
  0
LINE
  5
264
100
AcDbEntity
  8
0
100
AcDbLine
 62
7
  6
CONTINUOUS
 10
47.7756846363
 20
93.2635667396
 11
47.7756846363
 21
95.0635667396
  0
LINE
  5
265
100
AcDbEntity
  8
0
100
AcDbLine
 62
7
  6
CONTINUOUS
 10
37.2256846363
 20
96.2135667396
 11
37.6756846363
 21
96.6635667396
  0
LINE
  5
266
100
AcDbEntity
  8
0
100
AcDbLine
 62
7
  6
CONTINUOUS
 10
35.1756846363
 20
96.6635667396
 11
35.6256846363
 21
96.2135667396
  0
LINE
  5
267
100
AcDbEntity
  8
0
100
AcDbLine
 62
7
  6
CONTINUOUS
 10
48.5756846363
 20
95.0635667396
 11
48.5756846363
 21
93.2635667396
  0
LINE
  5
268
100
AcDbEntity
  8
0
100
AcDbLine
 62
7
  6
CONTINUOUS
 10
48.7756846363
 20
100.9135667396
 11
48.7756846363
 21
100.3135667396
  0
LINE
  5
269
100
AcDbEntity
  8
0
100
AcDbLine
 62
7
  6
CONTINUOUS
 10
48.9256846363
 20
88.1635667396
 11
48.9256846363
 21
92.0635667396
  0
LINE
  5
26A
100
AcDbEntity
  8
0
100
AcDbLine
 62
7
  6
CONTINUOUS
 10
49.5006846363
 20
101.2635667396
 11
49.5006846363
 21
95.0635667396
  0
LINE
  5
26B
100
AcDbEntity
  8
0
100
AcDbLine
 62
7
  6
CONTINUOUS
 10
49.9256846206
 20
101.2635667396
 11
49.9256846206
 21
103.1635667396
  0
LINE
  5
26C
100
AcDbEntity
  8
0
100
AcDbLine
 62
7
  6
CONTINUOUS
 10
50.3506846363
 20
95.0635667396
 11
50.3506846363
 21
101.2635667396
  0
LINE
  5
26D
100
AcDbEntity
  8
0
100
AcDbLine
 62
7
  6
CONTINUOUS
 10
51.0756846363
 20
100.9135667396
 11
51.0756846363
 21
100.3135667396
  0
LINE
  5
26E
100
AcDbEntity
  8
0
100
AcDbLine
 62
7
  6
CONTINUOUS
 10
51.2756846363
 20
93.2635667396
 11
51.2756846363
 21
95.0635667396
  0
LINE
  5
26F
100
AcDbEntity
  8
0
100
AcDbLine
 62
7
  6
CONTINUOUS
 10
43.7256846363
 20
96.2135667396
 11
44.1756846363
 21
96.6635667396
  0
LINE
  5
270
100
AcDbEntity
  8
0
100
AcDbLine
 62
7
  6
CONTINUOUS
 10
38.6756846363
 20
96.6635667396
 11
39.1256846363
 21
96.2135667396
  0
LINE
  5
271
100
AcDbEntity
  8
0
100
AcDbLine
 62
7
  6
CONTINUOUS
 10
51.9256846363
 20
88.1635667396
 11
51.9256846363
 21
92.0635667396
  0
LINE
  5
272
100
AcDbEntity
  8
0
100
AcDbLine
 62
7
  6
CONTINUOUS
 10
52.0756846363
 20
95.0635667396
 11
52.0756846363
 21
93.2635667396
  0
LINE
  5
273
100
AcDbEntity
  8
0
100
AcDbLine
 62
7
  6
CONTINUOUS
 10
52.2756846363
 20
100.9135667396
 11
52.2756846363
 21
100.3135667396
  0
LINE
  5
274
100
AcDbEntity
  8
0
100
AcDbLine
 62
7
  6
CONTINUOUS
 10
53.0006846363
 20
101.2635667396
 11
53.0006846363
 21
95.0635667396
  0
LINE
  5
275
100
AcDbEntity
  8
0
100
AcDbLine
 62
7
  6
CONTINUOUS
 10
53.4256846108
 20
101.2635667396
 11
53.4256846108
 21
103.1635667396
  0
LINE
  5
276
100
AcDbEntity
  8
0
100
AcDbLine
 62
7
  6
CONTINUOUS
 10
53.8506846363
 20
95.0635667396
 11
53.8506846363
 21
101.2635667396
  0
LINE
  5
277
100
AcDbEntity
  8
0
100
AcDbLine
 62
7
  6
CONTINUOUS
 10
54.5756846363
 20
100.9135667396
 11
54.5756846363
 21
100.3135667396
  0
LINE
  5
278
100
AcDbEntity
  8
0
100
AcDbLine
 62
7
  6
CONTINUOUS
 10
54.7756846363
 20
93.2635667396
 11
54.7756846363
 21
95.0635667396
  0
LINE
  5
279
100
AcDbEntity
  8
0
100
AcDbLine
 62
7
  6
CONTINUOUS
 10
47.2256846363
 20
96.2135667396
 11
47.6756846363
 21
96.6635667396
  0
LINE
  5
27A
100
AcDbEntity
  8
0
100
AcDbLine
 62
7
  6
CONTINUOUS
 10
45.1756846363
 20
96.6635667396
 11
45.6256846363
 21
96.2135667396
  0
LINE
  5
27B
100
AcDbEntity
  8
0
100
AcDbLine
 62
7
  6
CONTINUOUS
 10
55.5756846363
 20
95.0635667396
 11
55.5756846363
 21
93.2635667396
  0
LINE
  5
27C
100
AcDbEntity
  8
0
100
AcDbLine
 62
7
  6
CONTINUOUS
 10
55.7756846363
 20
100.9135667396
 11
55.7756846363
 21
100.3135667396
  0
LINE
  5
27D
100
AcDbEntity
  8
0
100
AcDbLine
 62
7
  6
CONTINUOUS
 10
56.5006846363
 20
101.2635667396
 11
56.5006846363
 21
95.0635667396
  0
LINE
  5
27E
100
AcDbEntity
  8
0
100
AcDbLine
 62
7
  6
CONTINUOUS
 10
56.925684601
 20
101.2635667396
 11
56.925684601
 21
103.1635667396
  0
LINE
  5
27F
100
AcDbEntity
  8
0
100
AcDbLine
 62
7
  6
CONTINUOUS
 10
57.3506846363
 20
95.0635667396
 11
57.3506846363
 21
101.2635667396
  0
LINE
  5
280
100
AcDbEntity
  8
0
100
AcDbLine
 62
7
  6
CONTINUOUS
 10
58.0756846363
 20
100.9135667396
 11
58.0756846363
 21
100.3135667396
  0
LINE
  5
281
100
AcDbEntity
  8
0
100
AcDbLine
 62
7
  6
CONTINUOUS
 10
58.2756846363
 20
93.2635667396
 11
58.2756846363
 21
95.0635667396
  0
LINE
  5
282
100
AcDbEntity
  8
0
100
AcDbLine
 62
7
  6
CONTINUOUS
 10
50.7256846363
 20
96.2135667396
 11
51.1756846363
 21
96.6635667396
  0
LINE
  5
283
100
AcDbEntity
  8
0
100
AcDbLine
 62
7
  6
CONTINUOUS
 10
54.2256846363
 20
96.2135667396
 11
54.6756846363
 21
96.6635667396
  0
LINE
  5
284
100
AcDbEntity
  8
0
100
AcDbLine
 62
7
  6
CONTINUOUS
 10
48.6756846363
 20
96.6635667396
 11
49.1256846363
 21
96.2135667396
  0
LINE
  5
285
100
AcDbEntity
  8
0
100
AcDbLine
 62
7
  6
CONTINUOUS
 10
52.1756846363
 20
96.6635667396
 11
52.6256846363
 21
96.2135667396
  0
LINE
  5
286
100
AcDbEntity
  8
0
100
AcDbLine
 62
7
  6
CONTINUOUS
 10
59.0756846363
 20
95.0635667396
 11
59.0756846363
 21
93.2635667396
  0
LINE
  5
287
100
AcDbEntity
  8
0
100
AcDbLine
 62
7
  6
CONTINUOUS
 10
59.2756846363
 20
100.9135667396
 11
59.2756846363
 21
100.3135667396
  0
LINE
  5
288
100
AcDbEntity
  8
0
100
AcDbLine
 62
7
  6
CONTINUOUS
 10
59.8256846363
 20
101.2635667396
 11
59.8256846363
 21
103.1635667396
  0
LINE
  5
289
100
AcDbEntity
  8
0
100
AcDbLine
 62
7
  6
CONTINUOUS
 10
60.1556846363
 20
100.3135667396
 11
60.1556846363
 21
96.2135667396
  0
LINE
  5
28A
100
AcDbEntity
  8
0
100
AcDbLine
 62
7
  6
CONTINUOUS
 10
60.4256846363
 20
92.0635667396
 11
60.4256846363
 21
103.1635667396
  0
LINE
  5
28B
100
AcDbEntity
  8
0
100
AcDbLine
 62
7
  6
CONTINUOUS
 10
57.7256846363
 20
96.2135667396
 11
58.1756846363
 21
96.6635667396
  0
LINE
  5
28C
100
AcDbEntity
  8
0
100
AcDbLine
 62
7
  6
CONTINUOUS
 10
15.9256846363
 20
88.1635667396
 11
30.9256846363
 21
88.1635667396
  0
LINE
  5
28D
100
AcDbEntity
  8
0
100
AcDbLine
 62
7
  6
CONTINUOUS
 10
33.9256846363
 20
88.1635667396
 11
48.9256846363
 21
88.1635667396
  0
LINE
  5
28E
100
AcDbEntity
  8
0
100
AcDbLine
 62
7
  6
CONTINUOUS
 10
51.9256846363
 20
88.1635667396
 11
71.9256846363
 21
88.1635667396
  0
LINE
  5
28F
100
AcDbEntity
  8
0
100
AcDbLine
 62
7
  6
CONTINUOUS
 10
74.9256846363
 20
88.1635667396
 11
94.9256846363
 21
88.1635667396
  0
LINE
  5
290
100
AcDbEntity
  8
0
100
AcDbLine
 62
7
  6
CONTINUOUS
 10
55.6756846363
 20
96.6635667396
 11
56.1256846363
 21
96.2135667396
  0
LINE
  5
291
100
AcDbEntity
  8
0
100
AcDbLine
 62
7
  6
CONTINUOUS
 10
60.6806846363
 20
94.8085667396
 11
60.9156846363
 21
94.1285667396
  0
LINE
  5
292
100
AcDbEntity
  8
0
100
AcDbLine
 62
7
  6
CONTINUOUS
 10
63.4256846363
 20
92.0635667396
 11
63.4256846363
 21
103.1635667396
  0
LINE
  5
293
100
AcDbEntity
  8
0
100
AcDbLine
 62
7
  6
CONTINUOUS
 10
63.6956846363
 20
96.2135667396
 11
63.6956846363
 21
100.3135667396
  0
LINE
  5
294
100
AcDbEntity
  8
0
100
AcDbLine
 62
7
  6
CONTINUOUS
 10
64.0256846363
 20
101.2635667396
 11
64.0256846363
 21
103.1635667396
  0
LINE
  5
295
100
AcDbEntity
  8
0
100
AcDbLine
 62
7
  6
CONTINUOUS
 10
64.5756846363
 20
100.9135667396
 11
64.5756846363
 21
100.3135667396
  0
LINE
  5
296
100
AcDbEntity
  8
0
100
AcDbLine
 62
7
  6
CONTINUOUS
 10
64.7756846363
 20
93.2635667396
 11
64.7756846363
 21
95.0635667396
  0
LINE
  5
297
100
AcDbEntity
  8
0
100
AcDbLine
 62
7
  6
CONTINUOUS
 10
65.5756846363
 20
95.0635667396
 11
65.5756846363
 21
93.2635667396
  0
LINE
  5
298
100
AcDbEntity
  8
0
100
AcDbLine
 62
7
  6
CONTINUOUS
 10
65.7756846363
 20
100.9135667396
 11
65.7756846363
 21
100.3135667396
  0
LINE
  5
299
100
AcDbEntity
  8
0
100
AcDbLine
 62
7
  6
CONTINUOUS
 10
62.9356846363
 20
94.1285667396
 11
63.1706846363
 21
94.8085667396
  0
LINE
  5
29A
100
AcDbEntity
  8
0
100
AcDbLine
 62
7
  6
CONTINUOUS
 10
64.2256846363
 20
96.2135667396
 11
64.6756846363
 21
96.6635667396
  0
LINE
  5
29B
100
AcDbEntity
  8
0
100
AcDbLine
 62
7
  6
CONTINUOUS
 10
15.9256846363
 20
89.3635667396
 11
16.9777458465
 21
89.3635667396
  0
LINE
  5
29C
100
AcDbEntity
  8
0
100
AcDbLine
 62
7
  6
CONTINUOUS
 10
19.8736234261
 20
89.3635667396
 11
21.9777458465
 21
89.3635667396
  0
LINE
  5
29D
100
AcDbEntity
  8
0
100
AcDbLine
 62
7
  6
CONTINUOUS
 10
24.8736234261
 20
89.3635667396
 11
26.9777458465
 21
89.3635667396
  0
LINE
  5
29E
100
AcDbEntity
  8
0
100
AcDbLine
 62
7
  6
CONTINUOUS
 10
29.8736234261
 20
89.3635667396
 11
30.9256846363
 21
89.3635667396
  0
LINE
  5
29F
100
AcDbEntity
  8
0
100
AcDbLine
 62
7
  6
CONTINUOUS
 10
33.9256846363
 20
89.3635667396
 11
34.9777458465
 21
89.3635667396
  0
LINE
  5
2A0
100
AcDbEntity
  8
0
100
AcDbLine
 62
7
  6
CONTINUOUS
 10
37.8736234261
 20
89.3635667396
 11
39.9777458465
 21
89.3635667396
  0
LINE
  5
2A1
100
AcDbEntity
  8
0
100
AcDbLine
 62
7
  6
CONTINUOUS
 10
42.8736234261
 20
89.3635667396
 11
44.9777458465
 21
89.3635667396
  0
LINE
  5
2A2
100
AcDbEntity
  8
0
100
AcDbLine
 62
7
  6
CONTINUOUS
 10
47.8736234261
 20
89.3635667396
 11
48.9256846363
 21
89.3635667396
  0
LINE
  5
2A3
100
AcDbEntity
  8
0
100
AcDbLine
 62
7
  6
CONTINUOUS
 10
51.9256846363
 20
89.3635667396
 11
52.9777458465
 21
89.3635667396
  0
LINE
  5
2A4
100
AcDbEntity
  8
0
100
AcDbLine
 62
7
  6
CONTINUOUS
 10
55.8736234261
 20
89.3635667396
 11
57.9777458465
 21
89.3635667396
  0
LINE
  5
2A5
100
AcDbEntity
  8
0
100
AcDbLine
 62
7
  6
CONTINUOUS
 10
60.8736234261
 20
89.3635667396
 11
62.9777458465
 21
89.3635667396
  0
LINE
  5
2A6
100
AcDbEntity
  8
0
100
AcDbLine
 62
7
  6
CONTINUOUS
 10
65.8736234261
 20
89.3635667396
 11
67.9777458465
 21
89.3635667396
  0
LINE
  5
2A7
100
AcDbEntity
  8
0
100
AcDbLine
 62
7
  6
CONTINUOUS
 10
70.8736234261
 20
89.3635667396
 11
71.9256846363
 21
89.3635667396
  0
LINE
  5
2A8
100
AcDbEntity
  8
0
100
AcDbLine
 62
7
  6
CONTINUOUS
 10
74.9256846363
 20
89.3635667396
 11
75.9777458465
 21
89.3635667396
  0
LINE
  5
2A9
100
AcDbEntity
  8
0
100
AcDbLine
 62
7
  6
CONTINUOUS
 10
78.8736234261
 20
89.3635667396
 11
80.9777458465
 21
89.3635667396
  0
LINE
  5
2AA
100
AcDbEntity
  8
0
100
AcDbLine
 62
7
  6
CONTINUOUS
 10
83.8736234261
 20
89.3635667396
 11
85.9777458465
 21
89.3635667396
  0
LINE
  5
2AB
100
AcDbEntity
  8
0
100
AcDbLine
 62
7
  6
CONTINUOUS
 10
88.8736234261
 20
89.3635667396
 11
90.9777458465
 21
89.3635667396
  0
LINE
  5
2AC
100
AcDbEntity
  8
0
100
AcDbLine
 62
7
  6
CONTINUOUS
 10
93.8736234261
 20
89.3635667396
 11
94.9256846363
 21
89.3635667396
  0
LINE
  5
2AD
100
AcDbEntity
  8
0
100
AcDbLine
 62
7
  6
CONTINUOUS
 10
15.9256846363
 20
89.8935667396
 11
16.3049709029
 21
89.8935667396
  0
LINE
  5
2AE
100
AcDbEntity
  8
0
100
AcDbLine
 62
7
  6
CONTINUOUS
 10
20.5463983697
 20
89.8935667396
 11
21.3049709029
 21
89.8935667396
  0
LINE
  5
2AF
100
AcDbEntity
  8
0
100
AcDbLine
 62
7
  6
CONTINUOUS
 10
25.5463983697
 20
89.8935667396
 11
26.3049709029
 21
89.8935667396
  0
LINE
  5
2B0
100
AcDbEntity
  8
0
100
AcDbLine
 62
7
  6
CONTINUOUS
 10
30.5463983697
 20
89.8935667396
 11
30.9256846363
 21
89.8935667396
  0
LINE
  5
2B1
100
AcDbEntity
  8
0
100
AcDbLine
 62
7
  6
CONTINUOUS
 10
33.9256846363
 20
89.8935667396
 11
34.3049709029
 21
89.8935667396
  0
LINE
  5
2B2
100
AcDbEntity
  8
0
100
AcDbLine
 62
7
  6
CONTINUOUS
 10
38.5463983697
 20
89.8935667396
 11
39.3049709029
 21
89.8935667396
  0
LINE
  5
2B3
100
AcDbEntity
  8
0
100
AcDbLine
 62
7
  6
CONTINUOUS
 10
43.5463983697
 20
89.8935667396
 11
44.3049709029
 21
89.8935667396
  0
LINE
  5
2B4
100
AcDbEntity
  8
0
100
AcDbLine
 62
7
  6
CONTINUOUS
 10
48.5463983697
 20
89.8935667396
 11
48.9256846363
 21
89.8935667396
  0
LINE
  5
2B5
100
AcDbEntity
  8
0
100
AcDbLine
 62
7
  6
CONTINUOUS
 10
51.9256846363
 20
89.8935667396
 11
52.3049709029
 21
89.8935667396
  0
LINE
  5
2B6
100
AcDbEntity
  8
0
100
AcDbLine
 62
7
  6
CONTINUOUS
 10
56.5463983697
 20
89.8935667396
 11
57.3049709029
 21
89.8935667396
  0
LINE
  5
2B7
100
AcDbEntity
  8
0
100
AcDbLine
 62
7
  6
CONTINUOUS
 10
61.5463983697
 20
89.8935667396
 11
62.3049709029
 21
89.8935667396
  0
LINE
  5
2B8
100
AcDbEntity
  8
0
100
AcDbLine
 62
7
  6
CONTINUOUS
 10
66.5463983697
 20
89.8935667396
 11
67.3049709029
 21
89.8935667396
  0
LINE
  5
2B9
100
AcDbEntity
  8
0
100
AcDbLine
 62
7
  6
CONTINUOUS
 10
71.5463983697
 20
89.8935667396
 11
71.9256846363
 21
89.8935667396
  0
LINE
  5
2BA
100
AcDbEntity
  8
0
100
AcDbLine
 62
7
  6
CONTINUOUS
 10
74.9256846363
 20
89.8935667396
 11
75.3049709029
 21
89.8935667396
  0
LINE
  5
2BB
100
AcDbEntity
  8
0
100
AcDbLine
 62
7
  6
CONTINUOUS
 10
79.5463983697
 20
89.8935667396
 11
80.3049709029
 21
89.8935667396
  0
LINE
  5
2BC
100
AcDbEntity
  8
0
100
AcDbLine
 62
7
  6
CONTINUOUS
 10
84.5463983697
 20
89.8935667396
 11
85.3049709029
 21
89.8935667396
  0
LINE
  5
2BD
100
AcDbEntity
  8
0
100
AcDbLine
 62
7
  6
CONTINUOUS
 10
89.5463983697
 20
89.8935667396
 11
90.3049709029
 21
89.8935667396
  0
LINE
  5
2BE
100
AcDbEntity
  8
0
100
AcDbLine
 62
7
  6
CONTINUOUS
 10
94.5463983697
 20
89.8935667396
 11
94.9256846363
 21
89.8935667396
  0
LINE
  5
2BF
100
AcDbEntity
  8
0
100
AcDbLine
 62
7
  6
CONTINUOUS
 10
15.9256846363
 20
92.0635667396
 11
26.4256846363
 21
92.0635667396
  0
LINE
  5
2C0
100
AcDbEntity
  8
0
100
AcDbLine
 62
7
  6
CONTINUOUS
 10
29.4256846363
 20
92.0635667396
 11
39.9256846363
 21
92.0635667396
  0
LINE
  5
2C1
100
AcDbEntity
  8
0
100
AcDbLine
 62
7
  6
CONTINUOUS
 10
42.9256846363
 20
92.0635667396
 11
60.4256846363
 21
92.0635667396
  0
LINE
  5
2C2
100
AcDbEntity
  8
0
100
AcDbLine
 62
7
  6
CONTINUOUS
 10
63.4256846363
 20
92.0635667396
 11
87.9256846363
 21
92.0635667396
  0
LINE
  5
2C3
100
AcDbEntity
  8
0
100
AcDbLine
 62
7
  6
CONTINUOUS
 10
90.9256846363
 20
92.0635667396
 11
122.4256846363
 21
92.0635667396
  0
LINE
  5
2C4
100
AcDbEntity
  8
0
100
AcDbLine
 62
7
  6
CONTINUOUS
 10
59.1756846363
 20
96.6635667396
 11
59.6256846363
 21
96.2135667396
  0
LINE
  5
2C5
100
AcDbEntity
  8
0
100
AcDbLine
 62
7
  6
CONTINUOUS
 10
66.5006846363
 20
101.2635667396
 11
66.5006846363
 21
95.0635667396
  0
LINE
  5
2C6
100
AcDbEntity
  8
0
100
AcDbLine
 62
7
  6
CONTINUOUS
 10
66.9256846363
 20
101.2635667396
 11
66.9256846363
 21
103.1635667396
  0
LINE
  5
2C7
100
AcDbEntity
  8
0
100
AcDbLine
 62
7
  6
CONTINUOUS
 10
67.3506846363
 20
95.0635667396
 11
67.3506846363
 21
101.2635667396
  0
LINE
  5
2C8
100
AcDbEntity
  8
0
100
AcDbLine
 62
7
  6
CONTINUOUS
 10
68.0756846363
 20
100.9135667396
 11
68.0756846363
 21
100.3135667396
  0
LINE
  5
2C9
100
AcDbEntity
  8
0
100
AcDbLine
 62
7
  6
CONTINUOUS
 10
68.2756846363
 20
93.2635667396
 11
68.2756846363
 21
95.0635667396
  0
LINE
  5
2CA
100
AcDbEntity
  8
0
100
AcDbLine
 62
7
  6
CONTINUOUS
 10
69.0756846363
 20
95.0635667396
 11
69.0756846363
 21
93.2635667396
  0
LINE
  5
2CB
100
AcDbEntity
  8
0
100
AcDbLine
 62
7
  6
CONTINUOUS
 10
69.2756846363
 20
100.9135667396
 11
69.2756846363
 21
100.3135667396
  0
LINE
  5
2CC
100
AcDbEntity
  8
0
100
AcDbLine
 62
7
  6
CONTINUOUS
 10
67.7256846363
 20
96.2135667396
 11
68.1756846363
 21
96.6635667396
  0
LINE
  5
2CD
100
AcDbEntity
  8
0
100
AcDbLine
 62
7
  6
CONTINUOUS
 10
88.9156846363
 20
94.1285667396
 11
87.9256846363
 21
94.1285667396
  0
LINE
  5
2CE
100
AcDbEntity
  8
0
100
AcDbLine
 62
7
  6
CONTINUOUS
 10
63.4256846363
 20
94.1285667396
 11
62.9356846363
 21
94.1285667396
  0
LINE
  5
2CF
100
AcDbEntity
  8
0
100
AcDbLine
 62
7
  6
CONTINUOUS
 10
60.9156846363
 20
94.1285667396
 11
60.4256846363
 21
94.1285667396
  0
LINE
  5
2D0
100
AcDbEntity
  8
0
100
AcDbLine
 62
7
  6
CONTINUOUS
 10
42.9156846363
 20
94.1285667396
 11
39.9356846363
 21
94.1285667396
  0
LINE
  5
2D1
100
AcDbEntity
  8
0
100
AcDbLine
 62
7
  6
CONTINUOUS
 10
29.4256846363
 20
94.1285667396
 11
26.9356846363
 21
94.1285667396
  0
LINE
  5
2D2
100
AcDbEntity
  8
0
100
AcDbLine
 62
7
  6
CONTINUOUS
 10
29.4256846363
 20
94.8085667396
 11
27.5256846363
 21
94.8085667396
  0
LINE
  5
2D3
100
AcDbEntity
  8
0
100
AcDbLine
 62
7
  6
CONTINUOUS
 10
26.4256846363
 20
94.8085667396
 11
27.1706846363
 21
94.8085667396
  0
LINE
  5
2D4
100
AcDbEntity
  8
0
100
AcDbLine
 62
7
  6
CONTINUOUS
 10
39.9256846363
 20
94.8085667396
 11
42.9256846363
 21
94.8085667396
  0
LINE
  5
2D5
100
AcDbEntity
  8
0
100
AcDbLine
 62
7
  6
CONTINUOUS
 10
60.4256846363
 20
94.8085667396
 11
63.4256846363
 21
94.8085667396
  0
LINE
  5
2D6
100
AcDbEntity
  8
0
100
AcDbLine
 62
7
  6
CONTINUOUS
 10
87.9256846363
 20
94.8085667396
 11
90.9256846363
 21
94.8085667396
  0
LINE
  5
2D7
100
AcDbEntity
  8
0
100
AcDbLine
 62
7
  6
CONTINUOUS
 10
15.9256846363
 20
95.0635667396
 11
17.2756846363
 21
95.0635667396
  0
LINE
  5
2D8
100
AcDbEntity
  8
0
100
AcDbLine
 62
7
  6
CONTINUOUS
 10
18.0756846363
 20
95.0635667396
 11
19.0006846363
 21
95.0635667396
  0
LINE
  5
2D9
100
AcDbEntity
  8
0
100
AcDbLine
 62
7
  6
CONTINUOUS
 10
19.8506846363
 20
95.0635667396
 11
20.7756846363
 21
95.0635667396
  0
LINE
  5
2DA
100
AcDbEntity
  8
0
100
AcDbLine
 62
7
  6
CONTINUOUS
 10
21.5756846363
 20
95.0635667396
 11
22.5006846363
 21
95.0635667396
  0
LINE
  5
2DB
100
AcDbEntity
  8
0
100
AcDbLine
 62
7
  6
CONTINUOUS
 10
23.3506846363
 20
95.0635667396
 11
24.2756846363
 21
95.0635667396
  0
LINE
  5
2DC
100
AcDbEntity
  8
0
100
AcDbLine
 62
7
  6
CONTINUOUS
 10
25.0756846363
 20
95.0635667396
 11
26.4256846363
 21
95.0635667396
  0
LINE
  5
2DD
100
AcDbEntity
  8
0
100
AcDbLine
 62
7
  6
CONTINUOUS
 10
29.4256846363
 20
95.0635667396
 11
30.7756846363
 21
95.0635667396
  0
LINE
  5
2DE
100
AcDbEntity
  8
0
100
AcDbLine
 62
7
  6
CONTINUOUS
 10
31.5756846363
 20
95.0635667396
 11
32.5006846363
 21
95.0635667396
  0
LINE
  5
2DF
100
AcDbEntity
  8
0
100
AcDbLine
 62
7
  6
CONTINUOUS
 10
33.3506846363
 20
95.0635667396
 11
34.2756846363
 21
95.0635667396
  0
LINE
  5
2E0
100
AcDbEntity
  8
0
100
AcDbLine
 62
7
  6
CONTINUOUS
 10
35.0756846363
 20
95.0635667396
 11
36.0006846363
 21
95.0635667396
  0
LINE
  5
2E1
100
AcDbEntity
  8
0
100
AcDbLine
 62
7
  6
CONTINUOUS
 10
36.8506846363
 20
95.0635667396
 11
37.7756846363
 21
95.0635667396
  0
LINE
  5
2E2
100
AcDbEntity
  8
0
100
AcDbLine
 62
7
  6
CONTINUOUS
 10
38.5756846363
 20
95.0635667396
 11
39.9256846363
 21
95.0635667396
  0
LINE
  5
2E3
100
AcDbEntity
  8
0
100
AcDbLine
 62
7
  6
CONTINUOUS
 10
42.9256846363
 20
95.0635667396
 11
44.2756846363
 21
95.0635667396
  0
LINE
  5
2E4
100
AcDbEntity
  8
0
100
AcDbLine
 62
7
  6
CONTINUOUS
 10
45.0756846363
 20
95.0635667396
 11
46.0006846363
 21
95.0635667396
  0
LINE
  5
2E5
100
AcDbEntity
  8
0
100
AcDbLine
 62
7
  6
CONTINUOUS
 10
46.8506846363
 20
95.0635667396
 11
47.7756846363
 21
95.0635667396
  0
LINE
  5
2E6
100
AcDbEntity
  8
0
100
AcDbLine
 62
7
  6
CONTINUOUS
 10
48.5756846363
 20
95.0635667396
 11
49.5006846363
 21
95.0635667396
  0
LINE
  5
2E7
100
AcDbEntity
  8
0
100
AcDbLine
 62
7
  6
CONTINUOUS
 10
50.3506846363
 20
95.0635667396
 11
51.2756846363
 21
95.0635667396
  0
LINE
  5
2E8
100
AcDbEntity
  8
0
100
AcDbLine
 62
7
  6
CONTINUOUS
 10
52.0756846363
 20
95.0635667396
 11
53.0006846363
 21
95.0635667396
  0
LINE
  5
2E9
100
AcDbEntity
  8
0
100
AcDbLine
 62
7
  6
CONTINUOUS
 10
53.8506846363
 20
95.0635667396
 11
54.7756846363
 21
95.0635667396
  0
LINE
  5
2EA
100
AcDbEntity
  8
0
100
AcDbLine
 62
7
  6
CONTINUOUS
 10
55.5756846363
 20
95.0635667396
 11
56.5006846363
 21
95.0635667396
  0
LINE
  5
2EB
100
AcDbEntity
  8
0
100
AcDbLine
 62
7
  6
CONTINUOUS
 10
57.3506846363
 20
95.0635667396
 11
58.2756846363
 21
95.0635667396
  0
LINE
  5
2EC
100
AcDbEntity
  8
0
100
AcDbLine
 62
7
  6
CONTINUOUS
 10
59.0756846363
 20
95.0635667396
 11
60.4256846363
 21
95.0635667396
  0
LINE
  5
2ED
100
AcDbEntity
  8
0
100
AcDbLine
 62
7
  6
CONTINUOUS
 10
63.4256846363
 20
95.0635667396
 11
64.7756846363
 21
95.0635667396
  0
LINE
  5
2EE
100
AcDbEntity
  8
0
100
AcDbLine
 62
7
  6
CONTINUOUS
 10
65.5756846363
 20
95.0635667396
 11
66.5006846363
 21
95.0635667396
  0
LINE
  5
2EF
100
AcDbEntity
  8
0
100
AcDbLine
 62
7
  6
CONTINUOUS
 10
67.3506846363
 20
95.0635667396
 11
68.2756846363
 21
95.0635667396
  0
LINE
  5
2F0
100
AcDbEntity
  8
0
100
AcDbLine
 62
7
  6
CONTINUOUS
 10
69.0756846363
 20
95.0635667396
 11
70.0006846363
 21
95.0635667396
  0
LINE
  5
2F1
100
AcDbEntity
  8
0
100
AcDbLine
 62
7
  6
CONTINUOUS
 10
70.8506846363
 20
95.0635667396
 11
71.7756846363
 21
95.0635667396
  0
LINE
  5
2F2
100
AcDbEntity
  8
0
100
AcDbLine
 62
7
  6
CONTINUOUS
 10
72.5756846363
 20
95.0635667396
 11
73.5006846363
 21
95.0635667396
  0
LINE
  5
2F3
100
AcDbEntity
  8
0
100
AcDbLine
 62
7
  6
CONTINUOUS
 10
74.3506846363
 20
95.0635667396
 11
75.2756846363
 21
95.0635667396
  0
LINE
  5
2F4
100
AcDbEntity
  8
0
100
AcDbLine
 62
7
  6
CONTINUOUS
 10
76.0756846363
 20
95.0635667396
 11
77.0006846363
 21
95.0635667396
  0
LINE
  5
2F5
100
AcDbEntity
  8
0
100
AcDbLine
 62
7
  6
CONTINUOUS
 10
77.8506846363
 20
95.0635667396
 11
78.7756846363
 21
95.0635667396
  0
LINE
  5
2F6
100
AcDbEntity
  8
0
100
AcDbLine
 62
7
  6
CONTINUOUS
 10
79.5756846363
 20
95.0635667396
 11
80.5006846363
 21
95.0635667396
  0
LINE
  5
2F7
100
AcDbEntity
  8
0
100
AcDbLine
 62
7
  6
CONTINUOUS
 10
81.3506846363
 20
95.0635667396
 11
82.2756846363
 21
95.0635667396
  0
LINE
  5
2F8
100
AcDbEntity
  8
0
100
AcDbLine
 62
7
  6
CONTINUOUS
 10
83.0756846363
 20
95.0635667396
 11
84.0006846363
 21
95.0635667396
  0
LINE
  5
2F9
100
AcDbEntity
  8
0
100
AcDbLine
 62
7
  6
CONTINUOUS
 10
84.8506846363
 20
95.0635667396
 11
85.7756846363
 21
95.0635667396
  0
LINE
  5
2FA
100
AcDbEntity
  8
0
100
AcDbLine
 62
7
  6
CONTINUOUS
 10
86.5756846363
 20
95.0635667396
 11
87.9256846363
 21
95.0635667396
  0
LINE
  5
2FB
100
AcDbEntity
  8
0
100
AcDbLine
 62
7
  6
CONTINUOUS
 10
90.9256846363
 20
95.0635667396
 11
92.2756846363
 21
95.0635667396
  0
LINE
  5
2FC
100
AcDbEntity
  8
0
100
AcDbLine
 62
7
  6
CONTINUOUS
 10
93.0756846363
 20
95.0635667396
 11
94.0006846363
 21
95.0635667396
  0
LINE
  5
2FD
100
AcDbEntity
  8
0
100
AcDbLine
 62
7
  6
CONTINUOUS
 10
94.8506846363
 20
95.0635667396
 11
95.7756846363
 21
95.0635667396
  0
LINE
  5
2FE
100
AcDbEntity
  8
0
100
AcDbLine
 62
7
  6
CONTINUOUS
 10
96.5756846363
 20
95.0635667396
 11
97.5006846363
 21
95.0635667396
  0
LINE
  5
2FF
100
AcDbEntity
  8
0
100
AcDbLine
 62
7
  6
CONTINUOUS
 10
98.3506846363
 20
95.0635667396
 11
99.2756846363
 21
95.0635667396
  0
LINE
  5
300
100
AcDbEntity
  8
0
100
AcDbLine
 62
7
  6
CONTINUOUS
 10
100.0756846363
 20
95.0635667396
 11
101.0006846363
 21
95.0635667396
  0
LINE
  5
301
100
AcDbEntity
  8
0
100
AcDbLine
 62
7
  6
CONTINUOUS
 10
101.8506846363
 20
95.0635667396
 11
102.7756846363
 21
95.0635667396
  0
LINE
  5
302
100
AcDbEntity
  8
0
100
AcDbLine
 62
7
  6
CONTINUOUS
 10
103.5756846363
 20
95.0635667396
 11
104.5006846363
 21
95.0635667396
  0
LINE
  5
303
100
AcDbEntity
  8
0
100
AcDbLine
 62
7
  6
CONTINUOUS
 10
105.3506846363
 20
95.0635667396
 11
106.2756846363
 21
95.0635667396
  0
LINE
  5
304
100
AcDbEntity
  8
0
100
AcDbLine
 62
7
  6
CONTINUOUS
 10
107.0756846363
 20
95.0635667396
 11
108.0006846363
 21
95.0635667396
  0
LINE
  5
305
100
AcDbEntity
  8
0
100
AcDbLine
 62
7
  6
CONTINUOUS
 10
108.8506846363
 20
95.0635667396
 11
109.7756846363
 21
95.0635667396
  0
LINE
  5
306
100
AcDbEntity
  8
0
100
AcDbLine
 62
7
  6
CONTINUOUS
 10
110.5756846363
 20
95.0635667396
 11
111.5006846363
 21
95.0635667396
  0
LINE
  5
307
100
AcDbEntity
  8
0
100
AcDbLine
 62
7
  6
CONTINUOUS
 10
112.3506846363
 20
95.0635667396
 11
113.2756846363
 21
95.0635667396
  0
LINE
  5
308
100
AcDbEntity
  8
0
100
AcDbLine
 62
7
  6
CONTINUOUS
 10
114.0756846363
 20
95.0635667396
 11
115.0006846363
 21
95.0635667396
  0
LINE
  5
309
100
AcDbEntity
  8
0
100
AcDbLine
 62
7
  6
CONTINUOUS
 10
115.8506846363
 20
95.0635667396
 11
116.7756846363
 21
95.0635667396
  0
LINE
  5
30A
100
AcDbEntity
  8
0
100
AcDbLine
 62
7
  6
CONTINUOUS
 10
117.5756846363
 20
95.0635667396
 11
118.5006846363
 21
95.0635667396
  0
LINE
  5
30B
100
AcDbEntity
  8
0
100
AcDbLine
 62
7
  6
CONTINUOUS
 10
119.3506846363
 20
95.0635667396
 11
120.2756846363
 21
95.0635667396
  0
LINE
  5
30C
100
AcDbEntity
  8
0
100
AcDbLine
 62
7
  6
CONTINUOUS
 10
121.0756846363
 20
95.0635667396
 11
122.4256846363
 21
95.0635667396
  0
LINE
  5
30D
100
AcDbEntity
  8
0
100
AcDbLine
 62
7
  6
CONTINUOUS
 10
27.5256846363
 20
95.6745921434
 11
29.4256846363
 21
95.6745921434
  0
LINE
  5
30E
100
AcDbEntity
  8
0
100
AcDbLine
 62
7
  6
CONTINUOUS
 10
39.9256846363
 20
95.6745921434
 11
42.9256846363
 21
95.6745921434
  0
LINE
  5
30F
100
AcDbEntity
  8
0
100
AcDbLine
 62
7
  6
CONTINUOUS
 10
60.4256846363
 20
95.6745921434
 11
63.4256846363
 21
95.6745921434
  0
LINE
  5
310
100
AcDbEntity
  8
0
100
AcDbLine
 62
7
  6
CONTINUOUS
 10
87.9256846363
 20
95.6745921434
 11
89.9256846363
 21
95.6745921434
  0
LINE
  5
311
100
AcDbEntity
  8
0
100
AcDbLine
 62
7
  6
CONTINUOUS
 10
90.9256846363
 20
96.0093057797
 11
89.9256846363
 21
96.0093057797
  0
LINE
  5
312
100
AcDbEntity
  8
0
100
AcDbLine
 62
7
  6
CONTINUOUS
 10
27.5256846363
 20
96.0093057797
 11
26.4256846363
 21
96.0093057797
  0
LINE
  5
313
100
AcDbEntity
  8
0
100
AcDbLine
 62
7
  6
CONTINUOUS
 10
65.6756846363
 20
96.6635667396
 11
66.1256846363
 21
96.2135667396
  0
LINE
  5
314
100
AcDbEntity
  8
0
100
AcDbLine
 62
7
  6
CONTINUOUS
 10
70.0006846363
 20
101.2635667396
 11
70.0006846363
 21
95.0635667396
  0
LINE
  5
315
100
AcDbEntity
  8
0
100
AcDbLine
 62
7
  6
CONTINUOUS
 10
70.1256846363
 20
92.0635667396
 11
70.1256846363
 21
90.6811311743
  0
LINE
  5
316
100
AcDbEntity
  8
0
100
AcDbLine
 62
7
  6
CONTINUOUS
 10
70.4256846363
 20
101.2635667396
 11
70.4256846363
 21
103.1635667396
  0
LINE
  5
317
100
AcDbEntity
  8
0
100
AcDbLine
 62
7
  6
CONTINUOUS
 10
70.8506846363
 20
95.0635667396
 11
70.8506846363
 21
101.2635667396
  0
LINE
  5
318
100
AcDbEntity
  8
0
100
AcDbLine
 62
7
  6
CONTINUOUS
 10
71.5756846363
 20
100.9135667396
 11
71.5756846363
 21
100.3135667396
  0
LINE
  5
319
100
AcDbEntity
  8
0
100
AcDbLine
 62
7
  6
CONTINUOUS
 10
71.7756846363
 20
93.2635667396
 11
71.7756846363
 21
95.0635667396
  0
LINE
  5
31A
100
AcDbEntity
  8
0
100
AcDbLine
 62
7
  6
CONTINUOUS
 10
71.9256846363
 20
88.1635667396
 11
71.9256846363
 21
92.0635667396
  0
LINE
  5
31B
100
AcDbEntity
  8
0
100
AcDbLine
 62
7
  6
CONTINUOUS
 10
72.5756846363
 20
95.0635667396
 11
72.5756846363
 21
93.2635667396
  0
LINE
  5
31C
100
AcDbEntity
  8
0
100
AcDbLine
 62
7
  6
CONTINUOUS
 10
72.7756846363
 20
100.9135667396
 11
72.7756846363
 21
100.3135667396
  0
LINE
  5
31D
100
AcDbEntity
  8
0
100
AcDbLine
 62
7
  6
CONTINUOUS
 10
71.2256846363
 20
96.2135667396
 11
71.6756846363
 21
96.6635667396
  0
LINE
  5
31E
100
AcDbEntity
  8
0
100
AcDbLine
 62
7
  6
CONTINUOUS
 10
74.7256846363
 20
96.2135667396
 11
75.1756846363
 21
96.6635667396
  0
LINE
  5
31F
100
AcDbEntity
  8
0
100
AcDbLine
 62
7
  6
CONTINUOUS
 10
90.9256846363
 20
96.1779845422
 11
89.9256846363
 21
96.1779845422
  0
LINE
  5
320
100
AcDbEntity
  8
0
100
AcDbLine
 62
7
  6
CONTINUOUS
 10
27.5256846363
 20
96.1779845422
 11
26.4256846363
 21
96.1779845422
  0
LINE
  5
321
100
AcDbEntity
  8
0
100
AcDbLine
 62
7
  6
CONTINUOUS
 10
122.1556846363
 20
96.2135667396
 11
121.6256846363
 21
96.2135667396
  0
LINE
  5
322
100
AcDbEntity
  8
0
100
AcDbLine
 62
7
  6
CONTINUOUS
 10
119.7256846363
 20
96.2135667396
 11
119.3506846363
 21
96.2135667396
  0
LINE
  5
323
100
AcDbEntity
  8
0
100
AcDbLine
 62
7
  6
CONTINUOUS
 10
118.5006846363
 20
96.2135667396
 11
118.1256846363
 21
96.2135667396
  0
LINE
  5
324
100
AcDbEntity
  8
0
100
AcDbLine
 62
7
  6
CONTINUOUS
 10
116.2256846363
 20
96.2135667396
 11
115.8506846363
 21
96.2135667396
  0
LINE
  5
325
100
AcDbEntity
  8
0
100
AcDbLine
 62
7
  6
CONTINUOUS
 10
115.0006846363
 20
96.2135667396
 11
114.6256846363
 21
96.2135667396
  0
LINE
  5
326
100
AcDbEntity
  8
0
100
AcDbLine
 62
7
  6
CONTINUOUS
 10
112.7256846363
 20
96.2135667396
 11
112.3506846363
 21
96.2135667396
  0
LINE
  5
327
100
AcDbEntity
  8
0
100
AcDbLine
 62
7
  6
CONTINUOUS
 10
111.5006846363
 20
96.2135667396
 11
111.1256846363
 21
96.2135667396
  0
LINE
  5
328
100
AcDbEntity
  8
0
100
AcDbLine
 62
7
  6
CONTINUOUS
 10
109.2256846363
 20
96.2135667396
 11
108.8506846363
 21
96.2135667396
  0
LINE
  5
329
100
AcDbEntity
  8
0
100
AcDbLine
 62
7
  6
CONTINUOUS
 10
108.0006846363
 20
96.2135667396
 11
107.6256846363
 21
96.2135667396
  0
LINE
  5
32A
100
AcDbEntity
  8
0
100
AcDbLine
 62
7
  6
CONTINUOUS
 10
105.7256846363
 20
96.2135667396
 11
105.3506846363
 21
96.2135667396
  0
LINE
  5
32B
100
AcDbEntity
  8
0
100
AcDbLine
 62
7
  6
CONTINUOUS
 10
104.5006846363
 20
96.2135667396
 11
104.1256846363
 21
96.2135667396
  0
LINE
  5
32C
100
AcDbEntity
  8
0
100
AcDbLine
 62
7
  6
CONTINUOUS
 10
102.2256846363
 20
96.2135667396
 11
101.8506846363
 21
96.2135667396
  0
LINE
  5
32D
100
AcDbEntity
  8
0
100
AcDbLine
 62
7
  6
CONTINUOUS
 10
101.0006846363
 20
96.2135667396
 11
100.6256846363
 21
96.2135667396
  0
LINE
  5
32E
100
AcDbEntity
  8
0
100
AcDbLine
 62
7
  6
CONTINUOUS
 10
98.7256846363
 20
96.2135667396
 11
98.3506846363
 21
96.2135667396
  0
LINE
  5
32F
100
AcDbEntity
  8
0
100
AcDbLine
 62
7
  6
CONTINUOUS
 10
97.5006846363
 20
96.2135667396
 11
97.1256846363
 21
96.2135667396
  0
LINE
  5
330
100
AcDbEntity
  8
0
100
AcDbLine
 62
7
  6
CONTINUOUS
 10
95.2256846363
 20
96.2135667396
 11
94.8506846363
 21
96.2135667396
  0
LINE
  5
331
100
AcDbEntity
  8
0
100
AcDbLine
 62
7
  6
CONTINUOUS
 10
94.0006846363
 20
96.2135667396
 11
93.6256846363
 21
96.2135667396
  0
LINE
  5
332
100
AcDbEntity
  8
0
100
AcDbLine
 62
7
  6
CONTINUOUS
 10
91.7256846363
 20
96.2135667396
 11
91.1956846363
 21
96.2135667396
  0
LINE
  5
333
100
AcDbEntity
  8
0
100
AcDbLine
 62
7
  6
CONTINUOUS
 10
87.6556846363
 20
96.2135667396
 11
87.1256846363
 21
96.2135667396
  0
LINE
  5
334
100
AcDbEntity
  8
0
100
AcDbLine
 62
7
  6
CONTINUOUS
 10
85.2256846363
 20
96.2135667396
 11
84.8506846363
 21
96.2135667396
  0
LINE
  5
335
100
AcDbEntity
  8
0
100
AcDbLine
 62
7
  6
CONTINUOUS
 10
84.0006846363
 20
96.2135667396
 11
83.6256846363
 21
96.2135667396
  0
LINE
  5
336
100
AcDbEntity
  8
0
100
AcDbLine
 62
7
  6
CONTINUOUS
 10
81.7256846363
 20
96.2135667396
 11
81.3506846363
 21
96.2135667396
  0
LINE
  5
337
100
AcDbEntity
  8
0
100
AcDbLine
 62
7
  6
CONTINUOUS
 10
80.5006846363
 20
96.2135667396
 11
80.1256846363
 21
96.2135667396
  0
LINE
  5
338
100
AcDbEntity
  8
0
100
AcDbLine
 62
7
  6
CONTINUOUS
 10
78.2256846363
 20
96.2135667396
 11
77.8506846363
 21
96.2135667396
  0
LINE
  5
339
100
AcDbEntity
  8
0
100
AcDbLine
 62
7
  6
CONTINUOUS
 10
77.0006846363
 20
96.2135667396
 11
76.6256846363
 21
96.2135667396
  0
LINE
  5
33A
100
AcDbEntity
  8
0
100
AcDbLine
 62
7
  6
CONTINUOUS
 10
74.7256846363
 20
96.2135667396
 11
74.3506846363
 21
96.2135667396
  0
LINE
  5
33B
100
AcDbEntity
  8
0
100
AcDbLine
 62
7
  6
CONTINUOUS
 10
73.5006846363
 20
96.2135667396
 11
73.1256846363
 21
96.2135667396
  0
LINE
  5
33C
100
AcDbEntity
  8
0
100
AcDbLine
 62
7
  6
CONTINUOUS
 10
71.2256846363
 20
96.2135667396
 11
70.8506846363
 21
96.2135667396
  0
LINE
  5
33D
100
AcDbEntity
  8
0
100
AcDbLine
 62
7
  6
CONTINUOUS
 10
70.0006846363
 20
96.2135667396
 11
69.6256846363
 21
96.2135667396
  0
LINE
  5
33E
100
AcDbEntity
  8
0
100
AcDbLine
 62
7
  6
CONTINUOUS
 10
67.7256846363
 20
96.2135667396
 11
67.3506846363
 21
96.2135667396
  0
LINE
  5
33F
100
AcDbEntity
  8
0
100
AcDbLine
 62
7
  6
CONTINUOUS
 10
66.5006846363
 20
96.2135667396
 11
66.1256846363
 21
96.2135667396
  0
LINE
  5
340
100
AcDbEntity
  8
0
100
AcDbLine
 62
7
  6
CONTINUOUS
 10
64.2256846363
 20
96.2135667396
 11
63.6956846363
 21
96.2135667396
  0
LINE
  5
341
100
AcDbEntity
  8
0
100
AcDbLine
 62
7
  6
CONTINUOUS
 10
60.1556846363
 20
96.2135667396
 11
59.6256846363
 21
96.2135667396
  0
LINE
  5
342
100
AcDbEntity
  8
0
100
AcDbLine
 62
7
  6
CONTINUOUS
 10
57.7256846363
 20
96.2135667396
 11
57.3506846363
 21
96.2135667396
  0
LINE
  5
343
100
AcDbEntity
  8
0
100
AcDbLine
 62
7
  6
CONTINUOUS
 10
56.5006846363
 20
96.2135667396
 11
56.1256846363
 21
96.2135667396
  0
LINE
  5
344
100
AcDbEntity
  8
0
100
AcDbLine
 62
7
  6
CONTINUOUS
 10
54.2256846363
 20
96.2135667396
 11
53.8506846363
 21
96.2135667396
  0
LINE
  5
345
100
AcDbEntity
  8
0
100
AcDbLine
 62
7
  6
CONTINUOUS
 10
53.0006846363
 20
96.2135667396
 11
52.6256846363
 21
96.2135667396
  0
LINE
  5
346
100
AcDbEntity
  8
0
100
AcDbLine
 62
7
  6
CONTINUOUS
 10
50.7256846363
 20
96.2135667396
 11
50.3506846363
 21
96.2135667396
  0
LINE
  5
347
100
AcDbEntity
  8
0
100
AcDbLine
 62
7
  6
CONTINUOUS
 10
49.5006846363
 20
96.2135667396
 11
49.1256846363
 21
96.2135667396
  0
LINE
  5
348
100
AcDbEntity
  8
0
100
AcDbLine
 62
7
  6
CONTINUOUS
 10
47.2256846363
 20
96.2135667396
 11
46.8506846363
 21
96.2135667396
  0
LINE
  5
349
100
AcDbEntity
  8
0
100
AcDbLine
 62
7
  6
CONTINUOUS
 10
46.0006846363
 20
96.2135667396
 11
45.6256846363
 21
96.2135667396
  0
LINE
  5
34A
100
AcDbEntity
  8
0
100
AcDbLine
 62
7
  6
CONTINUOUS
 10
43.7256846363
 20
96.2135667396
 11
43.1956846363
 21
96.2135667396
  0
LINE
  5
34B
100
AcDbEntity
  8
0
100
AcDbLine
 62
7
  6
CONTINUOUS
 10
39.6556846363
 20
96.2135667396
 11
39.1256846363
 21
96.2135667396
  0
LINE
  5
34C
100
AcDbEntity
  8
0
100
AcDbLine
 62
7
  6
CONTINUOUS
 10
37.2256846363
 20
96.2135667396
 11
36.8506846363
 21
96.2135667396
  0
LINE
  5
34D
100
AcDbEntity
  8
0
100
AcDbLine
 62
7
  6
CONTINUOUS
 10
36.0006846363
 20
96.2135667396
 11
35.6256846363
 21
96.2135667396
  0
LINE
  5
34E
100
AcDbEntity
  8
0
100
AcDbLine
 62
7
  6
CONTINUOUS
 10
33.7256846363
 20
96.2135667396
 11
33.3506846363
 21
96.2135667396
  0
LINE
  5
34F
100
AcDbEntity
  8
0
100
AcDbLine
 62
7
  6
CONTINUOUS
 10
32.5006846363
 20
96.2135667396
 11
32.1256846363
 21
96.2135667396
  0
LINE
  5
350
100
AcDbEntity
  8
0
100
AcDbLine
 62
7
  6
CONTINUOUS
 10
30.2256846363
 20
96.2135667396
 11
29.6956846363
 21
96.2135667396
  0
LINE
  5
351
100
AcDbEntity
  8
0
100
AcDbLine
 62
7
  6
CONTINUOUS
 10
26.1556846363
 20
96.2135667396
 11
25.6256846363
 21
96.2135667396
  0
LINE
  5
352
100
AcDbEntity
  8
0
100
AcDbLine
 62
7
  6
CONTINUOUS
 10
23.7256846363
 20
96.2135667396
 11
23.3506846363
 21
96.2135667396
  0
LINE
  5
353
100
AcDbEntity
  8
0
100
AcDbLine
 62
7
  6
CONTINUOUS
 10
22.5006846363
 20
96.2135667396
 11
22.1256846363
 21
96.2135667396
  0
LINE
  5
354
100
AcDbEntity
  8
0
100
AcDbLine
 62
7
  6
CONTINUOUS
 10
20.2256846363
 20
96.2135667396
 11
19.8506846363
 21
96.2135667396
  0
LINE
  5
355
100
AcDbEntity
  8
0
100
AcDbLine
 62
7
  6
CONTINUOUS
 10
19.0006846363
 20
96.2135667396
 11
18.6256846363
 21
96.2135667396
  0
LINE
  5
356
100
AcDbEntity
  8
0
100
AcDbLine
 62
7
  6
CONTINUOUS
 10
16.7256846363
 20
96.2135667396
 11
16.1956846363
 21
96.2135667396
  0
LINE
  5
357
100
AcDbEntity
  8
0
100
AcDbLine
 62
7
  6
CONTINUOUS
 10
17.1756846363
 20
96.6635667396
 11
18.1756846363
 21
96.6635667396
  0
LINE
  5
358
100
AcDbEntity
  8
0
100
AcDbLine
 62
7
  6
CONTINUOUS
 10
20.6756846363
 20
96.6635667396
 11
21.6756846363
 21
96.6635667396
  0
LINE
  5
359
100
AcDbEntity
  8
0
100
AcDbLine
 62
7
  6
CONTINUOUS
 10
24.1756846363
 20
96.6635667396
 11
25.1756846363
 21
96.6635667396
  0
LINE
  5
35A
100
AcDbEntity
  8
0
100
AcDbLine
 62
7
  6
CONTINUOUS
 10
30.6756846363
 20
96.6635667396
 11
31.6756846363
 21
96.6635667396
  0
LINE
  5
35B
100
AcDbEntity
  8
0
100
AcDbLine
 62
7
  6
CONTINUOUS
 10
34.1756846363
 20
96.6635667396
 11
35.1756846363
 21
96.6635667396
  0
LINE
  5
35C
100
AcDbEntity
  8
0
100
AcDbLine
 62
7
  6
CONTINUOUS
 10
37.6756846363
 20
96.6635667396
 11
38.6756846363
 21
96.6635667396
  0
LINE
  5
35D
100
AcDbEntity
  8
0
100
AcDbLine
 62
7
  6
CONTINUOUS
 10
44.1756846363
 20
96.6635667396
 11
45.1756846363
 21
96.6635667396
  0
LINE
  5
35E
100
AcDbEntity
  8
0
100
AcDbLine
 62
7
  6
CONTINUOUS
 10
47.6756846363
 20
96.6635667396
 11
48.6756846363
 21
96.6635667396
  0
LINE
  5
35F
100
AcDbEntity
  8
0
100
AcDbLine
 62
7
  6
CONTINUOUS
 10
51.1756846363
 20
96.6635667396
 11
52.1756846363
 21
96.6635667396
  0
LINE
  5
360
100
AcDbEntity
  8
0
100
AcDbLine
 62
7
  6
CONTINUOUS
 10
54.6756846363
 20
96.6635667396
 11
55.6756846363
 21
96.6635667396
  0
LINE
  5
361
100
AcDbEntity
  8
0
100
AcDbLine
 62
7
  6
CONTINUOUS
 10
58.1756846363
 20
96.6635667396
 11
59.1756846363
 21
96.6635667396
  0
LINE
  5
362
100
AcDbEntity
  8
0
100
AcDbLine
 62
7
  6
CONTINUOUS
 10
64.6756846363
 20
96.6635667396
 11
65.6756846363
 21
96.6635667396
  0
LINE
  5
363
100
AcDbEntity
  8
0
100
AcDbLine
 62
7
  6
CONTINUOUS
 10
68.1756846363
 20
96.6635667396
 11
69.1756846363
 21
96.6635667396
  0
LINE
  5
364
100
AcDbEntity
  8
0
100
AcDbLine
 62
7
  6
CONTINUOUS
 10
71.6756846363
 20
96.6635667396
 11
72.6756846363
 21
96.6635667396
  0
LINE
  5
365
100
AcDbEntity
  8
0
100
AcDbLine
 62
7
  6
CONTINUOUS
 10
75.1756846363
 20
96.6635667396
 11
76.1756846363
 21
96.6635667396
  0
LINE
  5
366
100
AcDbEntity
  8
0
100
AcDbLine
 62
7
  6
CONTINUOUS
 10
78.6756846363
 20
96.6635667396
 11
79.6756846363
 21
96.6635667396
  0
LINE
  5
367
100
AcDbEntity
  8
0
100
AcDbLine
 62
7
  6
CONTINUOUS
 10
82.1756846363
 20
96.6635667396
 11
83.1756846363
 21
96.6635667396
  0
LINE
  5
368
100
AcDbEntity
  8
0
100
AcDbLine
 62
7
  6
CONTINUOUS
 10
85.6756846363
 20
96.6635667396
 11
86.6756846363
 21
96.6635667396
  0
LINE
  5
369
100
AcDbEntity
  8
0
100
AcDbLine
 62
7
  6
CONTINUOUS
 10
92.1756846363
 20
96.6635667396
 11
93.1756846363
 21
96.6635667396
  0
LINE
  5
36A
100
AcDbEntity
  8
0
100
AcDbLine
 62
7
  6
CONTINUOUS
 10
95.6756846363
 20
96.6635667396
 11
96.6756846363
 21
96.6635667396
  0
LINE
  5
36B
100
AcDbEntity
  8
0
100
AcDbLine
 62
7
  6
CONTINUOUS
 10
99.1756846363
 20
96.6635667396
 11
100.1756846363
 21
96.6635667396
  0
LINE
  5
36C
100
AcDbEntity
  8
0
100
AcDbLine
 62
7
  6
CONTINUOUS
 10
102.6756846363
 20
96.6635667396
 11
103.6756846363
 21
96.6635667396
  0
LINE
  5
36D
100
AcDbEntity
  8
0
100
AcDbLine
 62
7
  6
CONTINUOUS
 10
106.1756846363
 20
96.6635667396
 11
107.1756846363
 21
96.6635667396
  0
LINE
  5
36E
100
AcDbEntity
  8
0
100
AcDbLine
 62
7
  6
CONTINUOUS
 10
109.6756846363
 20
96.6635667396
 11
110.6756846363
 21
96.6635667396
  0
LINE
  5
36F
100
AcDbEntity
  8
0
100
AcDbLine
 62
7
  6
CONTINUOUS
 10
113.1756846363
 20
96.6635667396
 11
114.1756846363
 21
96.6635667396
  0
LINE
  5
370
100
AcDbEntity
  8
0
100
AcDbLine
 62
7
  6
CONTINUOUS
 10
116.6756846363
 20
96.6635667396
 11
117.6756846363
 21
96.6635667396
  0
LINE
  5
371
100
AcDbEntity
  8
0
100
AcDbLine
 62
7
  6
CONTINUOUS
 10
120.1756846363
 20
96.6635667396
 11
121.1756846363
 21
96.6635667396
  0
LINE
  5
372
100
AcDbEntity
  8
0
100
AcDbLine
 62
7
  6
CONTINUOUS
 10
90.9256846363
 20
96.8686005963
 11
89.9256846363
 21
96.8686005963
  0
LINE
  5
373
100
AcDbEntity
  8
0
100
AcDbLine
 62
7
  6
CONTINUOUS
 10
27.5256846363
 20
96.8686005963
 11
26.4256846363
 21
96.8686005963
  0
LINE
  5
374
100
AcDbEntity
  8
0
100
AcDbLine
 62
7
  6
CONTINUOUS
 10
90.9256846363
 20
97.9485970274
 11
89.9256846363
 21
97.9485970274
  0
LINE
  5
375
100
AcDbEntity
  8
0
100
AcDbLine
 62
7
  6
CONTINUOUS
 10
27.5256846363
 20
97.9485970274
 11
26.4256846363
 21
97.9485970274
  0
LINE
  5
376
100
AcDbEntity
  8
0
100
AcDbLine
 62
7
  6
CONTINUOUS
 10
26.4256846363
 20
98.7088539389
 11
27.5256846363
 21
98.7088539389
  0
LINE
  5
377
100
AcDbEntity
  8
0
100
AcDbLine
 62
7
  6
CONTINUOUS
 10
89.9256846363
 20
98.7088539389
 11
90.9256846363
 21
98.7088539389
  0
LINE
  5
378
100
AcDbEntity
  8
0
100
AcDbLine
 62
7
  6
CONTINUOUS
 10
26.4256846363
 20
99.0264388173
 11
29.4256846363
 21
99.0264388173
  0
LINE
  5
379
100
AcDbEntity
  8
0
100
AcDbLine
 62
7
  6
CONTINUOUS
 10
39.9256846363
 20
99.0264388173
 11
42.9256846363
 21
99.0264388173
  0
LINE
  5
37A
100
AcDbEntity
  8
0
100
AcDbLine
 62
7
  6
CONTINUOUS
 10
60.4256846363
 20
99.0264388173
 11
63.4256846363
 21
99.0264388173
  0
LINE
  5
37B
100
AcDbEntity
  8
0
100
AcDbLine
 62
7
  6
CONTINUOUS
 10
87.9256846363
 20
99.0264388173
 11
90.9256846363
 21
99.0264388173
  0
LINE
  5
37C
100
AcDbEntity
  8
0
100
AcDbLine
 62
7
  6
CONTINUOUS
 10
69.1756846363
 20
96.6635667396
 11
69.6256846363
 21
96.2135667396
  0
LINE
  5
37D
100
AcDbEntity
  8
0
100
AcDbLine
 62
7
  6
CONTINUOUS
 10
72.6756846363
 20
96.6635667396
 11
73.1256846363
 21
96.2135667396
  0
LINE
  5
37E
100
AcDbEntity
  8
0
100
AcDbLine
 62
7
  6
CONTINUOUS
 10
73.5006846363
 20
101.2635667396
 11
73.5006846363
 21
95.0635667396
  0
LINE
  5
37F
100
AcDbEntity
  8
0
100
AcDbLine
 62
7
  6
CONTINUOUS
 10
73.9256846363
 20
101.2635667396
 11
73.9256846363
 21
103.1635667396
  0
LINE
  5
380
100
AcDbEntity
  8
0
100
AcDbLine
 62
7
  6
CONTINUOUS
 10
74.3506846363
 20
95.0635667396
 11
74.3506846363
 21
101.2635667396
  0
LINE
  5
381
100
AcDbEntity
  8
0
100
AcDbLine
 62
7
  6
CONTINUOUS
 10
74.9256846363
 20
88.1635667396
 11
74.9256846363
 21
92.0635667396
  0
LINE
  5
382
100
AcDbEntity
  8
0
100
AcDbLine
 62
7
  6
CONTINUOUS
 10
75.0756846363
 20
100.9135667396
 11
75.0756846363
 21
100.3135667396
  0
LINE
  5
383
100
AcDbEntity
  8
0
100
AcDbLine
 62
7
  6
CONTINUOUS
 10
75.2756846363
 20
93.2635667396
 11
75.2756846363
 21
95.0635667396
  0
LINE
  5
384
100
AcDbEntity
  8
0
100
AcDbLine
 62
7
  6
CONTINUOUS
 10
76.0756846363
 20
95.0635667396
 11
76.0756846363
 21
93.2635667396
  0
LINE
  5
385
100
AcDbEntity
  8
0
100
AcDbLine
 62
7
  6
CONTINUOUS
 10
76.2756846363
 20
100.9135667396
 11
76.2756846363
 21
100.3135667396
  0
LINE
  5
386
100
AcDbEntity
  8
0
100
AcDbLine
 62
7
  6
CONTINUOUS
 10
78.2256846363
 20
96.2135667396
 11
78.6756846363
 21
96.6635667396
  0
LINE
  5
387
100
AcDbEntity
  8
0
100
AcDbLine
 62
7
  6
CONTINUOUS
 10
26.4256846363
 20
100.2635667399
 11
29.4256846363
 21
100.2635667399
  0
LINE
  5
388
100
AcDbEntity
  8
0
100
AcDbLine
 62
7
  6
CONTINUOUS
 10
39.9256846363
 20
100.2635667399
 11
42.9256846363
 21
100.2635667399
  0
LINE
  5
389
100
AcDbEntity
  8
0
100
AcDbLine
 62
7
  6
CONTINUOUS
 10
60.4256846363
 20
100.2635667399
 11
63.4256846363
 21
100.2635667399
  0
LINE
  5
38A
100
AcDbEntity
  8
0
100
AcDbLine
 62
7
  6
CONTINUOUS
 10
87.9256846363
 20
100.2635667399
 11
90.9256846363
 21
100.2635667399
  0
LINE
  5
38B
100
AcDbEntity
  8
0
100
AcDbLine
 62
7
  6
CONTINUOUS
 10
16.1956846363
 20
100.3135667396
 11
19.0006846363
 21
100.3135667396
  0
LINE
  5
38C
100
AcDbEntity
  8
0
100
AcDbLine
 62
7
  6
CONTINUOUS
 10
19.8506846363
 20
100.3135667396
 11
22.5006846363
 21
100.3135667396
  0
LINE
  5
38D
100
AcDbEntity
  8
0
100
AcDbLine
 62
7
  6
CONTINUOUS
 10
23.3506846363
 20
100.3135667396
 11
26.1556846363
 21
100.3135667396
  0
LINE
  5
38E
100
AcDbEntity
  8
0
100
AcDbLine
 62
7
  6
CONTINUOUS
 10
29.6956846363
 20
100.3135667396
 11
32.5006846363
 21
100.3135667396
  0
LINE
  5
38F
100
AcDbEntity
  8
0
100
AcDbLine
 62
7
  6
CONTINUOUS
 10
33.3506846363
 20
100.3135667396
 11
36.0006846363
 21
100.3135667396
  0
LINE
  5
390
100
AcDbEntity
  8
0
100
AcDbLine
 62
7
  6
CONTINUOUS
 10
36.8506846363
 20
100.3135667396
 11
39.6556846363
 21
100.3135667396
  0
LINE
  5
391
100
AcDbEntity
  8
0
100
AcDbLine
 62
7
  6
CONTINUOUS
 10
43.1956846363
 20
100.3135667396
 11
46.0006846363
 21
100.3135667396
  0
LINE
  5
392
100
AcDbEntity
  8
0
100
AcDbLine
 62
7
  6
CONTINUOUS
 10
46.8506846363
 20
100.3135667396
 11
49.5006846363
 21
100.3135667396
  0
LINE
  5
393
100
AcDbEntity
  8
0
100
AcDbLine
 62
7
  6
CONTINUOUS
 10
50.3506846363
 20
100.3135667396
 11
53.0006846363
 21
100.3135667396
  0
LINE
  5
394
100
AcDbEntity
  8
0
100
AcDbLine
 62
7
  6
CONTINUOUS
 10
53.8506846363
 20
100.3135667396
 11
56.5006846363
 21
100.3135667396
  0
LINE
  5
395
100
AcDbEntity
  8
0
100
AcDbLine
 62
7
  6
CONTINUOUS
 10
57.3506846363
 20
100.3135667396
 11
60.1556846363
 21
100.3135667396
  0
LINE
  5
396
100
AcDbEntity
  8
0
100
AcDbLine
 62
7
  6
CONTINUOUS
 10
63.6956846363
 20
100.3135667396
 11
66.5006846363
 21
100.3135667396
  0
LINE
  5
397
100
AcDbEntity
  8
0
100
AcDbLine
 62
7
  6
CONTINUOUS
 10
67.3506846363
 20
100.3135667396
 11
70.0006846363
 21
100.3135667396
  0
LINE
  5
398
100
AcDbEntity
  8
0
100
AcDbLine
 62
7
  6
CONTINUOUS
 10
70.8506846363
 20
100.3135667396
 11
73.5006846363
 21
100.3135667396
  0
LINE
  5
399
100
AcDbEntity
  8
0
100
AcDbLine
 62
7
  6
CONTINUOUS
 10
74.3506846363
 20
100.3135667396
 11
77.0006846363
 21
100.3135667396
  0
LINE
  5
39A
100
AcDbEntity
  8
0
100
AcDbLine
 62
7
  6
CONTINUOUS
 10
77.8506846363
 20
100.3135667396
 11
80.5006846363
 21
100.3135667396
  0
LINE
  5
39B
100
AcDbEntity
  8
0
100
AcDbLine
 62
7
  6
CONTINUOUS
 10
81.3506846363
 20
100.3135667396
 11
84.0006846363
 21
100.3135667396
  0
LINE
  5
39C
100
AcDbEntity
  8
0
100
AcDbLine
 62
7
  6
CONTINUOUS
 10
84.8506846363
 20
100.3135667396
 11
87.6556846363
 21
100.3135667396
  0
LINE
  5
39D
100
AcDbEntity
  8
0
100
AcDbLine
 62
7
  6
CONTINUOUS
 10
91.1956846363
 20
100.3135667396
 11
94.0006846363
 21
100.3135667396
  0
LINE
  5
39E
100
AcDbEntity
  8
0
100
AcDbLine
 62
7
  6
CONTINUOUS
 10
94.8506846363
 20
100.3135667396
 11
97.5006846363
 21
100.3135667396
  0
LINE
  5
39F
100
AcDbEntity
  8
0
100
AcDbLine
 62
7
  6
CONTINUOUS
 10
98.3506846363
 20
100.3135667396
 11
101.0006846363
 21
100.3135667396
  0
LINE
  5
3A0
100
AcDbEntity
  8
0
100
AcDbLine
 62
7
  6
CONTINUOUS
 10
101.8506846363
 20
100.3135667396
 11
104.5006846363
 21
100.3135667396
  0
LINE
  5
3A1
100
AcDbEntity
  8
0
100
AcDbLine
 62
7
  6
CONTINUOUS
 10
105.3506846363
 20
100.3135667396
 11
108.0006846363
 21
100.3135667396
  0
LINE
  5
3A2
100
AcDbEntity
  8
0
100
AcDbLine
 62
7
  6
CONTINUOUS
 10
108.8506846363
 20
100.3135667396
 11
111.5006846363
 21
100.3135667396
  0
LINE
  5
3A3
100
AcDbEntity
  8
0
100
AcDbLine
 62
7
  6
CONTINUOUS
 10
112.3506846363
 20
100.3135667396
 11
115.0006846363
 21
100.3135667396
  0
LINE
  5
3A4
100
AcDbEntity
  8
0
100
AcDbLine
 62
7
  6
CONTINUOUS
 10
115.8506846363
 20
100.3135667396
 11
118.5006846363
 21
100.3135667396
  0
LINE
  5
3A5
100
AcDbEntity
  8
0
100
AcDbLine
 62
7
  6
CONTINUOUS
 10
119.3506846363
 20
100.3135667396
 11
122.1556846363
 21
100.3135667396
  0
LINE
  5
3A6
100
AcDbEntity
  8
0
100
AcDbLine
 62
7
  6
CONTINUOUS
 10
121.2756846363
 20
100.9135667396
 11
120.0756846363
 21
100.9135667396
  0
LINE
  5
3A7
100
AcDbEntity
  8
0
100
AcDbLine
 62
7
  6
CONTINUOUS
 10
117.7756846363
 20
100.9135667396
 11
116.5756846363
 21
100.9135667396
  0
LINE
  5
3A8
100
AcDbEntity
  8
0
100
AcDbLine
 62
7
  6
CONTINUOUS
 10
114.2756846363
 20
100.9135667396
 11
113.0756846363
 21
100.9135667396
  0
LINE
  5
3A9
100
AcDbEntity
  8
0
100
AcDbLine
 62
7
  6
CONTINUOUS
 10
110.7756846363
 20
100.9135667396
 11
109.5756846363
 21
100.9135667396
  0
LINE
  5
3AA
100
AcDbEntity
  8
0
100
AcDbLine
 62
7
  6
CONTINUOUS
 10
107.2756846363
 20
100.9135667396
 11
106.0756846363
 21
100.9135667396
  0
LINE
  5
3AB
100
AcDbEntity
  8
0
100
AcDbLine
 62
7
  6
CONTINUOUS
 10
103.7756846363
 20
100.9135667396
 11
102.5756846363
 21
100.9135667396
  0
LINE
  5
3AC
100
AcDbEntity
  8
0
100
AcDbLine
 62
7
  6
CONTINUOUS
 10
100.2756846363
 20
100.9135667396
 11
99.0756846363
 21
100.9135667396
  0
LINE
  5
3AD
100
AcDbEntity
  8
0
100
AcDbLine
 62
7
  6
CONTINUOUS
 10
96.7756846363
 20
100.9135667396
 11
95.5756846363
 21
100.9135667396
  0
LINE
  5
3AE
100
AcDbEntity
  8
0
100
AcDbLine
 62
7
  6
CONTINUOUS
 10
93.2756846363
 20
100.9135667396
 11
92.0756846363
 21
100.9135667396
  0
LINE
  5
3AF
100
AcDbEntity
  8
0
100
AcDbLine
 62
7
  6
CONTINUOUS
 10
86.7756846363
 20
100.9135667396
 11
85.5756846363
 21
100.9135667396
  0
LINE
  5
3B0
100
AcDbEntity
  8
0
100
AcDbLine
 62
7
  6
CONTINUOUS
 10
83.2756846363
 20
100.9135667396
 11
82.0756846363
 21
100.9135667396
  0
LINE
  5
3B1
100
AcDbEntity
  8
0
100
AcDbLine
 62
7
  6
CONTINUOUS
 10
79.7756846363
 20
100.9135667396
 11
78.5756846363
 21
100.9135667396
  0
LINE
  5
3B2
100
AcDbEntity
  8
0
100
AcDbLine
 62
7
  6
CONTINUOUS
 10
76.2756846363
 20
100.9135667396
 11
75.0756846363
 21
100.9135667396
  0
LINE
  5
3B3
100
AcDbEntity
  8
0
100
AcDbLine
 62
7
  6
CONTINUOUS
 10
72.7756846363
 20
100.9135667396
 11
71.5756846363
 21
100.9135667396
  0
LINE
  5
3B4
100
AcDbEntity
  8
0
100
AcDbLine
 62
7
  6
CONTINUOUS
 10
69.2756846363
 20
100.9135667396
 11
68.0756846363
 21
100.9135667396
  0
LINE
  5
3B5
100
AcDbEntity
  8
0
100
AcDbLine
 62
7
  6
CONTINUOUS
 10
65.7756846363
 20
100.9135667396
 11
64.5756846363
 21
100.9135667396
  0
LINE
  5
3B6
100
AcDbEntity
  8
0
100
AcDbLine
 62
7
  6
CONTINUOUS
 10
59.2756846363
 20
100.9135667396
 11
58.0756846363
 21
100.9135667396
  0
LINE
  5
3B7
100
AcDbEntity
  8
0
100
AcDbLine
 62
7
  6
CONTINUOUS
 10
55.7756846363
 20
100.9135667396
 11
54.5756846363
 21
100.9135667396
  0
LINE
  5
3B8
100
AcDbEntity
  8
0
100
AcDbLine
 62
7
  6
CONTINUOUS
 10
52.2756846363
 20
100.9135667396
 11
51.0756846363
 21
100.9135667396
  0
LINE
  5
3B9
100
AcDbEntity
  8
0
100
AcDbLine
 62
7
  6
CONTINUOUS
 10
48.7756846363
 20
100.9135667396
 11
47.5756846363
 21
100.9135667396
  0
LINE
  5
3BA
100
AcDbEntity
  8
0
100
AcDbLine
 62
7
  6
CONTINUOUS
 10
45.2756846363
 20
100.9135667396
 11
44.0756846363
 21
100.9135667396
  0
LINE
  5
3BB
100
AcDbEntity
  8
0
100
AcDbLine
 62
7
  6
CONTINUOUS
 10
38.7756846363
 20
100.9135667396
 11
37.5756846363
 21
100.9135667396
  0
LINE
  5
3BC
100
AcDbEntity
  8
0
100
AcDbLine
 62
7
  6
CONTINUOUS
 10
35.2756846363
 20
100.9135667396
 11
34.0756846363
 21
100.9135667396
  0
LINE
  5
3BD
100
AcDbEntity
  8
0
100
AcDbLine
 62
7
  6
CONTINUOUS
 10
31.7756846363
 20
100.9135667396
 11
30.5756846363
 21
100.9135667396
  0
LINE
  5
3BE
100
AcDbEntity
  8
0
100
AcDbLine
 62
7
  6
CONTINUOUS
 10
25.2756846363
 20
100.9135667396
 11
24.0756846363
 21
100.9135667396
  0
LINE
  5
3BF
100
AcDbEntity
  8
0
100
AcDbLine
 62
7
  6
CONTINUOUS
 10
21.7756846363
 20
100.9135667396
 11
20.5756846363
 21
100.9135667396
  0
LINE
  5
3C0
100
AcDbEntity
  8
0
100
AcDbLine
 62
7
  6
CONTINUOUS
 10
18.2756846363
 20
100.9135667396
 11
17.0756846363
 21
100.9135667396
  0
LINE
  5
3C1
100
AcDbEntity
  8
0
100
AcDbLine
 62
7
  6
CONTINUOUS
 10
15.9256846363
 20
101.2635667396
 11
26.4256846363
 21
101.2635667396
  0
LINE
  5
3C2
100
AcDbEntity
  8
0
100
AcDbLine
 62
7
  6
CONTINUOUS
 10
29.4256846363
 20
101.2635667396
 11
39.9256846363
 21
101.2635667396
  0
LINE
  5
3C3
100
AcDbEntity
  8
0
100
AcDbLine
 62
7
  6
CONTINUOUS
 10
42.9256846363
 20
101.2635667396
 11
60.4256846363
 21
101.2635667396
  0
LINE
  5
3C4
100
AcDbEntity
  8
0
100
AcDbLine
 62
7
  6
CONTINUOUS
 10
63.4256846363
 20
101.2635667396
 11
87.9256846363
 21
101.2635667396
  0
LINE
  5
3C5
100
AcDbEntity
  8
0
100
AcDbLine
 62
7
  6
CONTINUOUS
 10
90.9256846363
 20
101.2635667396
 11
122.4256846363
 21
101.2635667396
  0
LINE
  5
3C6
100
AcDbEntity
  8
0
100
AcDbLine
 62
7
  6
CONTINUOUS
 10
15.9256846363
 20
103.1635667396
 11
122.4256846363
 21
103.1635667396
  0
LINE
  5
3C7
100
AcDbEntity
  8
0
100
AcDbLine
 62
7
  6
CONTINUOUS
 10
76.1756846363
 20
96.6635667396
 11
76.6256846363
 21
96.2135667396
  0
LINE
  5
3C8
100
AcDbEntity
  8
0
100
AcDbLine
 62
7
  6
CONTINUOUS
 10
77.0006846363
 20
101.2635667396
 11
77.0006846363
 21
95.0635667396
  0
LINE
  5
3C9
100
AcDbEntity
  8
0
100
AcDbLine
 62
7
  6
CONTINUOUS
 10
77.4256846363
 20
101.2635667396
 11
77.4256846363
 21
103.1635667396
  0
LINE
  5
3CA
100
AcDbEntity
  8
0
100
AcDbLine
 62
7
  6
CONTINUOUS
 10
77.8506846363
 20
95.0635667396
 11
77.8506846363
 21
101.2635667396
  0
LINE
  5
3CB
100
AcDbEntity
  8
0
100
AcDbLine
 62
7
  6
CONTINUOUS
 10
78.5756846363
 20
100.9135667396
 11
78.5756846363
 21
100.3135667396
  0
LINE
  5
3CC
100
AcDbEntity
  8
0
100
AcDbLine
 62
7
  6
CONTINUOUS
 10
78.7756846363
 20
93.2635667396
 11
78.7756846363
 21
95.0635667396
  0
LINE
  5
3CD
100
AcDbEntity
  8
0
100
AcDbLine
 62
7
  6
CONTINUOUS
 10
79.5756846363
 20
95.0635667396
 11
79.5756846363
 21
93.2635667396
  0
LINE
  5
3CE
100
AcDbEntity
  8
0
100
AcDbLine
 62
7
  6
CONTINUOUS
 10
79.7756846363
 20
100.9135667396
 11
79.7756846363
 21
100.3135667396
  0
LINE
  5
3CF
100
AcDbEntity
  8
0
100
AcDbLine
 62
7
  6
CONTINUOUS
 10
81.7256846363
 20
96.2135667396
 11
82.1756846363
 21
96.6635667396
  0
LINE
  5
3D0
100
AcDbEntity
  8
0
100
AcDbLine
 62
7
  6
CONTINUOUS
 10
85.2256846363
 20
96.2135667396
 11
85.6756846363
 21
96.6635667396
  0
LINE
  5
3D1
100
AcDbEntity
  8
0
100
AcDbLine
 62
7
  6
CONTINUOUS
 10
79.6756846363
 20
96.6635667396
 11
80.1256846363
 21
96.2135667396
  0
LINE
  5
3D2
100
AcDbEntity
  8
0
100
AcDbLine
 62
7
  6
CONTINUOUS
 10
83.1756846363
 20
96.6635667396
 11
83.6256846363
 21
96.2135667396
  0
LINE
  5
3D3
100
AcDbEntity
  8
0
100
AcDbLine
 62
7
  6
CONTINUOUS
 10
80.5006846363
 20
101.2635667396
 11
80.5006846363
 21
95.0635667396
  0
LINE
  5
3D4
100
AcDbEntity
  8
0
100
AcDbLine
 62
7
  6
CONTINUOUS
 10
80.9256846363
 20
101.2635667396
 11
80.9256846363
 21
103.1635667396
  0
LINE
  5
3D5
100
AcDbEntity
  8
0
100
AcDbLine
 62
7
  6
CONTINUOUS
 10
81.3506846363
 20
95.0635667396
 11
81.3506846363
 21
101.2635667396
  0
LINE
  5
3D6
100
AcDbEntity
  8
0
100
AcDbLine
 62
7
  6
CONTINUOUS
 10
82.0756846363
 20
100.9135667396
 11
82.0756846363
 21
100.3135667396
  0
LINE
  5
3D7
100
AcDbEntity
  8
0
100
AcDbLine
 62
7
  6
CONTINUOUS
 10
82.2756846363
 20
93.2635667396
 11
82.2756846363
 21
95.0635667396
  0
LINE
  5
3D8
100
AcDbEntity
  8
0
100
AcDbLine
 62
7
  6
CONTINUOUS
 10
83.0756846363
 20
95.0635667396
 11
83.0756846363
 21
93.2635667396
  0
LINE
  5
3D9
100
AcDbEntity
  8
0
100
AcDbLine
 62
7
  6
CONTINUOUS
 10
83.2756846363
 20
100.9135667396
 11
83.2756846363
 21
100.3135667396
  0
LINE
  5
3DA
100
AcDbEntity
  8
0
100
AcDbLine
 62
7
  6
CONTINUOUS
 10
86.6756846363
 20
96.6635667396
 11
87.1256846363
 21
96.2135667396
  0
LINE
  5
3DB
100
AcDbEntity
  8
0
100
AcDbLine
 62
7
  6
CONTINUOUS
 10
84.0006846363
 20
101.2635667396
 11
84.0006846363
 21
95.0635667396
  0
LINE
  5
3DC
100
AcDbEntity
  8
0
100
AcDbLine
 62
7
  6
CONTINUOUS
 10
84.4256846363
 20
101.2635667396
 11
84.4256846363
 21
103.1635667396
  0
LINE
  5
3DD
100
AcDbEntity
  8
0
100
AcDbLine
 62
7
  6
CONTINUOUS
 10
84.8506846363
 20
95.0635667396
 11
84.8506846363
 21
101.2635667396
  0
LINE
  5
3DE
100
AcDbEntity
  8
0
100
AcDbLine
 62
7
  6
CONTINUOUS
 10
85.5756846363
 20
100.9135667396
 11
85.5756846363
 21
100.3135667396
  0
LINE
  5
3DF
100
AcDbEntity
  8
0
100
AcDbLine
 62
7
  6
CONTINUOUS
 10
85.7756846363
 20
93.2635667396
 11
85.7756846363
 21
95.0635667396
  0
LINE
  5
3E0
100
AcDbEntity
  8
0
100
AcDbLine
 62
7
  6
CONTINUOUS
 10
86.5756846363
 20
95.0635667396
 11
86.5756846363
 21
93.2635667396
  0
LINE
  5
3E1
100
AcDbEntity
  8
0
100
AcDbLine
 62
7
  6
CONTINUOUS
 10
86.7756846363
 20
100.9135667396
 11
86.7756846363
 21
100.3135667396
  0
LINE
  5
3E2
100
AcDbEntity
  8
0
100
AcDbLine
 62
7
  6
CONTINUOUS
 10
87.3256846363
 20
101.2635667396
 11
87.3256846363
 21
103.1635667396
  0
LINE
  5
3E3
100
AcDbEntity
  8
0
100
AcDbLine
 62
7
  6
CONTINUOUS
 10
91.7256846363
 20
96.2135667396
 11
92.1756846363
 21
96.6635667396
  0
LINE
  5
3E4
100
AcDbEntity
  8
0
100
AcDbLine
 62
7
  6
CONTINUOUS
 10
95.2256846363
 20
96.2135667396
 11
95.6756846363
 21
96.6635667396
  0
LINE
  5
3E5
100
AcDbEntity
  8
0
100
AcDbLine
 62
7
  6
CONTINUOUS
 10
93.1756846363
 20
96.6635667396
 11
93.6256846363
 21
96.2135667396
  0
LINE
  5
3E6
100
AcDbEntity
  8
0
100
AcDbLine
 62
7
  6
CONTINUOUS
 10
88.6806846363
 20
94.8085667396
 11
88.9156846363
 21
94.1285667396
  0
LINE
  5
3E7
100
AcDbEntity
  8
0
100
AcDbLine
 62
7
  6
CONTINUOUS
 10
87.6556846363
 20
100.3135667396
 11
87.6556846363
 21
96.2135667396
  0
LINE
  5
3E8
100
AcDbEntity
  8
0
100
AcDbLine
 62
7
  6
CONTINUOUS
 10
87.9256846363
 20
92.0635667396
 11
87.9256846363
 21
103.1635667396
  0
LINE
  5
3E9
100
AcDbEntity
  8
0
100
AcDbLine
 62
7
  6
CONTINUOUS
 10
89.9256846363
 20
96.0093057797
 11
89.9256846363
 21
94.8085667396
  0
LINE
  5
3EA
100
AcDbEntity
  8
0
100
AcDbLine
 62
7
  6
CONTINUOUS
 10
89.9256846363
 20
96.1779845422
 11
89.9256846363
 21
98.7088539389
  0
LINE
  5
3EB
100
AcDbEntity
  8
0
100
AcDbLine
 62
7
  6
CONTINUOUS
 10
90.9256846363
 20
92.0635667396
 11
90.9256846363
 21
103.1635667396
  0
LINE
  5
3EC
100
AcDbEntity
  8
0
100
AcDbLine
 62
7
  6
CONTINUOUS
 10
98.7256846363
 20
96.2135667396
 11
99.1756846363
 21
96.6635667396
  0
LINE
  5
3ED
100
AcDbEntity
  8
0
100
AcDbLine
 62
7
  6
CONTINUOUS
 10
96.6756846363
 20
96.6635667396
 11
97.1256846363
 21
96.2135667396
  0
LINE
  5
3EE
100
AcDbEntity
  8
0
100
AcDbLine
 62
7
  6
CONTINUOUS
 10
91.1956846363
 20
96.2135667396
 11
91.1956846363
 21
100.3135667396
  0
LINE
  5
3EF
100
AcDbEntity
  8
0
100
AcDbLine
 62
7
  6
CONTINUOUS
 10
91.5256846363
 20
101.2635667396
 11
91.5256846363
 21
103.1635667396
  0
LINE
  5
3F0
100
AcDbEntity
  8
0
100
AcDbLine
 62
7
  6
CONTINUOUS
 10
92.0756846363
 20
100.9135667396
 11
92.0756846363
 21
100.3135667396
  0
LINE
  5
3F1
100
AcDbEntity
  8
0
100
AcDbLine
 62
7
  6
CONTINUOUS
 10
92.2756846363
 20
93.2635667396
 11
92.2756846363
 21
95.0635667396
  0
LINE
  5
3F2
100
AcDbEntity
  8
0
100
AcDbLine
 62
7
  6
CONTINUOUS
 10
93.0756846363
 20
95.0635667396
 11
93.0756846363
 21
93.2635667396
  0
LINE
  5
3F3
100
AcDbEntity
  8
0
100
AcDbLine
 62
7
  6
CONTINUOUS
 10
93.1256846363
 20
92.0635667396
 11
93.1256846363
 21
90.6811311743
  0
LINE
  5
3F4
100
AcDbEntity
  8
0
100
AcDbLine
 62
7
  6
CONTINUOUS
 10
93.2756846363
 20
100.9135667396
 11
93.2756846363
 21
100.3135667396
  0
LINE
  5
3F5
100
AcDbEntity
  8
0
100
AcDbLine
 62
7
  6
CONTINUOUS
 10
94.0006846363
 20
101.2635667396
 11
94.0006846363
 21
95.0635667396
  0
LINE
  5
3F6
100
AcDbEntity
  8
0
100
AcDbLine
 62
7
  6
CONTINUOUS
 10
94.4256846363
 20
101.2635667396
 11
94.4256846363
 21
103.1635667396
  0
LINE
  5
3F7
100
AcDbEntity
  8
0
100
AcDbLine
 62
7
  6
CONTINUOUS
 10
102.2256846363
 20
96.2135667396
 11
102.6756846363
 21
96.6635667396
  0
LINE
  5
3F8
100
AcDbEntity
  8
0
100
AcDbLine
 62
7
  6
CONTINUOUS
 10
105.7256846363
 20
96.2135667396
 11
106.1756846363
 21
96.6635667396
  0
LINE
  5
3F9
100
AcDbEntity
  8
0
100
AcDbLine
 62
7
  6
CONTINUOUS
 10
100.1756846363
 20
96.6635667396
 11
100.6256846363
 21
96.2135667396
  0
LINE
  5
3FA
100
AcDbEntity
  8
0
100
AcDbLine
 62
7
  6
CONTINUOUS
 10
103.6756846363
 20
96.6635667396
 11
104.1256846363
 21
96.2135667396
  0
LINE
  5
3FB
100
AcDbEntity
  8
0
100
AcDbLine
 62
7
  6
CONTINUOUS
 10
94.8506846363
 20
95.0635667396
 11
94.8506846363
 21
101.2635667396
  0
LINE
  5
3FC
100
AcDbEntity
  8
0
100
AcDbLine
 62
7
  6
CONTINUOUS
 10
94.9256846363
 20
88.1635667396
 11
94.9256846363
 21
92.0635667396
  0
LINE
  5
3FD
100
AcDbEntity
  8
0
100
AcDbLine
 62
7
  6
CONTINUOUS
 10
95.5756846363
 20
100.9135667396
 11
95.5756846363
 21
100.3135667396
  0
LINE
  5
3FE
100
AcDbEntity
  8
0
100
AcDbLine
 62
7
  6
CONTINUOUS
 10
95.7756846363
 20
93.2635667396
 11
95.7756846363
 21
95.0635667396
  0
LINE
  5
3FF
100
AcDbEntity
  8
0
100
AcDbLine
 62
7
  6
CONTINUOUS
 10
96.5756846363
 20
95.0635667396
 11
96.5756846363
 21
93.2635667396
  0
LINE
  5
400
100
AcDbEntity
  8
0
100
AcDbLine
 62
7
  6
CONTINUOUS
 10
96.7756846363
 20
100.9135667396
 11
96.7756846363
 21
100.3135667396
  0
LINE
  5
401
100
AcDbEntity
  8
0
100
AcDbLine
 62
7
  6
CONTINUOUS
 10
97.5006846363
 20
101.2635667396
 11
97.5006846363
 21
95.0635667396
  0
LINE
  5
402
100
AcDbEntity
  8
0
100
AcDbLine
 62
7
  6
CONTINUOUS
 10
97.9256846363
 20
101.2635667396
 11
97.9256846363
 21
103.1635667396
  0
LINE
  5
403
100
AcDbEntity
  8
0
100
AcDbLine
 62
7
  6
CONTINUOUS
 10
109.2256846363
 20
96.2135667396
 11
109.6756846363
 21
96.6635667396
  0
LINE
  5
404
100
AcDbEntity
  8
0
100
AcDbLine
 62
7
  6
CONTINUOUS
 10
107.1756846363
 20
96.6635667396
 11
107.6256846363
 21
96.2135667396
  0
LINE
  5
405
100
AcDbEntity
  8
0
100
AcDbLine
 62
7
  6
CONTINUOUS
 10
98.3506846363
 20
95.0635667396
 11
98.3506846363
 21
101.2635667396
  0
LINE
  5
406
100
AcDbEntity
  8
0
100
AcDbLine
 62
7
  6
CONTINUOUS
 10
99.0756846363
 20
100.9135667396
 11
99.0756846363
 21
100.3135667396
  0
LINE
  5
407
100
AcDbEntity
  8
0
100
AcDbLine
 62
7
  6
CONTINUOUS
 10
99.2756846363
 20
93.2635667396
 11
99.2756846363
 21
95.0635667396
  0
LINE
  5
408
100
AcDbEntity
  8
0
100
AcDbLine
 62
7
  6
CONTINUOUS
 10
100.0756846363
 20
95.0635667396
 11
100.0756846363
 21
93.2635667396
  0
LINE
  5
409
100
AcDbEntity
  8
0
100
AcDbLine
 62
7
  6
CONTINUOUS
 10
100.2756846363
 20
100.9135667396
 11
100.2756846363
 21
100.3135667396
  0
LINE
  5
40A
100
AcDbEntity
  8
0
100
AcDbLine
 62
7
  6
CONTINUOUS
 10
101.0006846363
 20
101.2635667396
 11
101.0006846363
 21
95.0635667396
  0
LINE
  5
40B
100
AcDbEntity
  8
0
100
AcDbLine
 62
7
  6
CONTINUOUS
 10
101.4256846363
 20
101.2635667396
 11
101.4256846363
 21
103.1635667396
  0
LINE
  5
40C
100
AcDbEntity
  8
0
100
AcDbLine
 62
7
  6
CONTINUOUS
 10
101.8506846363
 20
95.0635667396
 11
101.8506846363
 21
101.2635667396
  0
LINE
  5
40D
100
AcDbEntity
  8
0
100
AcDbLine
 62
7
  6
CONTINUOUS
 10
112.7256846363
 20
96.2135667396
 11
113.1756846363
 21
96.6635667396
  0
LINE
  5
40E
100
AcDbEntity
  8
0
100
AcDbLine
 62
7
  6
CONTINUOUS
 10
110.6756846363
 20
96.6635667396
 11
111.1256846363
 21
96.2135667396
  0
LINE
  5
40F
100
AcDbEntity
  8
0
100
AcDbLine
 62
7
  6
CONTINUOUS
 10
114.1756846363
 20
96.6635667396
 11
114.6256846363
 21
96.2135667396
  0
LINE
  5
410
100
AcDbEntity
  8
0
100
AcDbLine
 62
7
  6
CONTINUOUS
 10
102.5756846363
 20
100.9135667396
 11
102.5756846363
 21
100.3135667396
  0
LINE
  5
411
100
AcDbEntity
  8
0
100
AcDbLine
 62
7
  6
CONTINUOUS
 10
102.7756846363
 20
93.2635667396
 11
102.7756846363
 21
95.0635667396
  0
LINE
  5
412
100
AcDbEntity
  8
0
100
AcDbLine
 62
7
  6
CONTINUOUS
 10
103.5756846363
 20
95.0635667396
 11
103.5756846363
 21
93.2635667396
  0
LINE
  5
413
100
AcDbEntity
  8
0
100
AcDbLine
 62
7
  6
CONTINUOUS
 10
103.7756846363
 20
100.9135667396
 11
103.7756846363
 21
100.3135667396
  0
LINE
  5
414
100
AcDbEntity
  8
0
100
AcDbLine
 62
7
  6
CONTINUOUS
 10
104.5006846363
 20
101.2635667396
 11
104.5006846363
 21
95.0635667396
  0
LINE
  5
415
100
AcDbEntity
  8
0
100
AcDbLine
 62
7
  6
CONTINUOUS
 10
104.9256846363
 20
101.2635667396
 11
104.9256846363
 21
103.1635667396
  0
LINE
  5
416
100
AcDbEntity
  8
0
100
AcDbLine
 62
7
  6
CONTINUOUS
 10
105.3506846363
 20
95.0635667396
 11
105.3506846363
 21
101.2635667396
  0
LINE
  5
417
100
AcDbEntity
  8
0
100
AcDbLine
 62
7
  6
CONTINUOUS
 10
116.2256846363
 20
96.2135667396
 11
116.6756846363
 21
96.6635667396
  0
LINE
  5
418
100
AcDbEntity
  8
0
100
AcDbLine
 62
7
  6
CONTINUOUS
 10
119.7256846363
 20
96.2135667396
 11
120.1756846363
 21
96.6635667396
  0
LINE
  5
419
100
AcDbEntity
  8
0
100
AcDbLine
 62
7
  6
CONTINUOUS
 10
117.6756846363
 20
96.6635667396
 11
118.1256846363
 21
96.2135667396
  0
LINE
  5
41A
100
AcDbEntity
  8
0
100
AcDbLine
 62
7
  6
CONTINUOUS
 10
106.0756846363
 20
100.9135667396
 11
106.0756846363
 21
100.3135667396
  0
LINE
  5
41B
100
AcDbEntity
  8
0
100
AcDbLine
 62
7
  6
CONTINUOUS
 10
106.2756846363
 20
93.2635667396
 11
106.2756846363
 21
95.0635667396
  0
LINE
  5
41C
100
AcDbEntity
  8
0
100
AcDbLine
 62
7
  6
CONTINUOUS
 10
107.0756846363
 20
95.0635667396
 11
107.0756846363
 21
93.2635667396
  0
LINE
  5
41D
100
AcDbEntity
  8
0
100
AcDbLine
 62
7
  6
CONTINUOUS
 10
107.2756846363
 20
100.9135667396
 11
107.2756846363
 21
100.3135667396
  0
LINE
  5
41E
100
AcDbEntity
  8
0
100
AcDbLine
 62
7
  6
CONTINUOUS
 10
108.0006846363
 20
101.2635667396
 11
108.0006846363
 21
95.0635667396
  0
LINE
  5
41F
100
AcDbEntity
  8
0
100
AcDbLine
 62
7
  6
CONTINUOUS
 10
108.4256846363
 20
101.2635667396
 11
108.4256846363
 21
103.1635667396
  0
LINE
  5
420
100
AcDbEntity
  8
0
100
AcDbLine
 62
7
  6
CONTINUOUS
 10
108.8506846363
 20
95.0635667396
 11
108.8506846363
 21
101.2635667396
  0
LINE
  5
421
100
AcDbEntity
  8
0
100
AcDbLine
 62
7
  6
CONTINUOUS
 10
121.1756846363
 20
96.6635667396
 11
121.6256846363
 21
96.2135667396
  0
LINE
  5
422
100
AcDbEntity
  8
0
100
AcDbLine
 62
7
  6
CONTINUOUS
 10
109.5756846363
 20
100.9135667396
 11
109.5756846363
 21
100.3135667396
  0
LINE
  5
423
100
AcDbEntity
  8
0
100
AcDbLine
 62
7
  6
CONTINUOUS
 10
109.7756846363
 20
93.2635667396
 11
109.7756846363
 21
95.0635667396
  0
LINE
  5
424
100
AcDbEntity
  8
0
100
AcDbLine
 62
7
  6
CONTINUOUS
 10
110.5756846363
 20
95.0635667396
 11
110.5756846363
 21
93.2635667396
  0
LINE
  5
425
100
AcDbEntity
  8
0
100
AcDbLine
 62
7
  6
CONTINUOUS
 10
110.7756846363
 20
100.9135667396
 11
110.7756846363
 21
100.3135667396
  0
LINE
  5
426
100
AcDbEntity
  8
0
100
AcDbLine
 62
7
  6
CONTINUOUS
 10
111.5006846363
 20
101.2635667396
 11
111.5006846363
 21
95.0635667396
  0
LINE
  5
427
100
AcDbEntity
  8
0
100
AcDbLine
 62
7
  6
CONTINUOUS
 10
111.9256846363
 20
101.2635667396
 11
111.9256846363
 21
103.1635667396
  0
LINE
  5
428
100
AcDbEntity
  8
0
100
AcDbLine
 62
7
  6
CONTINUOUS
 10
112.3506846363
 20
95.0635667396
 11
112.3506846363
 21
101.2635667396
  0
LINE
  5
429
100
AcDbEntity
  8
0
100
AcDbLine
 62
7
  6
CONTINUOUS
 10
113.0756846363
 20
100.9135667396
 11
113.0756846363
 21
100.3135667396
  0
LINE
  5
42A
100
AcDbEntity
  8
0
100
AcDbLine
 62
7
  6
CONTINUOUS
 10
113.2756846363
 20
93.2635667396
 11
113.2756846363
 21
95.0635667396
  0
LINE
  5
42B
100
AcDbEntity
  8
0
100
AcDbLine
 62
7
  6
CONTINUOUS
 10
114.0756846363
 20
95.0635667396
 11
114.0756846363
 21
93.2635667396
  0
LINE
  5
42C
100
AcDbEntity
  8
0
100
AcDbLine
 62
7
  6
CONTINUOUS
 10
114.2756846363
 20
100.9135667396
 11
114.2756846363
 21
100.3135667396
  0
LINE
  5
42D
100
AcDbEntity
  8
0
100
AcDbLine
 62
7
  6
CONTINUOUS
 10
115.0006846363
 20
101.2635667396
 11
115.0006846363
 21
95.0635667396
  0
LINE
  5
42E
100
AcDbEntity
  8
0
100
AcDbLine
 62
7
  6
CONTINUOUS
 10
115.4256846363
 20
101.2635667396
 11
115.4256846363
 21
103.1635667396
  0
LINE
  5
42F
100
AcDbEntity
  8
0
100
AcDbLine
 62
7
  6
CONTINUOUS
 10
115.8506846363
 20
95.0635667396
 11
115.8506846363
 21
101.2635667396
  0
LINE
  5
430
100
AcDbEntity
  8
0
100
AcDbLine
 62
7
  6
CONTINUOUS
 10
116.5756846363
 20
100.9135667396
 11
116.5756846363
 21
100.3135667396
  0
LINE
  5
431
100
AcDbEntity
  8
0
100
AcDbLine
 62
7
  6
CONTINUOUS
 10
116.7756846363
 20
93.2635667396
 11
116.7756846363
 21
95.0635667396
  0
LINE
  5
432
100
AcDbEntity
  8
0
100
AcDbLine
 62
7
  6
CONTINUOUS
 10
117.5756846363
 20
95.0635667396
 11
117.5756846363
 21
93.2635667396
  0
LINE
  5
433
100
AcDbEntity
  8
0
100
AcDbLine
 62
7
  6
CONTINUOUS
 10
117.7756846363
 20
100.9135667396
 11
117.7756846363
 21
100.3135667396
  0
LINE
  5
434
100
AcDbEntity
  8
0
100
AcDbLine
 62
7
  6
CONTINUOUS
 10
118.5006846363
 20
101.2635667396
 11
118.5006846363
 21
95.0635667396
  0
LINE
  5
435
100
AcDbEntity
  8
0
100
AcDbLine
 62
7
  6
CONTINUOUS
 10
118.9256846363
 20
101.2635667396
 11
118.9256846363
 21
103.1635667396
  0
LINE
  5
436
100
AcDbEntity
  8
0
100
AcDbLine
 62
7
  6
CONTINUOUS
 10
119.3506846363
 20
95.0635667396
 11
119.3506846363
 21
101.2635667396
  0
LINE
  5
437
100
AcDbEntity
  8
0
100
AcDbLine
 62
7
  6
CONTINUOUS
 10
120.0756846363
 20
100.9135667396
 11
120.0756846363
 21
100.3135667396
  0
LINE
  5
438
100
AcDbEntity
  8
0
100
AcDbLine
 62
7
  6
CONTINUOUS
 10
120.2756846363
 20
93.2635667396
 11
120.2756846363
 21
95.0635667396
  0
LINE
  5
439
100
AcDbEntity
  8
0
100
AcDbLine
 62
7
  6
CONTINUOUS
 10
121.0756846363
 20
95.0635667396
 11
121.0756846363
 21
93.2635667396
  0
LINE
  5
43A
100
AcDbEntity
  8
0
100
AcDbLine
 62
7
  6
CONTINUOUS
 10
121.2756846363
 20
100.9135667396
 11
121.2756846363
 21
100.3135667396
  0
LINE
  5
43B
100
AcDbEntity
  8
0
100
AcDbLine
 62
7
  6
CONTINUOUS
 10
121.8256846363
 20
101.2635667396
 11
121.8256846363
 21
103.1635667396
  0
LINE
  5
43C
100
AcDbEntity
  8
0
100
AcDbLine
 62
7
  6
CONTINUOUS
 10
122.1556846363
 20
100.3135667396
 11
122.1556846363
 21
96.2135667396
  0
LINE
  5
43D
100
AcDbEntity
  8
0
100
AcDbLine
 62
7
  6
CONTINUOUS
 10
122.4256846363
 20
92.0635667396
 11
122.4256846363
 21
103.1635667396
  0
ARC
  5
43E
100
AcDbEntity
  8
0
100
AcDbCircle
 62
7
  6
CONTINUOUS
 10
41.4256846363
 20
91.8935667396
 40
2.9150346034
100
AcDbArc
 50
223.3220358263
 51
316.6779641737
  0
ARC
  5
43F
100
AcDbEntity
  8
0
100
AcDbCircle
 62
7
  6
CONTINUOUS
 10
36.4256846363
 20
91.8935667396
 40
2.9150346034
100
AcDbArc
 50
223.3220358263
 51
316.6779641737
  0
ARC
  5
440
100
AcDbEntity
  8
0
100
AcDbCircle
 62
7
  6
CONTINUOUS
 10
28.4256846363
 20
91.8935667396
 40
2.9150346034
100
AcDbArc
 50
223.3220358263
 51
316.6779641737
  0
ARC
  5
441
100
AcDbEntity
  8
0
100
AcDbCircle
 62
7
  6
CONTINUOUS
 10
23.4256846363
 20
91.8935667396
 40
2.9150346034
100
AcDbArc
 50
223.3220358263
 51
316.6779641737
  0
ARC
  5
442
100
AcDbEntity
  8
0
100
AcDbCircle
 62
7
  6
CONTINUOUS
 10
18.4256846363
 20
91.8935667396
 40
2.9150346034
100
AcDbArc
 50
223.3220358263
 51
316.6779641737
  0
ARC
  5
443
100
AcDbEntity
  8
0
100
AcDbCircle
 62
7
  6
CONTINUOUS
 10
36.4256846363
 20
91.8935667396
 40
1.4
100
AcDbArc
 50
172.7656371015
 51
7.2277474959
  0
CIRCLE
  5
444
100
AcDbEntity
  8
0
100
AcDbCircle
 62
7
  6
CONTINUOUS
 10
41.4256846363
 20
91.8935667396
 40
1.4
  0
ARC
  5
445
100
AcDbEntity
  8
0
100
AcDbCircle
 62
7
  6
CONTINUOUS
 10
18.4256846363
 20
91.8935667396
 40
1.4
100
AcDbArc
 50
172.7656371015
 51
7.2277474959
  0
ARC
  5
446
100
AcDbEntity
  8
0
100
AcDbCircle
 62
7
  6
CONTINUOUS
 10
23.4256846363
 20
91.8935667396
 40
1.4
100
AcDbArc
 50
172.7656371015
 51
7.2277474959
  0
ARC
  5
447
100
AcDbEntity
  8
0
100
AcDbCircle
 62
7
  6
CONTINUOUS
 10
28.4256846363
 20
91.8935667396
 40
1.4
100
AcDbArc
 50
60.0
 51
300.0
  0
CIRCLE
  5
448
100
AcDbEntity
  8
0
100
AcDbCircle
 62
7
  6
CONTINUOUS
 10
41.4256846363
 20
91.8935667396
 40
0.7
  0
ARC
  5
449
100
AcDbEntity
  8
0
100
AcDbCircle
 62
7
  6
CONTINUOUS
 10
36.4256846363
 20
91.8935667396
 40
0.7
100
AcDbArc
 50
165.4145398447
 51
14.5516141347
  0
ARC
  5
44A
100
AcDbEntity
  8
0
100
AcDbCircle
 62
7
  6
CONTINUOUS
 10
23.4256846363
 20
91.8935667396
 40
0.7
100
AcDbArc
 50
165.4145398447
 51
14.5516141347
  0
CIRCLE
  5
44B
100
AcDbEntity
  8
0
100
AcDbCircle
 62
7
  6
CONTINUOUS
 10
28.4256846363
 20
91.8935667396
 40
0.7
  0
ARC
  5
44C
100
AcDbEntity
  8
0
100
AcDbCircle
 62
7
  6
CONTINUOUS
 10
18.4256846363
 20
91.8935667396
 40
0.7
100
AcDbArc
 50
165.4145398447
 51
14.5516141347
  0
ARC
  5
44D
100
AcDbEntity
  8
0
100
AcDbCircle
 62
7
  6
CONTINUOUS
 10
24.6756846363
 20
93.2635667396
 40
0.4
100
AcDbArc
 50
180.0
 51
360.0
  0
ARC
  5
44E
100
AcDbEntity
  8
0
100
AcDbCircle
 62
7
  6
CONTINUOUS
 10
17.6756846363
 20
93.2635667396
 40
0.4
100
AcDbArc
 50
180.0
 51
360.0
  0
ARC
  5
44F
100
AcDbEntity
  8
0
100
AcDbCircle
 62
7
  6
CONTINUOUS
 10
21.1756846363
 20
93.2635667396
 40
0.4
100
AcDbArc
 50
180.0
 51
360.0
  0
ARC
  5
450
100
AcDbEntity
  8
0
100
AcDbCircle
 62
7
  6
CONTINUOUS
 10
38.1756846363
 20
93.2635667396
 40
0.4
100
AcDbArc
 50
180.0
 51
360.0
  0
ARC
  5
451
100
AcDbEntity
  8
0
100
AcDbCircle
 62
7
  6
CONTINUOUS
 10
31.1756846363
 20
93.2635667396
 40
0.4
100
AcDbArc
 50
180.0
 51
360.0
  0
ARC
  5
452
100
AcDbEntity
  8
0
100
AcDbCircle
 62
7
  6
CONTINUOUS
 10
34.6756846363
 20
93.2635667396
 40
0.4
100
AcDbArc
 50
180.0
 51
360.0
  0
ARC
  5
453
100
AcDbEntity
  8
0
100
AcDbCircle
 62
7
  6
CONTINUOUS
 10
46.4256846363
 20
91.8935667396
 40
2.9150346034
100
AcDbArc
 50
223.3220358263
 51
316.6779641737
  0
ARC
  5
454
100
AcDbEntity
  8
0
100
AcDbCircle
 62
7
  6
CONTINUOUS
 10
64.4256846363
 20
91.8935667396
 40
2.9150346034
100
AcDbArc
 50
223.3220358263
 51
316.6779641737
  0
ARC
  5
455
100
AcDbEntity
  8
0
100
AcDbCircle
 62
7
  6
CONTINUOUS
 10
59.4256846363
 20
91.8935667396
 40
2.9150346034
100
AcDbArc
 50
223.3220358263
 51
316.6779641737
  0
ARC
  5
456
100
AcDbEntity
  8
0
100
AcDbCircle
 62
7
  6
CONTINUOUS
 10
54.4256846363
 20
91.8935667396
 40
2.9150346034
100
AcDbArc
 50
223.3220358263
 51
316.6779641737
  0
ARC
  5
457
100
AcDbEntity
  8
0
100
AcDbCircle
 62
7
  6
CONTINUOUS
 10
46.4256846363
 20
91.8935667396
 40
1.4
100
AcDbArc
 50
172.7860327746
 51
300.0
  0
ARC
  5
458
100
AcDbEntity
  8
0
100
AcDbCircle
 62
7
  6
CONTINUOUS
 10
54.4256846363
 20
91.8935667396
 40
1.4
100
AcDbArc
 50
172.7632753552
 51
7.2270085974
  0
ARC
  5
459
100
AcDbEntity
  8
0
100
AcDbCircle
 62
7
  6
CONTINUOUS
 10
59.4256846363
 20
91.8935667396
 40
1.4
100
AcDbArc
 50
172.7632753552
 51
43.0356770354
  0
ARC
  5
45A
100
AcDbEntity
  8
0
100
AcDbCircle
 62
7
  6
CONTINUOUS
 10
64.4256846363
 20
91.8935667396
 40
1.4
100
AcDbArc
 50
136.9440125884
 51
7.2270085974
  0
ARC
  5
45B
100
AcDbEntity
  8
0
100
AcDbCircle
 62
7
  6
CONTINUOUS
 10
46.4256846363
 20
91.8935667396
 40
0.7
100
AcDbArc
 50
165.4145398447
 51
14.5516141347
  0
ARC
  5
45C
100
AcDbEntity
  8
0
100
AcDbCircle
 62
7
  6
CONTINUOUS
 10
64.4256846363
 20
91.8935667396
 40
0.7
100
AcDbArc
 50
165.4145398447
 51
14.5516141347
  0
ARC
  5
45D
100
AcDbEntity
  8
0
100
AcDbCircle
 62
7
  6
CONTINUOUS
 10
59.4256846363
 20
91.8935667396
 40
0.7
100
AcDbArc
 50
165.4145398447
 51
14.5516141347
  0
ARC
  5
45E
100
AcDbEntity
  8
0
100
AcDbCircle
 62
7
  6
CONTINUOUS
 10
54.4256846363
 20
91.8935667396
 40
0.7
100
AcDbArc
 50
165.4145398447
 51
14.5516141347
  0
ARC
  5
45F
100
AcDbEntity
  8
0
100
AcDbCircle
 62
7
  6
CONTINUOUS
 10
51.6756846363
 20
93.2635667396
 40
0.4
100
AcDbArc
 50
180.0
 51
360.0
  0
ARC
  5
460
100
AcDbEntity
  8
0
100
AcDbCircle
 62
7
  6
CONTINUOUS
 10
58.6756846363
 20
93.2635667396
 40
0.4
100
AcDbArc
 50
180.0
 51
360.0
  0
ARC
  5
461
100
AcDbEntity
  8
0
100
AcDbCircle
 62
7
  6
CONTINUOUS
 10
48.1756846363
 20
93.2635667396
 40
0.4
100
AcDbArc
 50
180.0
 51
360.0
  0
ARC
  5
462
100
AcDbEntity
  8
0
100
AcDbCircle
 62
7
  6
CONTINUOUS
 10
44.6756846363
 20
93.2635667396
 40
0.4
100
AcDbArc
 50
180.0
 51
360.0
  0
ARC
  5
463
100
AcDbEntity
  8
0
100
AcDbCircle
 62
7
  6
CONTINUOUS
 10
55.1756846363
 20
93.2635667396
 40
0.4
100
AcDbArc
 50
180.0
 51
360.0
  0
ARC
  5
464
100
AcDbEntity
  8
0
100
AcDbCircle
 62
7
  6
CONTINUOUS
 10
68.6756846363
 20
93.2635667396
 40
0.4
100
AcDbArc
 50
180.0
 51
360.0
  0
ARC
  5
465
100
AcDbEntity
  8
0
100
AcDbCircle
 62
7
  6
CONTINUOUS
 10
65.1756846363
 20
93.2635667396
 40
0.4
100
AcDbArc
 50
180.0
 51
360.0
  0
CIRCLE
  5
466
100
AcDbEntity
  8
0
100
AcDbCircle
 62
7
  6
CONTINUOUS
 10
17.6756846363
 20
95.9135667396
 40
0.4471019058
  0
CIRCLE
  5
467
100
AcDbEntity
  8
0
100
AcDbCircle
 62
7
  6
CONTINUOUS
 10
24.6756846363
 20
95.9135667396
 40
0.4471019058
  0
CIRCLE
  5
468
100
AcDbEntity
  8
0
100
AcDbCircle
 62
7
  6
CONTINUOUS
 10
21.1756846363
 20
95.9135667396
 40
0.4471019058
  0
CIRCLE
  5
469
100
AcDbEntity
  8
0
100
AcDbCircle
 62
7
  6
CONTINUOUS
 10
31.1756846363
 20
95.9135667396
 40
0.4471019058
  0
CIRCLE
  5
46A
100
AcDbEntity
  8
0
100
AcDbCircle
 62
7
  6
CONTINUOUS
 10
38.1756846363
 20
95.9135667396
 40
0.4471019058
  0
CIRCLE
  5
46B
100
AcDbEntity
  8
0
100
AcDbCircle
 62
7
  6
CONTINUOUS
 10
34.6756846363
 20
95.9135667396
 40
0.4471019058
  0
CIRCLE
  5
46C
100
AcDbEntity
  8
0
100
AcDbCircle
 62
7
  6
CONTINUOUS
 10
17.6756846363
 20
98.3635667396
 40
1.15
  0
CIRCLE
  5
46D
100
AcDbEntity
  8
0
100
AcDbCircle
 62
7
  6
CONTINUOUS
 10
21.1756846363
 20
98.3635667396
 40
1.15
  0
CIRCLE
  5
46E
100
AcDbEntity
  8
0
100
AcDbCircle
 62
7
  6
CONTINUOUS
 10
24.6756846363
 20
98.3635667396
 40
1.15
  0
CIRCLE
  5
46F
100
AcDbEntity
  8
0
100
AcDbCircle
 62
7
  6
CONTINUOUS
 10
31.1756846363
 20
98.3635667396
 40
1.15
  0
CIRCLE
  5
470
100
AcDbEntity
  8
0
100
AcDbCircle
 62
7
  6
CONTINUOUS
 10
34.6756846363
 20
98.3635667396
 40
1.15
  0
CIRCLE
  5
471
100
AcDbEntity
  8
0
100
AcDbCircle
 62
7
  6
CONTINUOUS
 10
38.1756846363
 20
98.3635667396
 40
1.15
  0
CIRCLE
  5
472
100
AcDbEntity
  8
0
100
AcDbCircle
 62
7
  6
CONTINUOUS
 10
24.6756846363
 20
98.3635667396
 40
0.6
  0
CIRCLE
  5
473
100
AcDbEntity
  8
0
100
AcDbCircle
 62
7
  6
CONTINUOUS
 10
17.6756846363
 20
98.3635667396
 40
0.6
  0
CIRCLE
  5
474
100
AcDbEntity
  8
0
100
AcDbCircle
 62
7
  6
CONTINUOUS
 10
21.1756846363
 20
98.3635667396
 40
0.6
  0
CIRCLE
  5
475
100
AcDbEntity
  8
0
100
AcDbCircle
 62
7
  6
CONTINUOUS
 10
38.1756846363
 20
98.3635667396
 40
0.6
  0
CIRCLE
  5
476
100
AcDbEntity
  8
0
100
AcDbCircle
 62
7
  6
CONTINUOUS
 10
31.1756846363
 20
98.3635667396
 40
0.6
  0
CIRCLE
  5
477
100
AcDbEntity
  8
0
100
AcDbCircle
 62
7
  6
CONTINUOUS
 10
34.6756846363
 20
98.3635667396
 40
0.6
  0
CIRCLE
  5
478
100
AcDbEntity
  8
0
100
AcDbCircle
 62
7
  6
CONTINUOUS
 10
51.6756846363
 20
95.9135667396
 40
0.4471019058
  0
CIRCLE
  5
479
100
AcDbEntity
  8
0
100
AcDbCircle
 62
7
  6
CONTINUOUS
 10
58.6756846363
 20
95.9135667396
 40
0.4471019058
  0
CIRCLE
  5
47A
100
AcDbEntity
  8
0
100
AcDbCircle
 62
7
  6
CONTINUOUS
 10
48.1756846363
 20
95.9135667396
 40
0.4471019058
  0
CIRCLE
  5
47B
100
AcDbEntity
  8
0
100
AcDbCircle
 62
7
  6
CONTINUOUS
 10
44.6756846363
 20
95.9135667396
 40
0.4471019058
  0
CIRCLE
  5
47C
100
AcDbEntity
  8
0
100
AcDbCircle
 62
7
  6
CONTINUOUS
 10
55.1756846363
 20
95.9135667396
 40
0.4471019058
  0
CIRCLE
  5
47D
100
AcDbEntity
  8
0
100
AcDbCircle
 62
7
  6
CONTINUOUS
 10
68.6756846363
 20
95.9135667396
 40
0.4471019058
  0
CIRCLE
  5
47E
100
AcDbEntity
  8
0
100
AcDbCircle
 62
7
  6
CONTINUOUS
 10
65.1756846363
 20
95.9135667396
 40
0.4471019058
  0
CIRCLE
  5
47F
100
AcDbEntity
  8
0
100
AcDbCircle
 62
7
  6
CONTINUOUS
 10
51.6756846363
 20
98.3635667396
 40
1.15
  0
CIRCLE
  5
480
100
AcDbEntity
  8
0
100
AcDbCircle
 62
7
  6
CONTINUOUS
 10
48.1756846363
 20
98.3635667396
 40
1.15
  0
CIRCLE
  5
481
100
AcDbEntity
  8
0
100
AcDbCircle
 62
7
  6
CONTINUOUS
 10
44.6756846363
 20
98.3635667396
 40
1.15
  0
CIRCLE
  5
482
100
AcDbEntity
  8
0
100
AcDbCircle
 62
7
  6
CONTINUOUS
 10
58.6756846363
 20
98.3635667396
 40
1.15
  0
CIRCLE
  5
483
100
AcDbEntity
  8
0
100
AcDbCircle
 62
7
  6
CONTINUOUS
 10
55.1756846363
 20
98.3635667396
 40
1.15
  0
CIRCLE
  5
484
100
AcDbEntity
  8
0
100
AcDbCircle
 62
7
  6
CONTINUOUS
 10
68.6756846363
 20
98.3635667396
 40
1.15
  0
CIRCLE
  5
485
100
AcDbEntity
  8
0
100
AcDbCircle
 62
7
  6
CONTINUOUS
 10
65.1756846363
 20
98.3635667396
 40
1.15
  0
CIRCLE
  5
486
100
AcDbEntity
  8
0
100
AcDbCircle
 62
7
  6
CONTINUOUS
 10
58.6756846363
 20
98.3635667396
 40
0.6
  0
CIRCLE
  5
487
100
AcDbEntity
  8
0
100
AcDbCircle
 62
7
  6
CONTINUOUS
 10
51.6756846363
 20
98.3635667396
 40
0.6
  0
CIRCLE
  5
488
100
AcDbEntity
  8
0
100
AcDbCircle
 62
7
  6
CONTINUOUS
 10
48.1756846363
 20
98.3635667396
 40
0.6
  0
CIRCLE
  5
489
100
AcDbEntity
  8
0
100
AcDbCircle
 62
7
  6
CONTINUOUS
 10
44.6756846363
 20
98.3635667396
 40
0.6
  0
CIRCLE
  5
48A
100
AcDbEntity
  8
0
100
AcDbCircle
 62
7
  6
CONTINUOUS
 10
55.1756846363
 20
98.3635667396
 40
0.6
  0
CIRCLE
  5
48B
100
AcDbEntity
  8
0
100
AcDbCircle
 62
7
  6
CONTINUOUS
 10
68.6756846363
 20
98.3635667396
 40
0.6
  0
CIRCLE
  5
48C
100
AcDbEntity
  8
0
100
AcDbCircle
 62
7
  6
CONTINUOUS
 10
65.1756846363
 20
98.3635667396
 40
0.6
  0
ARC
  5
48D
100
AcDbEntity
  8
0
100
AcDbCircle
 62
7
  6
CONTINUOUS
 10
69.4256846363
 20
91.8935667396
 40
2.9150346034
100
AcDbArc
 50
223.3220358263
 51
316.6779641737
  0
ARC
  5
48E
100
AcDbEntity
  8
0
100
AcDbCircle
 62
7
  6
CONTINUOUS
 10
92.4256846363
 20
91.8935667396
 40
2.9150346034
100
AcDbArc
 50
223.3220358263
 51
316.6779641737
  0
ARC
  5
48F
100
AcDbEntity
  8
0
100
AcDbCircle
 62
7
  6
CONTINUOUS
 10
87.4256846363
 20
91.8935667396
 40
2.9150346034
100
AcDbArc
 50
223.3220358263
 51
316.6779641737
  0
ARC
  5
490
100
AcDbEntity
  8
0
100
AcDbCircle
 62
7
  6
CONTINUOUS
 10
82.4256846363
 20
91.8935667396
 40
2.9150346034
100
AcDbArc
 50
223.3220358263
 51
316.6779641737
  0
ARC
  5
491
100
AcDbEntity
  8
0
100
AcDbCircle
 62
7
  6
CONTINUOUS
 10
77.4256846363
 20
91.8935667396
 40
2.9150346034
100
AcDbArc
 50
223.3220358263
 51
316.6779641737
  0
ARC
  5
492
100
AcDbEntity
  8
0
100
AcDbCircle
 62
7
  6
CONTINUOUS
 10
69.4256846363
 20
91.8935667396
 40
1.4
100
AcDbArc
 50
172.7860327746
 51
300.0
  0
ARC
  5
493
100
AcDbEntity
  8
0
100
AcDbCircle
 62
7
  6
CONTINUOUS
 10
77.4256846363
 20
91.8935667396
 40
1.4
100
AcDbArc
 50
172.7632753552
 51
7.2270085974
  0
ARC
  5
494
100
AcDbEntity
  8
0
100
AcDbCircle
 62
7
  6
CONTINUOUS
 10
82.4256846363
 20
91.8935667396
 40
1.4
100
AcDbArc
 50
172.7632753552
 51
7.2270085974
  0
ARC
  5
495
100
AcDbEntity
  8
0
100
AcDbCircle
 62
7
  6
CONTINUOUS
 10
87.4256846363
 20
91.8935667396
 40
1.4
100
AcDbArc
 50
172.7632753552
 51
68.5013852864
  0
ARC
  5
496
100
AcDbEntity
  8
0
100
AcDbCircle
 62
7
  6
CONTINUOUS
 10
92.4256846363
 20
91.8935667396
 40
1.4
100
AcDbArc
 50
172.7860327746
 51
300.0
  0
ARC
  5
497
100
AcDbEntity
  8
0
100
AcDbCircle
 62
7
  6
CONTINUOUS
 10
69.4256846363
 20
91.8935667396
 40
0.7
100
AcDbArc
 50
165.4145398447
 51
14.5516141347
  0
ARC
  5
498
100
AcDbEntity
  8
0
100
AcDbCircle
 62
7
  6
CONTINUOUS
 10
87.4256846363
 20
91.8935667396
 40
0.7
100
AcDbArc
 50
165.4145398447
 51
42.5301169598
  0
ARC
  5
499
100
AcDbEntity
  8
0
100
AcDbCircle
 62
7
  6
CONTINUOUS
 10
92.4256846363
 20
91.8935667396
 40
0.7
100
AcDbArc
 50
165.4145398447
 51
14.5516141347
  0
ARC
  5
49A
100
AcDbEntity
  8
0
100
AcDbCircle
 62
7
  6
CONTINUOUS
 10
82.4256846363
 20
91.8935667396
 40
0.7
100
AcDbArc
 50
165.4145398447
 51
14.5516141347
  0
ARC
  5
49B
100
AcDbEntity
  8
0
100
AcDbCircle
 62
7
  6
CONTINUOUS
 10
77.4256846363
 20
91.8935667396
 40
0.7
100
AcDbArc
 50
165.4145398447
 51
14.5516141347
  0
ARC
  5
49C
100
AcDbEntity
  8
0
100
AcDbCircle
 62
7
  6
CONTINUOUS
 10
86.1756846363
 20
93.2635667396
 40
0.4
100
AcDbArc
 50
180.0
 51
360.0
  0
ARC
  5
49D
100
AcDbEntity
  8
0
100
AcDbCircle
 62
7
  6
CONTINUOUS
 10
79.1756846363
 20
93.2635667396
 40
0.4
100
AcDbArc
 50
180.0
 51
360.0
  0
ARC
  5
49E
100
AcDbEntity
  8
0
100
AcDbCircle
 62
7
  6
CONTINUOUS
 10
75.6756846363
 20
93.2635667396
 40
0.4
100
AcDbArc
 50
180.0
 51
360.0
  0
ARC
  5
49F
100
AcDbEntity
  8
0
100
AcDbCircle
 62
7
  6
CONTINUOUS
 10
72.1756846363
 20
93.2635667396
 40
0.4
100
AcDbArc
 50
180.0
 51
360.0
  0
ARC
  5
4A0
100
AcDbEntity
  8
0
100
AcDbCircle
 62
7
  6
CONTINUOUS
 10
82.6756846363
 20
93.2635667396
 40
0.4
100
AcDbArc
 50
180.0
 51
360.0
  0
ARC
  5
4A1
100
AcDbEntity
  8
0
100
AcDbCircle
 62
7
  6
CONTINUOUS
 10
92.6756846363
 20
93.2635667396
 40
0.4
100
AcDbArc
 50
180.0
 51
360.0
  0
ARC
  5
4A2
100
AcDbEntity
  8
0
100
AcDbCircle
 62
7
  6
CONTINUOUS
 10
120.6756846363
 20
93.2635667396
 40
0.4
100
AcDbArc
 50
180.0
 51
360.0
  0
ARC
  5
4A3
100
AcDbEntity
  8
0
100
AcDbCircle
 62
7
  6
CONTINUOUS
 10
113.6756846363
 20
93.2635667396
 40
0.4
100
AcDbArc
 50
180.0
 51
360.0
  0
ARC
  5
4A4
100
AcDbEntity
  8
0
100
AcDbCircle
 62
7
  6
CONTINUOUS
 10
110.1756846363
 20
93.2635667396
 40
0.4
100
AcDbArc
 50
180.0
 51
360.0
  0
ARC
  5
4A5
100
AcDbEntity
  8
0
100
AcDbCircle
 62
7
  6
CONTINUOUS
 10
106.6756846363
 20
93.2635667396
 40
0.4
100
AcDbArc
 50
180.0
 51
360.0
  0
ARC
  5
4A6
100
AcDbEntity
  8
0
100
AcDbCircle
 62
7
  6
CONTINUOUS
 10
103.1756846363
 20
93.2635667396
 40
0.4
100
AcDbArc
 50
180.0
 51
360.0
  0
ARC
  5
4A7
100
AcDbEntity
  8
0
100
AcDbCircle
 62
7
  6
CONTINUOUS
 10
99.6756846363
 20
93.2635667396
 40
0.4
100
AcDbArc
 50
180.0
 51
360.0
  0
ARC
  5
4A8
100
AcDbEntity
  8
0
100
AcDbCircle
 62
7
  6
CONTINUOUS
 10
117.1756846363
 20
93.2635667396
 40
0.4
100
AcDbArc
 50
180.0
 51
360.0
  0
ARC
  5
4A9
100
AcDbEntity
  8
0
100
AcDbCircle
 62
7
  6
CONTINUOUS
 10
96.1756846363
 20
93.2635667396
 40
0.4
100
AcDbArc
 50
180.0
 51
360.0
  0
CIRCLE
  5
4AA
100
AcDbEntity
  8
0
100
AcDbCircle
 62
7
  6
CONTINUOUS
 10
79.1756846363
 20
95.9135667396
 40
0.4471019058
  0
CIRCLE
  5
4AB
100
AcDbEntity
  8
0
100
AcDbCircle
 62
7
  6
CONTINUOUS
 10
86.1756846363
 20
95.9135667396
 40
0.4471019058
  0
CIRCLE
  5
4AC
100
AcDbEntity
  8
0
100
AcDbCircle
 62
7
  6
CONTINUOUS
 10
75.6756846363
 20
95.9135667396
 40
0.4471019058
  0
CIRCLE
  5
4AD
100
AcDbEntity
  8
0
100
AcDbCircle
 62
7
  6
CONTINUOUS
 10
72.1756846363
 20
95.9135667396
 40
0.4471019058
  0
CIRCLE
  5
4AE
100
AcDbEntity
  8
0
100
AcDbCircle
 62
7
  6
CONTINUOUS
 10
82.6756846363
 20
95.9135667396
 40
0.4471019058
  0
CIRCLE
  5
4AF
100
AcDbEntity
  8
0
100
AcDbCircle
 62
7
  6
CONTINUOUS
 10
96.1756846363
 20
95.9135667396
 40
0.4471019058
  0
CIRCLE
  5
4B0
100
AcDbEntity
  8
0
100
AcDbCircle
 62
7
  6
CONTINUOUS
 10
92.6756846363
 20
95.9135667396
 40
0.4471019058
  0
CIRCLE
  5
4B1
100
AcDbEntity
  8
0
100
AcDbCircle
 62
7
  6
CONTINUOUS
 10
79.1756846363
 20
98.3635667396
 40
1.15
  0
CIRCLE
  5
4B2
100
AcDbEntity
  8
0
100
AcDbCircle
 62
7
  6
CONTINUOUS
 10
75.6756846363
 20
98.3635667396
 40
1.15
  0
CIRCLE
  5
4B3
100
AcDbEntity
  8
0
100
AcDbCircle
 62
7
  6
CONTINUOUS
 10
86.1756846363
 20
98.3635667396
 40
1.15
  0
CIRCLE
  5
4B4
100
AcDbEntity
  8
0
100
AcDbCircle
 62
7
  6
CONTINUOUS
 10
72.1756846363
 20
98.3635667396
 40
1.15
  0
CIRCLE
  5
4B5
100
AcDbEntity
  8
0
100
AcDbCircle
 62
7
  6
CONTINUOUS
 10
82.6756846363
 20
98.3635667396
 40
1.15
  0
CIRCLE
  5
4B6
100
AcDbEntity
  8
0
100
AcDbCircle
 62
7
  6
CONTINUOUS
 10
96.1756846363
 20
98.3635667396
 40
1.15
  0
CIRCLE
  5
4B7
100
AcDbEntity
  8
0
100
AcDbCircle
 62
7
  6
CONTINUOUS
 10
92.6756846363
 20
98.3635667396
 40
1.15
  0
CIRCLE
  5
4B8
100
AcDbEntity
  8
0
100
AcDbCircle
 62
7
  6
CONTINUOUS
 10
86.1756846363
 20
98.3635667396
 40
0.6
  0
CIRCLE
  5
4B9
100
AcDbEntity
  8
0
100
AcDbCircle
 62
7
  6
CONTINUOUS
 10
79.1756846363
 20
98.3635667396
 40
0.6
  0
CIRCLE
  5
4BA
100
AcDbEntity
  8
0
100
AcDbCircle
 62
7
  6
CONTINUOUS
 10
75.6756846363
 20
98.3635667396
 40
0.6
  0
CIRCLE
  5
4BB
100
AcDbEntity
  8
0
100
AcDbCircle
 62
7
  6
CONTINUOUS
 10
72.1756846363
 20
98.3635667396
 40
0.6
  0
CIRCLE
  5
4BC
100
AcDbEntity
  8
0
100
AcDbCircle
 62
7
  6
CONTINUOUS
 10
82.6756846363
 20
98.3635667396
 40
0.6
  0
CIRCLE
  5
4BD
100
AcDbEntity
  8
0
100
AcDbCircle
 62
7
  6
CONTINUOUS
 10
96.1756846363
 20
98.3635667396
 40
0.6
  0
CIRCLE
  5
4BE
100
AcDbEntity
  8
0
100
AcDbCircle
 62
7
  6
CONTINUOUS
 10
92.6756846363
 20
98.3635667396
 40
0.6
  0
CIRCLE
  5
4BF
100
AcDbEntity
  8
0
100
AcDbCircle
 62
7
  6
CONTINUOUS
 10
113.6756846363
 20
95.9135667396
 40
0.4471019058
  0
CIRCLE
  5
4C0
100
AcDbEntity
  8
0
100
AcDbCircle
 62
7
  6
CONTINUOUS
 10
120.6756846363
 20
95.9135667396
 40
0.4471019058
  0
CIRCLE
  5
4C1
100
AcDbEntity
  8
0
100
AcDbCircle
 62
7
  6
CONTINUOUS
 10
110.1756846363
 20
95.9135667396
 40
0.4471019058
  0
CIRCLE
  5
4C2
100
AcDbEntity
  8
0
100
AcDbCircle
 62
7
  6
CONTINUOUS
 10
106.6756846363
 20
95.9135667396
 40
0.4471019058
  0
CIRCLE
  5
4C3
100
AcDbEntity
  8
0
100
AcDbCircle
 62
7
  6
CONTINUOUS
 10
103.1756846363
 20
95.9135667396
 40
0.4471019058
  0
CIRCLE
  5
4C4
100
AcDbEntity
  8
0
100
AcDbCircle
 62
7
  6
CONTINUOUS
 10
99.6756846363
 20
95.9135667396
 40
0.4471019058
  0
CIRCLE
  5
4C5
100
AcDbEntity
  8
0
100
AcDbCircle
 62
7
  6
CONTINUOUS
 10
117.1756846363
 20
95.9135667396
 40
0.4471019058
  0
CIRCLE
  5
4C6
100
AcDbEntity
  8
0
100
AcDbCircle
 62
7
  6
CONTINUOUS
 10
113.6756846363
 20
98.3635667396
 40
1.15
  0
CIRCLE
  5
4C7
100
AcDbEntity
  8
0
100
AcDbCircle
 62
7
  6
CONTINUOUS
 10
110.1756846363
 20
98.3635667396
 40
1.15
  0
CIRCLE
  5
4C8
100
AcDbEntity
  8
0
100
AcDbCircle
 62
7
  6
CONTINUOUS
 10
120.6756846363
 20
98.3635667396
 40
1.15
  0
CIRCLE
  5
4C9
100
AcDbEntity
  8
0
100
AcDbCircle
 62
7
  6
CONTINUOUS
 10
106.6756846363
 20
98.3635667396
 40
1.15
  0
CIRCLE
  5
4CA
100
AcDbEntity
  8
0
100
AcDbCircle
 62
7
  6
CONTINUOUS
 10
103.1756846363
 20
98.3635667396
 40
1.15
  0
CIRCLE
  5
4CB
100
AcDbEntity
  8
0
100
AcDbCircle
 62
7
  6
CONTINUOUS
 10
99.6756846363
 20
98.3635667396
 40
1.15
  0
CIRCLE
  5
4CC
100
AcDbEntity
  8
0
100
AcDbCircle
 62
7
  6
CONTINUOUS
 10
117.1756846363
 20
98.3635667396
 40
1.15
  0
CIRCLE
  5
4CD
100
AcDbEntity
  8
0
100
AcDbCircle
 62
7
  6
CONTINUOUS
 10
120.6756846363
 20
98.3635667396
 40
0.6
  0
CIRCLE
  5
4CE
100
AcDbEntity
  8
0
100
AcDbCircle
 62
7
  6
CONTINUOUS
 10
113.6756846363
 20
98.3635667396
 40
0.6
  0
CIRCLE
  5
4CF
100
AcDbEntity
  8
0
100
AcDbCircle
 62
7
  6
CONTINUOUS
 10
110.1756846363
 20
98.3635667396
 40
0.6
  0
CIRCLE
  5
4D0
100
AcDbEntity
  8
0
100
AcDbCircle
 62
7
  6
CONTINUOUS
 10
106.6756846363
 20
98.3635667396
 40
0.6
  0
CIRCLE
  5
4D1
100
AcDbEntity
  8
0
100
AcDbCircle
 62
7
  6
CONTINUOUS
 10
103.1756846363
 20
98.3635667396
 40
0.6
  0
CIRCLE
  5
4D2
100
AcDbEntity
  8
0
100
AcDbCircle
 62
7
  6
CONTINUOUS
 10
99.6756846363
 20
98.3635667396
 40
0.6
  0
CIRCLE
  5
4D3
100
AcDbEntity
  8
0
100
AcDbCircle
 62
7
  6
CONTINUOUS
 10
117.1756846363
 20
98.3635667396
 40
0.6
  0
ENDSEC
  0
SECTION
  2
OBJECTS
  0
DICTIONARY
  5
C
100
AcDbDictionary
280
0
281
1
  3
ACAD_GROUP
350
D
  3
ACAD_MLINESTYLE
350
17
  3
ACAD_LAYOUT
350
1A
  3
ACAD_PLOTSETTINGS
350
19
  3
ACAD_PLOTSTYLENAME
350
E
  0
DICTIONARY
  5
D
102
{ACAD_REACTORS
330
C
102
}
100
AcDbDictionary
280
0
281
1
  0
ACDBDICTIONARYWDFLT
  5
E
102
{ACAD_REACTORS
330
C
102
}
100
AcDbDictionary
281
1
  3
Normal
350
F
100
AcDbDictionaryWithDefault
340
F
  0
DICTIONARY
  5
17
102
{ACAD_REACTORS
330
C
102
}
100
AcDbDictionary
280
0
281
1
  3
Standard
350
18
  0
DICTIONARY
  5
19
102
{ACAD_REACTORS
330
C
102
}
100
AcDbDictionary
281
1
  0
DICTIONARY
  5
1A
102
{ACAD_REACTORS
330
C
102
}
100
AcDbDictionary
281
1
  3
Model
350
4D4
  3
Layout1
350
4D5
  0
ACDBPLACEHOLDER
  5
F
102
{ACAD_REACTORS
330
E
102
}
  0
MLINESTYLE
  5
18
102
{ACAD_REACTORS
330
17
102
}
100
AcDbMlineStyle
  2
STANDARD
 70
0
  3

 62
256
 51
90.0
 52
90.0
 71
2
 49
0.5
 62
256
  6
BYLAYER
 49
-0.5
 62
256
  6
BYLAYER
  0
LAYOUT
  5
4D4
102
{ACAD_REACTORS
330
1A
102
}
100
AcDbPlotSettings
  1

  2
none_device
  4

  6

 40
0.0
 41
0.0
 42
0.0
 43
0.0
 44
210.0
 45
297.0
 46
0.0
 47
0.0
 48
0.0
 49
0.0
140
0.0
141
0.0
142
1.0
143
1.0
 70
1024
 72
1
 73
0
 74
0
  7

 75
0
147
1.0
148
0.0
149
0.0
100
AcDbLayout
  1
Model
 70
0
 71
0
 10
0.0
 20
0.0
 11
210.0
 21
297.0
 12
0.0
 22
0.0
 32
0.0
 14
0.0
 24
0.0
 34
0.0
 15
0.0
 25
0.0
 35
0.0
146
0.0
 13
0.0
 23
0.0
 33
0.0
 16
1.0
 26
0.0
 36
0.0
 17
0.0
 27
1.0
 37
0.0
 76
0
330
210
345
0
346
0
  0
LAYOUT
  5
4D5
102
{ACAD_REACTORS
330
1A
102
}
100
AcDbPlotSettings
  1

  2
none_device
  4

  6

 40
0.0
 41
0.0
 42
0.0
 43
0.0
 44
210.0
 45
297.0
 46
0.0
 47
0.0
 48
0.0
 49
0.0
140
0.0
141
0.0
142
1.0
143
1.0
 70
0
 72
1
 73
0
 74
0
  7

 75
0
147
1.0
148
0.0
149
0.0
100
AcDbLayout
  1
Layout1
 70
0
 71
1
 10
0.0
 20
0.0
 11
210.0
 21
297.0
 12
0.0
 22
0.0
 32
0.0
 14
0.0
 24
0.0
 34
0.0
 15
0.0
 25
0.0
 35
0.0
146
0.0
 13
0.0
 23
0.0
 33
0.0
 16
1.0
 26
0.0
 36
0.0
 17
0.0
 27
1.0
 37
0.0
 76
0
330
211
345
0
346
0
  0
ENDSEC
  0
EOF
