ISO-10303-21;
HEADER;
FILE_DESCRIPTION((''),'2;1');
FILE_NAME('155981301AF6_PRT','2008-07-10T17:02:15',('userpim'),(''),
'PRO/ENGINEER BY PARAMETRIC TECHNOLOGY CORPORATION, 2007150',
'PRO/ENGINEER BY PARAMETRIC TECHNOLOGY CORPORATION, 2007150','');
FILE_SCHEMA(('CONFIG_CONTROL_DESIGN'));
ENDSEC;
DATA;
#2=CARTESIAN_POINT('',(0.E0,0.E0,0.E0));
#3=DIRECTION('',(0.E0,1.E0,0.E0));
#4=DIRECTION('',(1.E0,0.E0,0.E0));
#5=AXIS2_PLACEMENT_3D('',#2,#3,#4);
#7=CARTESIAN_POINT('',(0.E0,0.E0,0.E0));
#8=DIRECTION('',(0.E0,1.E0,0.E0));
#9=DIRECTION('',(-1.E0,0.E0,0.E0));
#10=AXIS2_PLACEMENT_3D('',#7,#8,#9);
#12=CARTESIAN_POINT('',(0.E0,0.E0,0.E0));
#13=DIRECTION('',(0.E0,-1.E0,0.E0));
#14=DIRECTION('',(-9.225092250923E-1,0.E0,-3.859750375603E-1));
#15=AXIS2_PLACEMENT_3D('',#12,#13,#14);
#17=DIRECTION('',(0.E0,0.E0,1.E0));
#18=VECTOR('',#17,1.045992351788E1);
#19=CARTESIAN_POINT('',(1.25E1,0.E0,-5.229961758942E0));
#20=LINE('',#19,#18);
#21=CARTESIAN_POINT('',(0.E0,0.E0,0.E0));
#22=DIRECTION('',(0.E0,-1.E0,0.E0));
#23=DIRECTION('',(9.225092250923E-1,0.E0,3.859750375603E-1));
#24=AXIS2_PLACEMENT_3D('',#21,#22,#23);
#26=DIRECTION('',(0.E0,0.E0,-1.E0));
#27=VECTOR('',#26,1.045992351788E1);
#28=CARTESIAN_POINT('',(-1.25E1,0.E0,5.229961758942E0));
#29=LINE('',#28,#27);
#30=DIRECTION('',(0.E0,1.E0,0.E0));
#31=VECTOR('',#30,8.E-1);
#32=CARTESIAN_POINT('',(3.E1,0.E0,0.E0));
#33=LINE('',#32,#31);
#34=DIRECTION('',(0.E0,1.E0,0.E0));
#35=VECTOR('',#34,8.E-1);
#36=CARTESIAN_POINT('',(-3.E1,0.E0,0.E0));
#37=LINE('',#36,#35);
#38=CARTESIAN_POINT('',(0.E0,8.E-1,0.E0));
#39=DIRECTION('',(0.E0,1.E0,0.E0));
#40=DIRECTION('',(1.E0,0.E0,0.E0));
#41=AXIS2_PLACEMENT_3D('',#38,#39,#40);
#43=CARTESIAN_POINT('',(0.E0,8.E-1,0.E0));
#44=DIRECTION('',(0.E0,1.E0,0.E0));
#45=DIRECTION('',(-1.E0,0.E0,0.E0));
#46=AXIS2_PLACEMENT_3D('',#43,#44,#45);
#48=CARTESIAN_POINT('',(0.E0,8.E-1,0.E0));
#49=DIRECTION('',(0.E0,-1.E0,0.E0));
#50=DIRECTION('',(-9.225092250923E-1,0.E0,-3.859750375603E-1));
#51=AXIS2_PLACEMENT_3D('',#48,#49,#50);
#53=DIRECTION('',(0.E0,0.E0,-1.E0));
#54=VECTOR('',#53,1.045992351788E1);
#55=CARTESIAN_POINT('',(-1.25E1,8.E-1,5.229961758942E0));
#56=LINE('',#55,#54);
#57=CARTESIAN_POINT('',(0.E0,8.E-1,0.E0));
#58=DIRECTION('',(0.E0,-1.E0,0.E0));
#59=DIRECTION('',(9.225092250923E-1,0.E0,3.859750375603E-1));
#60=AXIS2_PLACEMENT_3D('',#57,#58,#59);
#62=DIRECTION('',(0.E0,0.E0,1.E0));
#63=VECTOR('',#62,1.045992351788E1);
#64=CARTESIAN_POINT('',(1.25E1,8.E-1,-5.229961758942E0));
#65=LINE('',#64,#63);
#66=DIRECTION('',(0.E0,1.E0,0.E0));
#67=VECTOR('',#66,8.E-1);
#68=CARTESIAN_POINT('',(-1.25E1,0.E0,-5.229961758942E0));
#69=LINE('',#68,#67);
#70=DIRECTION('',(0.E0,1.E0,0.E0));
#71=VECTOR('',#70,8.E-1);
#72=CARTESIAN_POINT('',(-1.25E1,0.E0,5.229961758942E0));
#73=LINE('',#72,#71);
#74=DIRECTION('',(0.E0,1.E0,0.E0));
#75=VECTOR('',#74,8.E-1);
#76=CARTESIAN_POINT('',(1.25E1,0.E0,5.229961758942E0));
#77=LINE('',#76,#75);
#78=DIRECTION('',(0.E0,1.E0,0.E0));
#79=VECTOR('',#78,8.E-1);
#80=CARTESIAN_POINT('',(1.25E1,0.E0,-5.229961758942E0));
#81=LINE('',#80,#79);
#82=CARTESIAN_POINT('',(-1.25E1,0.E0,-5.229961758942E0));
#83=CARTESIAN_POINT('',(1.25E1,0.E0,-5.229961758942E0));
#84=VERTEX_POINT('',#82);
#85=VERTEX_POINT('',#83);
#86=CARTESIAN_POINT('',(1.25E1,0.E0,5.229961758942E0));
#87=VERTEX_POINT('',#86);
#88=CARTESIAN_POINT('',(-1.25E1,0.E0,5.229961758942E0));
#89=VERTEX_POINT('',#88);
#90=CARTESIAN_POINT('',(-1.25E1,8.E-1,-5.229961758942E0));
#91=CARTESIAN_POINT('',(1.25E1,8.E-1,-5.229961758942E0));
#92=VERTEX_POINT('',#90);
#93=VERTEX_POINT('',#91);
#94=CARTESIAN_POINT('',(1.25E1,8.E-1,5.229961758942E0));
#95=VERTEX_POINT('',#94);
#96=CARTESIAN_POINT('',(-1.25E1,8.E-1,5.229961758942E0));
#97=VERTEX_POINT('',#96);
#98=CARTESIAN_POINT('',(3.E1,0.E0,0.E0));
#99=CARTESIAN_POINT('',(-3.E1,0.E0,0.E0));
#100=VERTEX_POINT('',#98);
#101=VERTEX_POINT('',#99);
#102=CARTESIAN_POINT('',(3.E1,8.E-1,0.E0));
#103=CARTESIAN_POINT('',(-3.E1,8.E-1,0.E0));
#104=VERTEX_POINT('',#102);
#105=VERTEX_POINT('',#103);
#106=CARTESIAN_POINT('',(0.E0,0.E0,0.E0));
#107=DIRECTION('',(0.E0,1.E0,0.E0));
#108=DIRECTION('',(1.E0,0.E0,0.E0));
#109=AXIS2_PLACEMENT_3D('',#106,#107,#108);
#110=PLANE('',#109);
#112=ORIENTED_EDGE('',*,*,#111,.T.);
#114=ORIENTED_EDGE('',*,*,#113,.T.);
#115=EDGE_LOOP('',(#112,#114));
#116=FACE_OUTER_BOUND('',#115,.F.);
#118=ORIENTED_EDGE('',*,*,#117,.T.);
#120=ORIENTED_EDGE('',*,*,#119,.T.);
#122=ORIENTED_EDGE('',*,*,#121,.T.);
#124=ORIENTED_EDGE('',*,*,#123,.T.);
#125=EDGE_LOOP('',(#118,#120,#122,#124));
#126=FACE_BOUND('',#125,.F.);
#127=ADVANCED_FACE('',(#116,#126),#110,.F.);
#128=CARTESIAN_POINT('',(0.E0,0.E0,0.E0));
#129=DIRECTION('',(0.E0,1.E0,0.E0));
#130=DIRECTION('',(1.E0,0.E0,0.E0));
#131=AXIS2_PLACEMENT_3D('',#128,#129,#130);
#132=CYLINDRICAL_SURFACE('',#131,3.E1);
#133=ORIENTED_EDGE('',*,*,#111,.F.);
#135=ORIENTED_EDGE('',*,*,#134,.T.);
#137=ORIENTED_EDGE('',*,*,#136,.T.);
#139=ORIENTED_EDGE('',*,*,#138,.F.);
#140=EDGE_LOOP('',(#133,#135,#137,#139));
#141=FACE_OUTER_BOUND('',#140,.F.);
#142=ADVANCED_FACE('',(#141),#132,.T.);
#143=CARTESIAN_POINT('',(0.E0,0.E0,0.E0));
#144=DIRECTION('',(0.E0,1.E0,0.E0));
#145=DIRECTION('',(1.E0,0.E0,0.E0));
#146=AXIS2_PLACEMENT_3D('',#143,#144,#145);
#147=CYLINDRICAL_SURFACE('',#146,3.E1);
#148=ORIENTED_EDGE('',*,*,#113,.F.);
#149=ORIENTED_EDGE('',*,*,#138,.T.);
#151=ORIENTED_EDGE('',*,*,#150,.T.);
#152=ORIENTED_EDGE('',*,*,#134,.F.);
#153=EDGE_LOOP('',(#148,#149,#151,#152));
#154=FACE_OUTER_BOUND('',#153,.F.);
#155=ADVANCED_FACE('',(#154),#147,.T.);
#156=CARTESIAN_POINT('',(0.E0,8.E-1,0.E0));
#157=DIRECTION('',(0.E0,1.E0,0.E0));
#158=DIRECTION('',(1.E0,0.E0,0.E0));
#159=AXIS2_PLACEMENT_3D('',#156,#157,#158);
#160=PLANE('',#159);
#161=ORIENTED_EDGE('',*,*,#136,.F.);
#162=ORIENTED_EDGE('',*,*,#150,.F.);
#163=EDGE_LOOP('',(#161,#162));
#164=FACE_OUTER_BOUND('',#163,.F.);
#166=ORIENTED_EDGE('',*,*,#165,.F.);
#168=ORIENTED_EDGE('',*,*,#167,.F.);
#170=ORIENTED_EDGE('',*,*,#169,.F.);
#172=ORIENTED_EDGE('',*,*,#171,.F.);
#173=EDGE_LOOP('',(#166,#168,#170,#172));
#174=FACE_BOUND('',#173,.F.);
#175=ADVANCED_FACE('',(#164,#174),#160,.T.);
#176=CARTESIAN_POINT('',(0.E0,0.E0,0.E0));
#177=DIRECTION('',(0.E0,-1.E0,0.E0));
#178=DIRECTION('',(1.E0,0.E0,0.E0));
#179=AXIS2_PLACEMENT_3D('',#176,#177,#178);
#180=CYLINDRICAL_SURFACE('',#179,1.355E1);
#181=ORIENTED_EDGE('',*,*,#117,.F.);
#183=ORIENTED_EDGE('',*,*,#182,.T.);
#184=ORIENTED_EDGE('',*,*,#165,.T.);
#186=ORIENTED_EDGE('',*,*,#185,.F.);
#187=EDGE_LOOP('',(#181,#183,#184,#186));
#188=FACE_OUTER_BOUND('',#187,.F.);
#189=ADVANCED_FACE('',(#188),#180,.F.);
#190=CARTESIAN_POINT('',(-1.25E1,0.E0,5.229961758942E0));
#191=DIRECTION('',(-1.E0,0.E0,0.E0));
#192=DIRECTION('',(0.E0,0.E0,-1.E0));
#193=AXIS2_PLACEMENT_3D('',#190,#191,#192);
#194=PLANE('',#193);
#195=ORIENTED_EDGE('',*,*,#123,.F.);
#197=ORIENTED_EDGE('',*,*,#196,.T.);
#198=ORIENTED_EDGE('',*,*,#167,.T.);
#199=ORIENTED_EDGE('',*,*,#182,.F.);
#200=EDGE_LOOP('',(#195,#197,#198,#199));
#201=FACE_OUTER_BOUND('',#200,.F.);
#202=ADVANCED_FACE('',(#201),#194,.F.);
#203=CARTESIAN_POINT('',(0.E0,0.E0,0.E0));
#204=DIRECTION('',(0.E0,-1.E0,0.E0));
#205=DIRECTION('',(1.E0,0.E0,0.E0));
#206=AXIS2_PLACEMENT_3D('',#203,#204,#205);
#207=CYLINDRICAL_SURFACE('',#206,1.355E1);
#208=ORIENTED_EDGE('',*,*,#121,.F.);
#210=ORIENTED_EDGE('',*,*,#209,.T.);
#211=ORIENTED_EDGE('',*,*,#169,.T.);
#212=ORIENTED_EDGE('',*,*,#196,.F.);
#213=EDGE_LOOP('',(#208,#210,#211,#212));
#214=FACE_OUTER_BOUND('',#213,.F.);
#215=ADVANCED_FACE('',(#214),#207,.F.);
#216=CARTESIAN_POINT('',(1.25E1,0.E0,-5.229961758942E0));
#217=DIRECTION('',(1.E0,0.E0,0.E0));
#218=DIRECTION('',(0.E0,0.E0,1.E0));
#219=AXIS2_PLACEMENT_3D('',#216,#217,#218);
#220=PLANE('',#219);
#221=ORIENTED_EDGE('',*,*,#119,.F.);
#222=ORIENTED_EDGE('',*,*,#185,.T.);
#223=ORIENTED_EDGE('',*,*,#171,.T.);
#224=ORIENTED_EDGE('',*,*,#209,.F.);
#225=EDGE_LOOP('',(#221,#222,#223,#224));
#226=FACE_OUTER_BOUND('',#225,.F.);
#227=ADVANCED_FACE('',(#226),#220,.F.);
#228=CLOSED_SHELL('',(#127,#142,#155,#175,#189,#202,#215,#227));
#229=MANIFOLD_SOLID_BREP('',#228);
#230=(LENGTH_UNIT()NAMED_UNIT(*)SI_UNIT(.MILLI.,.METRE.));
#231=DIMENSIONAL_EXPONENTS(0.E0,0.E0,0.E0,0.E0,0.E0,0.E0,0.E0);
#232=(NAMED_UNIT(*)PLANE_ANGLE_UNIT()SI_UNIT($,.RADIAN.));
#233=PLANE_ANGLE_MEASURE_WITH_UNIT(PLANE_ANGLE_MEASURE(1.745329251994E-2),#232);
#234=(CONVERSION_BASED_UNIT('DEGREE',#233)NAMED_UNIT(#231)PLANE_ANGLE_UNIT());
#235=(NAMED_UNIT(*)SI_UNIT($,.STERADIAN.)SOLID_ANGLE_UNIT());
#236=UNCERTAINTY_MEASURE_WITH_UNIT(LENGTH_MEASURE(8.919284462741E-3),#230,
'closure',
'Maximum model space distance between geometric entities at asserted connectivities');
#237=(GEOMETRIC_REPRESENTATION_CONTEXT(3)GLOBAL_UNCERTAINTY_ASSIGNED_CONTEXT((
#236))GLOBAL_UNIT_ASSIGNED_CONTEXT((#230,#234,#235))REPRESENTATION_CONTEXT
('ID1','3'));
#239=APPLICATION_CONTEXT(
'CONFIGURATION CONTROLLED 3D DESIGNS OF MECHANICAL PARTS AND ASSEMBLIES');
#240=APPLICATION_PROTOCOL_DEFINITION('international standard',
'config_control_design',1994,#239);
#241=DESIGN_CONTEXT('',#239,'design');
#242=MECHANICAL_CONTEXT('',#239,'mechanical');
#243=PRODUCT('155981301AF6_PRT','155981301AF6_PRT','NOT SPECIFIED',(#242));
#244=PRODUCT_DEFINITION_FORMATION_WITH_SPECIFIED_SOURCE('1','LAST_VERSION',#243,
.MADE.);
#248=PRODUCT_CATEGORY('part','');
#249=PRODUCT_RELATED_PRODUCT_CATEGORY('detail','',(#243));
#250=PRODUCT_CATEGORY_RELATIONSHIP('','',#248,#249);
#251=SECURITY_CLASSIFICATION_LEVEL('unclassified');
#252=SECURITY_CLASSIFICATION('','',#251);
#253=CC_DESIGN_SECURITY_CLASSIFICATION(#252,(#244));
#254=APPROVAL_STATUS('approved');
#255=APPROVAL(#254,'');
#256=CC_DESIGN_APPROVAL(#255,(#252,#244,#245));
#257=CALENDAR_DATE(108,10,7);
#258=COORDINATED_UNIVERSAL_TIME_OFFSET(2,0,.AHEAD.);
#259=LOCAL_TIME(17,2,1.5E1,#258);
#260=DATE_AND_TIME(#257,#259);
#261=APPROVAL_DATE_TIME(#260,#255);
#262=DATE_TIME_ROLE('creation_date');
#263=CC_DESIGN_DATE_AND_TIME_ASSIGNMENT(#260,#262,(#245));
#264=DATE_TIME_ROLE('classification_date');
#265=CC_DESIGN_DATE_AND_TIME_ASSIGNMENT(#260,#264,(#252));
#266=PERSON('UNSPECIFIED','UNSPECIFIED',$,$,$,$);
#267=ORGANIZATION('UNSPECIFIED','UNSPECIFIED','UNSPECIFIED');
#268=PERSON_AND_ORGANIZATION(#266,#267);
#269=APPROVAL_ROLE('approver');
#270=APPROVAL_PERSON_ORGANIZATION(#268,#255,#269);
#271=PERSON_AND_ORGANIZATION_ROLE('creator');
#272=CC_DESIGN_PERSON_AND_ORGANIZATION_ASSIGNMENT(#268,#271,(#244,#245));
#273=PERSON_AND_ORGANIZATION_ROLE('design_supplier');
#274=CC_DESIGN_PERSON_AND_ORGANIZATION_ASSIGNMENT(#268,#273,(#244));
#275=PERSON_AND_ORGANIZATION_ROLE('classification_officer');
#276=CC_DESIGN_PERSON_AND_ORGANIZATION_ASSIGNMENT(#268,#275,(#252));
#277=PERSON_AND_ORGANIZATION_ROLE('design_owner');
#278=CC_DESIGN_PERSON_AND_ORGANIZATION_ASSIGNMENT(#268,#277,(#243));
#6=CIRCLE('',#5,3.E1);
#11=CIRCLE('',#10,3.E1);
#16=CIRCLE('',#15,1.355E1);
#25=CIRCLE('',#24,1.355E1);
#42=CIRCLE('',#41,3.E1);
#47=CIRCLE('',#46,3.E1);
#52=CIRCLE('',#51,1.355E1);
#61=CIRCLE('',#60,1.355E1);
#111=EDGE_CURVE('',#100,#101,#6,.T.);
#113=EDGE_CURVE('',#101,#100,#11,.T.);
#117=EDGE_CURVE('',#84,#85,#16,.T.);
#119=EDGE_CURVE('',#85,#87,#20,.T.);
#121=EDGE_CURVE('',#87,#89,#25,.T.);
#123=EDGE_CURVE('',#89,#84,#29,.T.);
#134=EDGE_CURVE('',#100,#104,#33,.T.);
#136=EDGE_CURVE('',#104,#105,#42,.T.);
#138=EDGE_CURVE('',#101,#105,#37,.T.);
#150=EDGE_CURVE('',#105,#104,#47,.T.);
#165=EDGE_CURVE('',#92,#93,#52,.T.);
#167=EDGE_CURVE('',#97,#92,#56,.T.);
#169=EDGE_CURVE('',#95,#97,#61,.T.);
#171=EDGE_CURVE('',#93,#95,#65,.T.);
#182=EDGE_CURVE('',#84,#92,#69,.T.);
#185=EDGE_CURVE('',#85,#93,#81,.T.);
#196=EDGE_CURVE('',#89,#97,#73,.T.);
#209=EDGE_CURVE('',#87,#95,#77,.T.);
#238=ADVANCED_BREP_SHAPE_REPRESENTATION('',(#229),#237);
#245=PRODUCT_DEFINITION('design','',#244,#241);
#246=PRODUCT_DEFINITION_SHAPE('','SHAPE FOR 155981301AF6_PRT.',#245);
#247=SHAPE_DEFINITION_REPRESENTATION(#246,#238);
ENDSEC;
END-ISO-10303-21;
