999
DXF file: C:\Users\sesa63760\Dev\_Creo\CAD\MCADID0005418_3D-CAD\drw0001_1.dxf
999
Pro/ENGINEER 2019471 by Parametric Technology Corporation
  0
SECTION
  2
HEADER
  9
$ACADVER
  1
AC1024
  9
$DWGCODEPAGE
  3
ANSI_1252
  9
$EXTMAX
 10
117.6494197733
 20
166.3898936793
 30
0.0
  9
$EXTMIN
 10
0.0
 20
0.0
 30
0.0
  9
$LIMMIN
 10
0.0
 20
0.0
  9
$LIMMAX
 10
117.6494197733
 20
166.3898936793
  9
$VIEWCTR
 10
58.8247098866
 20
83.1949468397
  9
$VIEWSIZE
 40
166.3898936793
  9
$CLAYER
  8
0
  9
$LTSCALE
 40
10.8461560324
  9
$CELTYPE
  6
BYLAYER
  9
$DIMSCALE
 40
1.0
  9
$DIMASZ
 40
1.4005883306
  9
$DIMEXO
 40
1.0
  9
$DIMDLI
 40
7.4937078042
  9
$DIMEXE
 40
1.0
  9
$DIMCEN
 40
1.7748255326
  9
$DIMLFAC
 40
1.0
  9
$DIMBLK
  1
_FILLED
  9
$DIMALT
 70
0
  9
$DIMALTF
 40
0.0393700787
  9
$DIMTXT
 40
1.9608236629
  9
$DIMTOL
 70
1
  9
$DIMLIM
 70
0
  9
$DIMTFAC
 40
1.0
  9
$DIMTP
 40
0.01
  9
$DIMTM
 40
0.01
  9
$DIMGAP
 40
0.625
  9
$DIMDSEP
 70
46
  9
$AUNITS
 70
0
  9
$PDMODE
 70
3
  9
$PDSIZE
 40
0.3125
  9
$HANDSEED
  5
421
  9
$TILEMODE
 70
1
  9
$MEASUREMENT
 70
1
  9
$INSUNITS
 70
4
  0
ENDSEC
  0
SECTION
  2
CLASSES
  0
CLASS
  1
ACDBDICTIONARYWDFLT
  2
AcDbDictionaryWithDefault
  3
AutoCAD 2000
 90
0
 91
1
280
0
281
0
  0
CLASS
  1
ACDBPLACEHOLDER
  2
AcDbPlaceHolder
  3
AutoCAD 2000
 90
0
 91
1
280
0
281
0
  0
CLASS
  1
LAYOUT
  2
AcDbLayout
  3
AutoCAD 2000
 90
0
 91
0
280
0
281
0
  0
ENDSEC
  0
SECTION
  2
TABLES
  0
TABLE
  2
VPORT
  5
8
100
AcDbSymbolTable
 70
2
  0
VPORT
  5
1F4
100
AcDbSymbolTableRecord
100
AcDbViewportTableRecord
  2
*ACTIVE
 70
0
 10
0.0
 20
0.0
 11
1.0
 21
1.0
 12
58.8247098866
 22
83.1949468397
 13
0.0
 23
0.0
 14
1.0
 24
1.0
 15
0.0
 25
0.0
 16
0.0
 26
0.0
 36
1.0
 17
0.0
 27
0.0
 37
0.0
 40
166.3898936793
 41
0.7070707071
 42
50.0
 43
0.0
 44
0.0
 50
0.0
 51
0.0
 71
0
 72
100
 73
1
 74
1
 75
0
 76
0
 77
0
 78
0
  0
ENDTAB
  0
TABLE
  2
LTYPE
  5
5
100
AcDbSymbolTable
 70
6
  0
LTYPE
  5
14
100
AcDbSymbolTableRecord
100
AcDbLinetypeTableRecord
  2
BYBLOCK
 70
0
  3

 72
65
 73
0
 40
0.0
  0
LTYPE
  5
15
100
AcDbSymbolTableRecord
100
AcDbLinetypeTableRecord
  2
BYLAYER
 70
0
  3

 72
65
 73
0
 40
0.0
  0
LTYPE
  5
16
100
AcDbSymbolTableRecord
100
AcDbLinetypeTableRecord
  2
CONTINUOUS
 70
64
  3
Solid line
 72
65
 73
0
 40
0.0
  0
LTYPE
  5
1F5
100
AcDbSymbolTableRecord
100
AcDbLinetypeTableRecord
  2
CENTER
 70
64
  3
____ _ ____ _ ____ _ ____ _ ____ _ ____ _ ____
 72
65
 73
4
 40
0.6
 49
0.375
 74
0
 49
-0.075
 74
0
 49
0.075
 74
0
 49
-0.075
 74
0
  0
LTYPE
  5
1F6
100
AcDbSymbolTableRecord
100
AcDbLinetypeTableRecord
  2
HIDDEN
 70
64
  3
- - - - - - - - - - - - - - - - - - - -
 72
65
 73
2
 40
0.2
 49
0.1
 74
0
 49
-0.1
 74
0
  0
LTYPE
  5
1F7
100
AcDbSymbolTableRecord
100
AcDbLinetypeTableRecord
  2
PHANTOM
 70
64
  3
_____ _ _ _____ _ _ _____ _ _ _____
 72
65
 73
6
 40
0.8
 49
0.45
 74
0
 49
-0.05
 74
0
 49
0.1
 74
0
 49
-0.05
 74
0
 49
0.1
 74
0
 49
-0.05
 74
0
  0
LTYPE
  5
1F8
100
AcDbSymbolTableRecord
100
AcDbLinetypeTableRecord
  2
DOT
 70
64
  3
. . . . . . . . . . . . . . . . . . . .
 72
65
 73
2
 40
0.2
 49
0.1
 74
0
 49
-0.1
 74
0
  0
LTYPE
  5
1F9
100
AcDbSymbolTableRecord
100
AcDbLinetypeTableRecord
  2
DASHED
 70
64
  3
- - - - - - - - - - - - - - - - - - - -
 72
65
 73
2
 40
0.2
 49
0.1
 74
0
 49
-0.1
 74
0
  0
ENDTAB
  0
TABLE
  2
LAYER
  5
2
100
AcDbSymbolTable
 70
36
  0
LAYER
  5
10
100
AcDbSymbolTableRecord
100
AcDbLayerTableRecord
  2
0
 70
0
 62
7
  6
CONTINUOUS
370
-3
390
F
  0
LAYER
  5
1FA
100
AcDbSymbolTableRecord
100
AcDbLayerTableRecord
  2
DEFAULT_1
 70
0
 62
7
  6
CENTER
370
-3
390
F
  0
LAYER
  5
1FB
100
AcDbSymbolTableRecord
100
AcDbLayerTableRecord
  2
DEFAULT_2
 70
0
 62
7
  6
HIDDEN
370
-3
390
F
  0
LAYER
  5
1FC
100
AcDbSymbolTableRecord
100
AcDbLayerTableRecord
  2
DEFAULT_3
 70
0
 62
7
  6
PHANTOM
370
-3
390
F
  0
LAYER
  5
1FD
100
AcDbSymbolTableRecord
100
AcDbLayerTableRecord
  2
00_COMPONENTS
 70
0
 62
7
  6
CONTINUOUS
370
-3
390
F
  0
LAYER
  5
1FE
100
AcDbSymbolTableRecord
100
AcDbLayerTableRecord
  2
01_1_DEFAULT_DATUMS
 70
0
 62
7
  6
CONTINUOUS
370
-3
390
F
  0
LAYER
  5
1FF
100
AcDbSymbolTableRecord
100
AcDbLayerTableRecord
  2
01_PLANES
 70
0
 62
7
  6
CONTINUOUS
370
-3
390
F
  0
LAYER
  5
200
100
AcDbSymbolTableRecord
100
AcDbLayerTableRecord
  2
02_COORD_SYS
 70
0
 62
7
  6
CONTINUOUS
370
-3
390
F
  0
LAYER
  5
201
100
AcDbSymbolTableRecord
100
AcDbLayerTableRecord
  2
03_AXES
 70
0
 62
7
  6
CONTINUOUS
370
-3
390
F
  0
LAYER
  5
202
100
AcDbSymbolTableRecord
100
AcDbLayerTableRecord
  2
04_POINTS
 70
0
 62
7
  6
CONTINUOUS
370
-3
390
F
  0
LAYER
  5
203
100
AcDbSymbolTableRecord
100
AcDbLayerTableRecord
  2
05_CURVES
 70
0
 62
7
  6
CONTINUOUS
370
-3
390
F
  0
LAYER
  5
204
100
AcDbSymbolTableRecord
100
AcDbLayerTableRecord
  2
06_SURFS
 70
0
 62
7
  6
CONTINUOUS
370
-3
390
F
  0
LAYER
  5
205
100
AcDbSymbolTableRecord
100
AcDbLayerTableRecord
  2
07_COSMETICS
 70
0
 62
7
  6
CONTINUOUS
370
-3
390
F
  0
LAYER
  5
206
100
AcDbSymbolTableRecord
100
AcDbLayerTableRecord
  2
10_NOTES
 70
0
 62
7
  6
CONTINUOUS
370
-3
390
F
  0
LAYER
  5
207
100
AcDbSymbolTableRecord
100
AcDbLayerTableRecord
  2
11_NOTES_PUB
 70
0
 62
7
  6
CONTINUOUS
370
-3
390
F
  0
LAYER
  5
208
100
AcDbSymbolTableRecord
100
AcDbLayerTableRecord
  2
13_REF_GTOL
 70
0
 62
7
  6
CONTINUOUS
370
-3
390
F
  0
LAYER
  5
209
100
AcDbSymbolTableRecord
100
AcDbLayerTableRecord
  2
16_MISC
 70
0
 62
7
  6
CONTINUOUS
370
-3
390
F
  0
LAYER
  5
20A
100
AcDbSymbolTableRecord
100
AcDbLayerTableRecord
  2
17_NO_PRINT
 70
0
 62
7
  6
CONTINUOUS
370
-3
390
F
  0
LAYER
  5
20B
100
AcDbSymbolTableRecord
100
AcDbLayerTableRecord
  2
18_DATUM_CAMS_JOINTS
 70
0
 62
7
  6
CONTINUOUS
370
-3
390
F
  0
LAYER
  5
20C
100
AcDbSymbolTableRecord
100
AcDbLayerTableRecord
  2
19_DATUM_FUNCTIONAL
 70
0
 62
7
  6
CONTINUOUS
370
-3
390
F
  0
LAYER
  5
20D
100
AcDbSymbolTableRecord
100
AcDbLayerTableRecord
  2
20_DATUM_KINEMATIC_SCHEME
 70
0
 62
7
  6
CONTINUOUS
370
-3
390
F
  0
ENDTAB
  0
TABLE
  2
STYLE
  5
3
100
AcDbSymbolTable
 70
1
  0
STYLE
  5
11
100
AcDbSymbolTableRecord
100
AcDbTextStyleTableRecord
  2
STANDARD
 70
0
 40
0.0
 41
1.0
 50
0.0
 71
0
 42
0.2
  3
ARIAL.TTF
  4

  0
STYLE
  5
20E
100
AcDbSymbolTableRecord
100
AcDbTextStyleTableRecord
  2
TEXTSTYLE_1
 70
0
 40
0.0
 41
0.8
 50
0.0
 71
0
 42
0.2
  3
gdt
  4

  0
ENDTAB
  0
TABLE
  2
VIEW
  5
6
100
AcDbSymbolTable
 70
0
  0
ENDTAB
  0
TABLE
  2
UCS
  5
7
100
AcDbSymbolTable
 70
0
  0
ENDTAB
  0
TABLE
  2
APPID
  5
9
100
AcDbSymbolTable
 70
1
  0
APPID
  5
20F
100
AcDbSymbolTableRecord
100
AcDbRegAppTableRecord
  2
ACAD
 70
0
  0
ENDTAB
  0
TABLE
  2
BLOCK_RECORD
  5
1
100
AcDbSymbolTable
 70
0
  0
BLOCK_RECORD
  5
210
100
AcDbSymbolTableRecord
100
AcDbBlockTableRecord
  2
*Model_Space
  0
BLOCK_RECORD
  5
211
100
AcDbSymbolTableRecord
100
AcDbBlockTableRecord
  2
*Paper_Space
  0
BLOCK_RECORD
  5
212
100
AcDbSymbolTableRecord
100
AcDbBlockTableRecord
  2
_FILLED
  0
ENDTAB
  0
TABLE
  2
DIMSTYLE
  5
A
100
AcDbSymbolTable
 70
1
100
AcDbDimStyleTable
 71
0
  0
DIMSTYLE
105
213
100
AcDbSymbolTableRecord
100
AcDbDimStyleTableRecord
  2
STANDARD
 70
0
  3

  4

 40
1.0
 41
1.4005883306
 42
1.0
 43
0.38
 44
1.0
 45
0.0
 46
0.0
 47
0.01
 48
0.01
140
1.9608236629
141
0.09
142
0.0
143
25.4
144
1.0
145
0.0
146
1.0
147
0.625
 71
1
 72
0
 73
0
 74
0
 75
0
 76
0
 77
1
 78
8
 79
2
170
0
171
1
172
0
173
0
174
0
175
0
176
0
177
0
178
0
270
2
179
2
271
2
272
2
273
2
274
2
275
0
280
0
281
0
282
0
283
1
284
8
285
0
286
0
287
3
288
0
340
11
278
46
341
212
342
212
343
212
344
212
  0
ENDTAB
  0
ENDSEC
  0
SECTION
  2
BLOCKS
  0
BLOCK
  5
20
100
AcDbEntity
  8
0
100
AcDbBlockBegin
  2
*Model_Space
 70
0
 10
0.0
 20
0.0
 30
0.0
  3
*Model_Space
  1

  0
ENDBLK
  5
21
100
AcDbEntity
  8
0
100
AcDbBlockEnd
  0
BLOCK
  5
1C
100
AcDbEntity
  8
0
100
AcDbBlockBegin
  2
*Paper_Space
 70
0
 10
0.0
 20
0.0
 30
0.0
  3
*Paper_Space
  1

  0
ENDBLK
  5
1D
100
AcDbEntity
  8
0
100
AcDbBlockEnd
  0
BLOCK
  5
214
100
AcDbEntity
  8
0
100
AcDbBlockBegin
  2
_FILLED
 70
64
 10
0.0
 20
0.0
  3
_FILLED
  1

  0
SOLID
  5
215
100
AcDbEntity
  8
0
  6
BYBLOCK
 62
0
100
AcDbTrace
 10
0.0
 20
0.0
 11
-1.0
 21
0.25
 12
-1.0
 22
-0.25
 13
-1.0
 23
-0.25
  0
ENDBLK
  5
216
100
AcDbEntity
  8
0
  6
BYBLOCK
 62
0
100
AcDbBlockEnd
  0
ENDSEC
  0
SECTION
  2
ENTITIES
  0
LINE
  5
217
100
AcDbEntity
  8
0
100
AcDbLine
 62
7
  6
BYLAYER
 10
56.0837453369
 20
140.5324707371
 11
52.2557747476
 21
138.3224040792
  0
LINE
  5
218
100
AcDbEntity
  8
0
100
AcDbLine
 62
7
  6
BYLAYER
 10
48.7298037523
 20
135.6333203369
 11
42.1182284952
 21
131.8163003005
  0
LINE
  5
219
100
AcDbEntity
  8
0
100
AcDbLine
 62
7
  6
BYLAYER
 10
54.1745726307
 20
138.3687811137
 11
55.9423322237
 21
139.3893914983
  0
LINE
  5
21A
100
AcDbEntity
  8
0
100
AcDbLine
 62
7
  6
BYLAYER
 10
48.659149994
 20
135.1028227779
 11
48.3055980754
 21
134.898700701
  0
LINE
  5
21B
100
AcDbEntity
  8
0
100
AcDbLine
 62
7
  6
BYLAYER
 10
57.215129729
 20
138.6545581028
 11
55.4473701359
 21
137.6339477181
  0
LINE
  5
21C
100
AcDbEntity
  8
0
100
AcDbLine
 62
7
  6
BYLAYER
 10
51.4168582069
 20
137.4298107665
 11
48.769462105
 21
135.0391354885
  0
LINE
  5
21D
100
AcDbEntity
  8
0
100
AcDbLine
 62
7
  6
BYLAYER
 10
56.8615895862
 20
136.8174661676
 11
58.6293491793
 21
137.8380765523
  0
LINE
  5
21E
100
AcDbEntity
  8
0
100
AcDbLine
 62
7
  6
BYLAYER
 10
48.3055827383
 20
131.4284935311
 11
45.5477592372
 21
129.8363355488
  0
LINE
  5
21F
100
AcDbEntity
  8
0
100
AcDbLine
 62
7
  6
BYLAYER
 10
59.9021466845
 20
137.1032431568
 11
58.1343870915
 21
136.0826327721
  0
LINE
  5
220
100
AcDbEntity
  8
0
100
AcDbLine
 62
7
  6
BYLAYER
 10
49.476221718
 20
129.5324417375
 11
48.7298013574
 21
129.1014928976
  0
LINE
  5
221
100
AcDbEntity
  8
0
100
AcDbLine
 62
7
  6
BYLAYER
 10
59.5486065418
 20
135.2661512215
 11
61.3163661348
 21
136.2867616062
  0
LINE
  5
222
100
AcDbEntity
  8
0
100
AcDbLine
 62
7
  6
BYLAYER
 10
51.2041249564
 20
129.1427403754
 11
50.9922796398
 21
129.020433397
  0
LINE
  5
223
100
AcDbEntity
  8
0
100
AcDbLine
 62
7
  6
BYLAYER
 10
62.5891636401
 20
135.5519282106
 11
60.821404047
 21
134.5313178259
  0
LINE
  5
224
100
AcDbEntity
  8
0
100
AcDbLine
 62
7
  6
BYLAYER
 10
64.6451367951
 20
34.313859682
 11
64.272600734
 21
34.4274633436
  0
LINE
  5
225
100
AcDbEntity
  8
0
100
AcDbLine
 62
7
  6
BYLAYER
 10
22.0891249586
 20
110.6590217448
 11
21.7397469699
 21
102.7594768245
  0
LINE
  5
226
100
AcDbEntity
  8
0
100
AcDbLine
 62
7
  6
BYLAYER
 10
16.5826713293
 20
99.6782151955
 11
16.4632511826
 21
99.5550935594
  0
LINE
  5
227
100
AcDbEntity
  8
0
100
AcDbLine
 62
7
  6
BYLAYER
 10
51.1672928773
 20
129.1640049051
 11
50.9922803676
 21
129.0204321365
  0
LINE
  5
228
100
AcDbEntity
  8
0
100
AcDbLine
 62
7
  6
BYLAYER
 10
64.5690620386
 20
135.6335814336
 11
60.5306139892
 21
133.3019962828
  0
LINE
  5
229
100
AcDbEntity
  8
0
100
AcDbLine
 62
7
  6
BYLAYER
 10
35.7542601987
 20
118.5482643302
 11
22.0891249586
 21
110.6590217448
  0
LINE
  5
22A
100
AcDbEntity
  8
0
100
AcDbLine
 62
7
  6
BYLAYER
 10
57.1444666958
 20
130.2039334744
 11
56.7909147771
 21
129.9998113975
  0
LINE
  5
22B
100
AcDbEntity
  8
0
100
AcDbLine
 62
7
  6
BYLAYER
 10
53.891141912
 20
127.5914254293
 11
53.6792965953
 21
127.4691184509
  0
LINE
  5
22C
100
AcDbEntity
  8
0
100
AcDbLine
 62
7
  6
BYLAYER
 10
26.8165179242
 20
109.1831540612
 11
38.3000741194
 21
115.8129135897
  0
LINE
  5
22D
100
AcDbEntity
  8
0
100
AcDbLine
 62
7
  6
BYLAYER
 10
57.911958609
 20
42.6521788625
 11
57.3297559925
 21
42.6785619208
  0
LINE
  5
22E
100
AcDbEntity
  8
0
100
AcDbLine
 62
7
  6
BYLAYER
 10
64.272583934
 20
34.4274342755
 11
14.7043426523
 21
63.0460204293
  0
LINE
  5
22F
100
AcDbEntity
  8
0
100
AcDbLine
 62
7
  6
BYLAYER
 10
71.6572094057
 20
30.1926226539
 11
64.3780190607
 21
34.3953163673
  0
LINE
  5
230
100
AcDbEntity
  8
0
100
AcDbLine
 62
7
  6
BYLAYER
 10
63.7616517569
 20
35.3962829722
 11
14.193386789
 21
64.0148828014
  0
LINE
  5
231
100
AcDbEntity
  8
0
100
AcDbLine
 62
7
  6
BYLAYER
 10
17.3375971373
 20
86.5009917979
 11
17.6892241755
 21
87.0022148078
  0
LINE
  5
232
100
AcDbEntity
  8
0
100
AcDbLine
 62
7
  6
BYLAYER
 10
57.1444666922
 20
130.0406311538
 11
59.9021749086
 21
132.530921463
  0
LINE
  5
233
100
AcDbEntity
  8
0
100
AcDbLine
 62
7
  6
BYLAYER
 10
53.8543098329
 20
127.612689959
 11
53.6792942969
 21
127.4691224301
  0
LINE
  5
234
100
AcDbEntity
  8
0
100
AcDbLine
 62
7
  6
BYLAYER
 10
21.7397469699
 20
102.7594768245
 11
16.5826713293
 21
99.6782151955
  0
LINE
  5
235
100
AcDbEntity
  8
0
100
AcDbLine
 62
7
  6
BYLAYER
 10
56.7908909599
 20
124.6108735384
 11
58.2050957619
 21
125.4273601877
  0
LINE
  5
236
100
AcDbEntity
  8
0
100
AcDbLine
 62
7
  6
BYLAYER
 10
63.7205085646
 20
128.6116289303
 11
64.5690618947
 21
129.1015384995
  0
LINE
  5
237
100
AcDbEntity
  8
0
100
AcDbLine
 62
7
  6
BYLAYER
 10
58.2050957475
 20
124.7741640672
 11
57.2151180592
 21
124.2026035941
  0
LINE
  5
238
100
AcDbEntity
  8
0
100
AcDbLine
 62
7
  6
BYLAYER
 10
29.0087548613
 20
107.9174500533
 11
38.7526107376
 21
113.5430342862
  0
LINE
  5
239
100
AcDbEntity
  8
0
100
AcDbLine
 62
7
  6
BYLAYER
 10
38.0493783184
 20
112.728781119
 11
29.5563953239
 21
107.8253843702
  0
LINE
  5
23A
100
AcDbEntity
  8
0
100
AcDbLine
 62
7
  6
BYLAYER
 10
36.8080787127
 20
111.6855211836
 11
36.2423956429
 21
111.3589258605
  0
LINE
  5
23B
100
AcDbEntity
  8
0
100
AcDbLine
 62
7
  6
BYLAYER
 10
35.0403191196
 20
110.6649107989
 11
34.4746360499
 21
110.3383154758
  0
LINE
  5
23C
100
AcDbEntity
  8
0
100
AcDbLine
 62
7
  6
BYLAYER
 10
33.2725595266
 20
109.6443004142
 11
32.7068764568
 21
109.3177050911
  0
LINE
  5
23D
100
AcDbEntity
  8
0
100
AcDbLine
 62
7
  6
BYLAYER
 10
31.5047999336
 20
108.6236900295
 11
30.9391168638
 21
108.2970947065
  0
LINE
  5
23E
100
AcDbEntity
  8
0
100
AcDbLine
 62
7
  6
BYLAYER
 10
69.943008386
 20
129.9181745589
 11
63.2962497729
 21
126.0806681902
  0
LINE
  5
23F
100
AcDbEntity
  8
0
100
AcDbLine
 62
7
  6
BYLAYER
 10
62.5891107261
 20
125.5089004769
 11
60.6092199819
 21
124.3658168461
  0
LINE
  5
240
100
AcDbEntity
  8
0
100
AcDbLine
 62
7
  6
BYLAYER
 10
60.0435369121
 20
124.039221523
 11
59.05359154
 21
123.4676797076
  0
LINE
  5
241
100
AcDbEntity
  8
0
100
AcDbLine
 62
7
  6
BYLAYER
 10
40.449674078
 20
112.5632564255
 11
40.0254117757
 21
112.3183099332
  0
LINE
  5
242
100
AcDbEntity
  8
0
100
AcDbLine
 62
7
  6
BYLAYER
 10
60.3970917747
 20
123.8351011353
 11
59.7606983212
 21
123.4676813968
  0
LINE
  5
243
100
AcDbEntity
  8
0
100
AcDbLine
 62
7
  6
BYLAYER
 10
60.9627748444
 20
124.1616964584
 11
61.9943873336
 21
124.7572946515
  0
LINE
  5
244
100
AcDbEntity
  8
0
100
AcDbLine
 62
7
  6
BYLAYER
 10
60.043579347
 20
123.5495601232
 11
59.3364487562
 21
123.1412982464
  0
LINE
  5
245
100
AcDbEntity
  8
0
100
AcDbLine
 62
7
  6
BYLAYER
 10
66.4075088897
 20
127.0604631183
 11
68.6702411689
 21
128.3668444107
  0
LINE
  5
246
100
AcDbEntity
  8
0
100
AcDbLine
 62
7
  6
BYLAYER
 10
40.3082556585
 20
111.8284126583
 11
40.7325179609
 21
112.0733591507
  0
LINE
  5
247
100
AcDbEntity
  8
0
100
AcDbLine
 62
7
  6
BYLAYER
 10
41.4396276932
 20
111.9917193401
 11
41.0153653909
 21
111.7467728478
  0
LINE
  5
248
100
AcDbEntity
  8
0
100
AcDbLine
 62
7
  6
BYLAYER
 10
40.3082556567
 20
111.3385112112
 11
40.7325179591
 21
111.5834577035
  0
LINE
  5
249
100
AcDbEntity
  8
0
100
AcDbLine
 62
7
  6
BYLAYER
 10
43.2497698269
 20
112.95517062
 11
31.7662136317
 21
106.3254110915
  0
LINE
  5
24A
100
AcDbEntity
  8
0
100
AcDbLine
 62
7
  6
BYLAYER
 10
52.7505724246
 20
45.9032305454
 11
52.4316006684
 21
45.9241452605
  0
LINE
  5
24B
100
AcDbEntity
  8
0
100
AcDbLine
 62
7
  6
BYLAYER
 10
83.7318302303
 20
26.2634995589
 11
76.660713262
 21
30.345894217
  0
LINE
  5
24C
100
AcDbEntity
  8
0
100
AcDbLine
 62
7
  6
BYLAYER
 10
87.6381627183
 20
27.8656416387
 11
87.3522460843
 21
28.0307109685
  0
LINE
  5
24D
100
AcDbEntity
  8
0
100
AcDbLine
 62
7
  6
BYLAYER
 10
30.8866102585
 20
106.8332565237
 11
30.8866102777
 21
107.7051489739
  0
LINE
  5
24E
100
AcDbEntity
  8
0
100
AcDbLine
 62
7
  6
BYLAYER
 10
30.9391168528
 20
107.8002856208
 11
30.9391168638
 21
108.2970947064
  0
LINE
  5
24F
100
AcDbEntity
  8
0
100
AcDbLine
 62
7
  6
BYLAYER
 10
24.0605145855
 20
84.4476538407
 11
24.2353600414
 21
84.7960614056
  0
LINE
  5
250
100
AcDbEntity
  8
0
100
AcDbLine
 62
7
  6
BYLAYER
 10
40.9447153112
 20
111.6244019209
 11
41.0153653909
 21
111.7467728478
  0
LINE
  5
251
100
AcDbEntity
  8
0
100
AcDbLine
 62
7
  6
BYLAYER
 10
63.2962497545
 20
125.8357174757
 11
60.3340068104
 21
123.3818864482
  0
LINE
  5
252
100
AcDbEntity
  8
0
100
AcDbLine
 62
7
  6
BYLAYER
 10
67.9631970048
 20
126.1623063287
 11
68.6702331337
 21
126.5705072456
  0
LINE
  5
253
100
AcDbEntity
  8
0
100
AcDbLine
 62
7
  6
BYLAYER
 10
70.7915703443
 20
127.1421219336
 11
68.5288380652
 21
125.8357406412
  0
LINE
  5
254
100
AcDbEntity
  8
0
100
AcDbLine
 62
7
  6
BYLAYER
 10
69.9430673739
 20
125.0192646816
 11
72.2058055681
 21
126.325649389
  0
LINE
  5
255
100
AcDbEntity
  8
0
100
AcDbLine
 62
7
  6
BYLAYER
 10
71.498755489
 20
124.121107892
 11
72.2057975329
 21
124.5293122239
  0
LINE
  5
256
100
AcDbEntity
  8
0
100
AcDbLine
 62
7
  6
BYLAYER
 10
76.6959433546
 20
127.1214863105
 11
75.7415573432
 21
126.570474579
  0
LINE
  5
257
100
AcDbEntity
  8
0
100
AcDbLine
 62
7
  6
BYLAYER
 10
74.3271347435
 20
125.100926912
 11
72.0643965493
 21
123.7945422045
  0
LINE
  5
258
100
AcDbEntity
  8
0
100
AcDbLine
 62
7
  6
BYLAYER
 10
17.9546965618
 20
70.9378883097
 11
20.2869981583
 21
69.5935761867
  0
LINE
  5
259
100
AcDbEntity
  8
0
100
AcDbLine
 62
7
  6
BYLAYER
 10
19.059793272
 20
71.5759123843
 11
21.392102071
 21
70.2316044197
  0
LINE
  5
25A
100
AcDbEntity
  8
0
100
AcDbLine
 62
7
  6
BYLAYER
 10
78.2409932828
 20
33.9937917558
 11
85.7136548521
 21
29.6793960179
  0
LINE
  5
25B
100
AcDbEntity
  8
0
100
AcDbLine
 62
7
  6
BYLAYER
 10
54.5116353643
 20
49.8344196948
 11
56.8441447153
 21
48.4855628891
  0
LINE
  5
25C
100
AcDbEntity
  8
0
100
AcDbLine
 62
7
  6
BYLAYER
 10
55.6161326322
 20
50.4720976833
 11
57.9485520954
 21
49.1231889812
  0
LINE
  5
25D
100
AcDbEntity
  8
0
100
AcDbLine
 62
7
  6
BYLAYER
 10
31.4866102509
 20
106.4868421457
 11
31.4866102777
 21
107.7051489607
  0
LINE
  5
25E
100
AcDbEntity
  8
0
100
AcDbLine
 62
7
  6
BYLAYER
 10
31.5047999336
 20
108.6236900295
 11
31.5048022486
 21
106.4763388629
  0
LINE
  5
25F
100
AcDbEntity
  8
0
100
AcDbLine
 62
7
  6
BYLAYER
 10
32.6543698292
 20
106.838167063
 11
32.6543698708
 21
108.7257593586
  0
LINE
  5
260
100
AcDbEntity
  8
0
100
AcDbLine
 62
7
  6
BYLAYER
 10
32.7068764459
 20
108.8208960054
 11
32.7068764568
 21
109.3177050911
  0
LINE
  5
261
100
AcDbEntity
  8
0
100
AcDbLine
 62
7
  6
BYLAYER
 10
33.2543698368
 20
107.1845628746
 11
33.2543698708
 21
108.7257593454
  0
LINE
  5
262
100
AcDbEntity
  8
0
100
AcDbLine
 62
7
  6
BYLAYER
 10
33.2725595266
 20
109.6443004142
 11
33.272561835
 21
107.1950655944
  0
LINE
  5
263
100
AcDbEntity
  8
0
100
AcDbLine
 62
7
  6
BYLAYER
 10
34.4221294222
 20
107.8587412481
 11
34.4221294638
 21
109.7463697433
  0
LINE
  5
264
100
AcDbEntity
  8
0
100
AcDbLine
 62
7
  6
BYLAYER
 10
34.4746360389
 20
109.8415063901
 11
34.4746360499
 21
110.3383154758
  0
LINE
  5
265
100
AcDbEntity
  8
0
100
AcDbLine
 62
7
  6
BYLAYER
 10
35.0221294298
 20
108.2051370597
 11
35.0221294638
 21
109.7463697301
  0
LINE
  5
266
100
AcDbEntity
  8
0
100
AcDbLine
 62
7
  6
BYLAYER
 10
35.0403191196
 20
110.6649107989
 11
35.040321428
 21
108.2156397795
  0
LINE
  5
267
100
AcDbEntity
  8
0
100
AcDbLine
 62
7
  6
BYLAYER
 10
36.1458917637
 20
127.4031223293
 11
35.7542601987
 21
118.5482643302
  0
LINE
  5
268
100
AcDbEntity
  8
0
100
AcDbLine
 62
7
  6
BYLAYER
 10
73.478625858
 20
122.9780662449
 11
75.7413640522
 21
124.2844509523
  0
LINE
  5
269
100
AcDbEntity
  8
0
100
AcDbLine
 62
7
  6
BYLAYER
 10
75.0343139731
 20
122.0799094553
 11
75.741356017
 21
122.4881137872
  0
LINE
  5
26A
100
AcDbEntity
  8
0
100
AcDbLine
 62
7
  6
BYLAYER
 10
77.8626869182
 20
123.0597321179
 11
75.599948724
 21
121.7533474105
  0
LINE
  5
26B
100
AcDbEntity
  8
0
100
AcDbLine
 62
7
  6
BYLAYER
 10
18.6016784136
 20
87.5291154507
 11
17.6891860859
 21
87.0022909044
  0
LINE
  5
26C
100
AcDbEntity
  8
0
100
AcDbLine
 62
7
  6
BYLAYER
 10
77.0141843422
 20
120.9368678082
 11
79.2769225364
 21
122.2432525156
  0
LINE
  5
26D
100
AcDbEntity
  8
0
100
AcDbLine
 62
7
  6
BYLAYER
 10
18.3402448211
 20
87.0156276965
 11
19.2363594816
 21
87.5329966487
  0
LINE
  5
26E
100
AcDbEntity
  8
0
100
AcDbLine
 62
7
  6
BYLAYER
 10
29.5563953239
 20
107.8253843702
 11
29.5952164217
 21
107.5788521879
  0
LINE
  5
26F
100
AcDbEntity
  8
0
100
AcDbLine
 62
7
  6
BYLAYER
 10
36.1898890152
 20
108.8793154332
 11
36.1898890568
 21
110.766980128
  0
LINE
  5
270
100
AcDbEntity
  8
0
100
AcDbLine
 62
7
  6
BYLAYER
 10
36.2423956319
 20
110.8621167748
 11
36.2423956429
 21
111.3589258605
  0
LINE
  5
271
100
AcDbEntity
  8
0
100
AcDbLine
 62
7
  6
BYLAYER
 10
36.7898890229
 20
109.2257112448
 11
36.7898890568
 21
110.7669801148
  0
LINE
  5
272
100
AcDbEntity
  8
0
100
AcDbLine
 62
7
  6
BYLAYER
 10
36.8080787127
 20
111.6855211836
 11
36.8080810211
 21
109.2362139646
  0
LINE
  5
273
100
AcDbEntity
  8
0
100
AcDbLine
 62
7
  6
BYLAYER
 10
37.9576486083
 20
109.8998896183
 11
37.9576486499
 21
111.7875905127
  0
LINE
  5
274
100
AcDbEntity
  8
0
100
AcDbLine
 62
7
  6
BYLAYER
 10
38.0493783184
 20
112.728781119
 11
38.0493783004
 21
111.9117303545
  0
LINE
  5
275
100
AcDbEntity
  8
0
100
AcDbLine
 62
7
  6
BYLAYER
 10
38.3000748446
 20
113.2817641262
 11
38.3000741194
 21
115.8129135897
  0
LINE
  5
276
100
AcDbEntity
  8
0
100
AcDbLine
 62
7
  6
BYLAYER
 10
38.5576486159
 20
110.2462854299
 11
38.5576486499
 21
111.7875904994
  0
LINE
  5
277
100
AcDbEntity
  8
0
100
AcDbLine
 62
7
  6
BYLAYER
 10
39.4409395936
 20
112.6557474882
 11
39.4409395518
 21
110.7562325577
  0
LINE
  5
278
100
AcDbEntity
  8
0
100
AcDbLine
 62
7
  6
BYLAYER
 10
39.8132788491
 20
111.6242797418
 11
39.8132788443
 21
110.9711938406
  0
LINE
  5
279
100
AcDbEntity
  8
0
100
AcDbLine
 62
7
  6
BYLAYER
 10
40.2375411425
 20
111.3793373297
 11
40.2375411425
 21
111.2161316426
  0
LINE
  5
27A
100
AcDbEntity
  8
0
100
AcDbLine
 62
7
  6
BYLAYER
 10
40.3082556603
 20
111.8284126573
 11
40.3082556567
 21
111.3385112087
  0
LINE
  5
27B
100
AcDbEntity
  8
0
100
AcDbLine
 62
7
  6
BYLAYER
 10
40.7325179609
 20
112.0733591507
 11
40.7325179609
 21
111.5834577
  0
LINE
  5
27C
100
AcDbEntity
  8
0
100
AcDbLine
 62
7
  6
BYLAYER
 10
78.5698724573
 20
120.0387110186
 11
79.2769145012
 21
120.4469153505
  0
LINE
  5
27D
100
AcDbEntity
  8
0
100
AcDbLine
 62
7
  6
BYLAYER
 10
81.3982517118
 20
121.0185300386
 11
79.1355135176
 21
119.7121453311
  0
LINE
  5
27E
100
AcDbEntity
  8
0
100
AcDbLine
 62
7
  6
BYLAYER
 10
20.7960475031
 20
85.6507135583
 11
21.6898570661
 21
86.1667516697
  0
LINE
  5
27F
100
AcDbEntity
  8
0
100
AcDbLine
 62
7
  6
BYLAYER
 10
85.1812600564
 20
122.222597007
 11
84.2268971814
 21
121.6715986332
  0
LINE
  5
280
100
AcDbEntity
  8
0
100
AcDbLine
 62
7
  6
BYLAYER
 10
80.5497428263
 20
118.8956693715
 11
82.8124751054
 21
120.2020506639
  0
LINE
  5
281
100
AcDbEntity
  8
0
100
AcDbLine
 62
7
  6
BYLAYER
 10
85.181260033
 20
121.1611438782
 11
85.1461581683
 21
121.1408779288
  0
LINE
  5
282
100
AcDbEntity
  8
0
100
AcDbLine
 62
7
  6
BYLAYER
 10
21.7040355367
 20
83.8983997091
 11
22.6480204367
 21
84.443406392
  0
LINE
  5
283
100
AcDbEntity
  8
0
100
AcDbLine
 62
7
  6
BYLAYER
 10
24.5990217652
 20
85.0060670238
 11
24.2353411478
 21
84.7960971748
  0
LINE
  5
284
100
AcDbEntity
  8
0
100
AcDbLine
 62
7
  6
BYLAYER
 10
56.8441447156
 20
58.2532760393
 11
54.5116353658
 21
59.5974682158
  0
LINE
  5
285
100
AcDbEntity
  8
0
100
AcDbLine
 62
7
  6
BYLAYER
 10
20.286998156
 20
79.35662471
 11
17.9546965623
 21
80.7056014598
  0
LINE
  5
286
100
AcDbEntity
  8
0
100
AcDbLine
 62
7
  6
BYLAYER
 10
24.5725958326
 20
84.7860568679
 11
24.852883363
 21
84.947879983
  0
LINE
  5
287
100
AcDbEntity
  8
0
100
AcDbLine
 62
7
  6
BYLAYER
 10
82.1054309414
 20
117.9975125819
 11
82.8124670703
 21
118.4057134988
  0
LINE
  5
288
100
AcDbEntity
  8
0
100
AcDbLine
 62
7
  6
BYLAYER
 10
84.9338042809
 20
118.9773281868
 11
82.6710720018
 21
117.6709468944
  0
LINE
  5
289
100
AcDbEntity
  8
0
100
AcDbLine
 62
7
  6
BYLAYER
 10
84.0853013105
 20
116.8544709347
 11
86.3480395047
 21
118.1608556422
  0
LINE
  5
28A
100
AcDbEntity
  8
0
100
AcDbLine
 62
7
  6
BYLAYER
 10
21.382188182
 20
79.7984567589
 11
22.4615932084
 21
80.4216478215
  0
LINE
  5
28B
100
AcDbEntity
  8
0
100
AcDbLine
 62
7
  6
BYLAYER
 10
22.1488653819
 20
79.9242733893
 11
21.0535558634
 21
79.2918999187
  0
LINE
  5
28C
100
AcDbEntity
  8
0
100
AcDbLine
 62
7
  6
BYLAYER
 10
85.6409894255
 20
115.9563141452
 11
86.3480314695
 21
116.3645184771
  0
LINE
  5
28D
100
AcDbEntity
  8
0
100
AcDbLine
 62
7
  6
BYLAYER
 10
88.4693686801
 20
116.9361331652
 11
86.2066304859
 21
115.6297484577
  0
LINE
  5
28E
100
AcDbEntity
  8
0
100
AcDbLine
 62
7
  6
BYLAYER
 10
28.3585599517
 20
82.7813903627
 11
28.4787295491
 21
82.7168355295
  0
LINE
  5
28F
100
AcDbEntity
  8
0
100
AcDbLine
 62
7
  6
BYLAYER
 10
28.3574943634
 20
82.7406146849
 11
28.4776399756
 21
82.6756854781
  0
LINE
  5
290
100
AcDbEntity
  8
0
100
AcDbLine
 62
7
  6
BYLAYER
 10
29.858114163
 20
81.9296482959
 11
30.6138515471
 21
81.5212319752
  0
LINE
  5
291
100
AcDbEntity
  8
0
100
AcDbLine
 62
7
  6
BYLAYER
 10
29.8593754008
 20
81.9710659272
 11
30.6151056533
 21
81.5596619437
  0
LINE
  5
292
100
AcDbEntity
  8
0
100
AcDbLine
 62
7
  6
BYLAYER
 10
30.7601164179
 20
81.7918865894
 11
30.0056562656
 21
82.2026615839
  0
LINE
  5
293
100
AcDbEntity
  8
0
100
AcDbLine
 62
7
  6
BYLAYER
 10
28.5714269073
 20
82.9763057813
 11
28.5056174927
 21
83.0142611974
  0
LINE
  5
294
100
AcDbEntity
  8
0
100
AcDbLine
 62
7
  6
BYLAYER
 10
38.1593875407
 20
77.2859175342
 11
38.9369615209
 21
76.8369956663
  0
LINE
  5
295
100
AcDbEntity
  8
0
100
AcDbLine
 62
7
  6
BYLAYER
 10
38.1616863
 20
77.3273437743
 11
38.9393469677
 21
76.8783585835
  0
LINE
  5
296
100
AcDbEntity
  8
0
100
AcDbLine
 62
7
  6
BYLAYER
 10
38.3146686103
 20
77.5548853819
 11
39.0922286713
 21
77.1059245891
  0
LINE
  5
297
100
AcDbEntity
  8
0
100
AcDbLine
 62
7
  6
BYLAYER
 10
46.4500280043
 20
72.4180144508
 11
47.2253961748
 21
71.9447279436
  0
LINE
  5
298
100
AcDbEntity
  8
0
100
AcDbLine
 62
7
  6
BYLAYER
 10
47.3846071371
 20
72.1687326194
 11
46.6081582003
 21
72.6426657599
  0
LINE
  5
299
100
AcDbEntity
  8
0
100
AcDbLine
 62
7
  6
BYLAYER
 10
46.4471450563
 20
72.3806001542
 11
47.2222037454
 21
71.9044039896
  0
LINE
  5
29A
100
AcDbEntity
  8
0
100
AcDbLine
 62
7
  6
BYLAYER
 10
52.4278702373
 20
68.7060417847
 11
52.4779532718
 21
68.6752707615
  0
LINE
  5
29B
100
AcDbEntity
  8
0
100
AcDbLine
 62
7
  6
BYLAYER
 10
52.4279518636
 20
68.7069145603
 11
52.4779532718
 21
68.6752707615
  0
LINE
  5
29C
100
AcDbEntity
  8
0
100
AcDbLine
 62
7
  6
BYLAYER
 10
48.3055980754
 20
134.898700701
 11
48.3055742582
 21
129.5097628419
  0
LINE
  5
29D
100
AcDbEntity
  8
0
100
AcDbLine
 62
7
  6
BYLAYER
 10
48.7298013574
 20
129.1014928976
 11
48.7298012776
 21
125.4757183407
  0
LINE
  5
29E
100
AcDbEntity
  8
0
100
AcDbLine
 62
7
  6
BYLAYER
 10
48.8712620671
 20
129.183170205
 11
48.8712671241
 21
130.3331101145
  0
LINE
  5
29F
100
AcDbEntity
  8
0
100
AcDbLine
 62
7
  6
BYLAYER
 10
87.6208597946
 20
114.813272498
 11
89.8835920737
 21
116.1196537904
  0
LINE
  5
2A0
100
AcDbEntity
  8
0
100
AcDbLine
 62
7
  6
BYLAYER
 10
89.1765479097
 20
113.9151157085
 11
89.8835840386
 21
114.3233166254
  0
LINE
  5
2A1
100
AcDbEntity
  8
0
100
AcDbLine
 62
7
  6
BYLAYER
 10
92.0049212492
 20
114.8949313134
 11
89.7421889701
 21
113.588550021
  0
LINE
  5
2A2
100
AcDbEntity
  8
0
100
AcDbLine
 62
7
  6
BYLAYER
 10
18.3797858525
 20
71.6220649585
 11
17.2823755892
 21
70.9884786296
  0
LINE
  5
2A3
100
AcDbEntity
  8
0
100
AcDbLine
 62
7
  6
BYLAYER
 10
94.691917775
 20
115.629785502
 11
88.045159162
 21
111.7922791333
  0
LINE
  5
2A4
100
AcDbEntity
  8
0
100
AcDbLine
 62
7
  6
BYLAYER
 10
19.059793272
 20
71.5759123843
 11
17.9546965618
 21
70.9378883097
  0
LINE
  5
2A5
100
AcDbEntity
  8
0
100
AcDbLine
 62
7
  6
BYLAYER
 10
84.7924887361
 20
109.2611710663
 11
84.0853581452
 21
108.8529091895
  0
LINE
  5
2A6
100
AcDbEntity
  8
0
100
AcDbLine
 62
7
  6
BYLAYER
 10
63.7617285339
 20
67.2678607641
 11
14.1934845186
 21
95.8864484962
  0
LINE
  5
2A7
100
AcDbEntity
  8
0
100
AcDbLine
 62
7
  6
BYLAYER
 10
64.6451158955
 20
69.3690279607
 11
15.0769010905
 21
97.987598828
  0
LINE
  5
2A8
100
AcDbEntity
  8
0
100
AcDbLine
 62
7
  6
BYLAYER
 10
51.4168603721
 20
137.9197134544
 11
51.4168582069
 21
137.4298107665
  0
LINE
  5
2A9
100
AcDbEntity
  8
0
100
AcDbLine
 62
7
  6
BYLAYER
 10
20.2869981583
 20
69.5935761867
 11
21.392102071
 21
70.2316044197
  0
LINE
  5
2AA
100
AcDbEntity
  8
0
100
AcDbLine
 62
7
  6
BYLAYER
 10
21.3822497039
 20
68.0025782781
 11
22.4639354705
 21
68.6270861188
  0
LINE
  5
2AB
100
AcDbEntity
  8
0
100
AcDbLine
 62
7
  6
BYLAYER
 10
95.077299068
 20
108.874261189
 11
88.4656941888
 21
105.0572231881
  0
LINE
  5
2AC
100
AcDbEntity
  8
0
100
AcDbLine
 62
7
  6
BYLAYER
 10
16.4632511828
 20
99.5550935596
 11
66.0314495599
 21
70.9365321763
  0
LINE
  5
2AD
100
AcDbEntity
  8
0
100
AcDbLine
 62
7
  6
BYLAYER
 10
66.1508669201
 20
71.0596554216
 11
16.5826713292
 21
99.6782151955
  0
LINE
  5
2AE
100
AcDbEntity
  8
0
100
AcDbLine
 62
7
  6
BYLAYER
 10
55.9423257282
 20
137.9197087568
 11
55.9423322237
 21
139.3893914983
  0
LINE
  5
2AF
100
AcDbEntity
  8
0
100
AcDbLine
 62
7
  6
BYLAYER
 10
56.2252072009
 20
125.8561990079
 11
56.2252031606
 21
124.9374661697
  0
LINE
  5
2B0
100
AcDbEntity
  8
0
100
AcDbLine
 62
7
  6
BYLAYER
 10
56.7909147771
 20
129.9998113975
 11
56.7908909599
 21
124.6108735384
  0
LINE
  5
2B1
100
AcDbEntity
  8
0
100
AcDbLine
 62
7
  6
BYLAYER
 10
57.1444666922
 20
130.0406311538
 11
57.1444666958
 21
130.2039334744
  0
LINE
  5
2B2
100
AcDbEntity
  8
0
100
AcDbLine
 62
7
  6
BYLAYER
 10
57.2151180592
 20
124.2026035941
 11
57.2151179793
 21
120.5766587656
  0
LINE
  5
2B3
100
AcDbEntity
  8
0
100
AcDbLine
 62
7
  6
BYLAYER
 10
58.2050957619
 20
125.4273601877
 11
58.2050957475
 21
124.7741640672
  0
LINE
  5
2B4
100
AcDbEntity
  8
0
100
AcDbLine
 62
7
  6
BYLAYER
 10
58.6293426838
 20
136.3683938108
 11
58.6293491793
 21
137.8380765523
  0
LINE
  5
2B5
100
AcDbEntity
  8
0
100
AcDbLine
 62
7
  6
BYLAYER
 10
59.05359154
 20
123.4676797076
 11
59.0535914529
 21
119.5152026773
  0
LINE
  5
2B6
100
AcDbEntity
  8
0
100
AcDbLine
 62
7
  6
BYLAYER
 10
59.3364487562
 20
123.1412982464
 11
59.3364482631
 21
116.6092667553
  0
LINE
  5
2B7
100
AcDbEntity
  8
0
100
AcDbLine
 62
7
  6
BYLAYER
 10
59.9021770738
 20
133.0208241509
 11
59.9021749086
 21
132.530921463
  0
LINE
  5
2B8
100
AcDbEntity
  8
0
100
AcDbLine
 62
7
  6
BYLAYER
 10
84.7924887052
 20
108.8529161798
 11
88.0451591435
 21
111.5473284188
  0
LINE
  5
2B9
100
AcDbEntity
  8
0
100
AcDbLine
 62
7
  6
BYLAYER
 10
21.7039984122
 20
64.1890631486
 11
22.6518078009
 21
64.7362778878
  0
LINE
  5
2BA
100
AcDbEntity
  8
0
100
AcDbLine
 62
7
  6
BYLAYER
 10
22.3691434482
 20
64.2118718798
 11
21.453515143
 21
63.6832367868
  0
LINE
  5
2BB
100
AcDbEntity
  8
0
100
AcDbLine
 62
7
  6
BYLAYER
 10
98.2972543316
 20
107.0151968218
 11
91.685827896
 21
103.1980830152
  0
LINE
  5
2BC
100
AcDbEntity
  8
0
100
AcDbLine
 62
7
  6
BYLAYER
 10
24.2353600414
 20
84.7960614056
 11
24.5725959797
 21
84.7860530937
  0
LINE
  5
2BD
100
AcDbEntity
  8
0
100
AcDbLine
 62
7
  6
BYLAYER
 10
71.3078223389
 20
74.1409864616
 11
21.7397469699
 21
102.7594768245
  0
LINE
  5
2BE
100
AcDbEntity
  8
0
100
AcDbLine
 62
7
  6
BYLAYER
 10
40.0254117757
 20
112.3183099332
 11
40.3082556603
 21
111.8284126573
  0
LINE
  5
2BF
100
AcDbEntity
  8
0
100
AcDbLine
 62
7
  6
BYLAYER
 10
40.7325179627
 20
112.0733591496
 11
40.449674078
 21
112.5632564255
  0
LINE
  5
2C0
100
AcDbEntity
  8
0
100
AcDbLine
 62
7
  6
BYLAYER
 10
60.3970917658
 20
123.4341440868
 11
60.3970917747
 21
123.8351011353
  0
LINE
  5
2C1
100
AcDbEntity
  8
0
100
AcDbLine
 62
7
  6
BYLAYER
 10
60.6092199819
 20
124.3658168461
 11
60.6092199652
 21
123.6098645686
  0
LINE
  5
2C2
100
AcDbEntity
  8
0
100
AcDbLine
 62
7
  6
BYLAYER
 10
60.9627748444
 20
124.1616964584
 11
60.9627748387
 21
123.9027385614
  0
LINE
  5
2C3
100
AcDbEntity
  8
0
100
AcDbLine
 62
7
  6
BYLAYER
 10
61.3163596394
 20
134.8170788646
 11
61.3163661348
 21
136.2867616062
  0
LINE
  5
2C4
100
AcDbEntity
  8
0
100
AcDbLine
 62
7
  6
BYLAYER
 10
63.2962497729
 20
126.0806681902
 11
63.2962497545
 21
125.8357174757
  0
LINE
  5
2C5
100
AcDbEntity
  8
0
100
AcDbLine
 62
7
  6
BYLAYER
 10
64.5690618947
 20
129.1015384995
 11
64.5690620386
 21
135.6335814336
  0
LINE
  5
2C6
100
AcDbEntity
  8
0
100
AcDbLine
 62
7
  6
BYLAYER
 10
104.5741110021
 20
108.5162352401
 11
100.4543320887
 21
106.1376674431
  0
LINE
  5
2C7
100
AcDbEntity
  8
0
100
AcDbLine
 62
7
  6
BYLAYER
 10
17.6892241755
 20
87.0022148078
 11
18.3402422985
 21
87.0155621626
  0
LINE
  5
2C8
100
AcDbEntity
  8
0
100
AcDbLine
 62
7
  6
BYLAYER
 10
19.2363688597
 20
87.5329030179
 11
18.6017091899
 21
87.5290579659
  0
LINE
  5
2C9
100
AcDbEntity
  8
0
100
AcDbLine
 62
7
  6
BYLAYER
 10
105.8280655268
 20
61.4540749575
 11
102.1513890589
 21
63.576830971
  0
LINE
  5
2CA
100
AcDbEntity
  8
0
100
AcDbLine
 62
7
  6
BYLAYER
 10
71.6571917707
 20
82.0405363224
 11
22.0891249586
 21
110.6590217448
  0
LINE
  5
2CB
100
AcDbEntity
  8
0
100
AcDbLine
 62
7
  6
BYLAYER
 10
71.6572094057
 20
30.1926226539
 11
71.3284314789
 21
37.2468298996
  0
LINE
  5
2CC
100
AcDbEntity
  8
0
100
AcDbLine
 62
7
  6
BYLAYER
 10
68.6702331337
 20
126.5705072456
 11
68.6702411689
 21
128.3668444107
  0
LINE
  5
2CD
100
AcDbEntity
  8
0
100
AcDbLine
 62
7
  6
BYLAYER
 10
52.8808678811
 20
46.2266736105
 11
52.7505724246
 21
45.9032305454
  0
LINE
  5
2CE
100
AcDbEntity
  8
0
100
AcDbLine
 62
7
  6
BYLAYER
 10
85.3220084635
 20
89.9299628233
 11
71.6571917707
 21
82.0405363224
  0
LINE
  5
2CF
100
AcDbEntity
  8
0
100
AcDbLine
 62
7
  6
BYLAYER
 10
52.7026440311
 20
68.8049988759
 11
52.4779534197
 21
68.6752744653
  0
LINE
  5
2D0
100
AcDbEntity
  8
0
100
AcDbLine
 62
7
  6
BYLAYER
 10
53.1608331778
 20
67.9433013374
 11
52.9255900497
 21
67.8074844648
  0
LINE
  5
2D1
100
AcDbEntity
  8
0
100
AcDbLine
 62
7
  6
BYLAYER
 10
31.7662136317
 20
106.3254110915
 11
26.8165179242
 21
109.1831540612
  0
LINE
  5
2D2
100
AcDbEntity
  8
0
100
AcDbLine
 62
7
  6
BYLAYER
 10
72.2057975329
 20
124.5293122239
 11
72.2058055681
 21
126.325649389
  0
LINE
  5
2D3
100
AcDbEntity
  8
0
100
AcDbLine
 62
7
  6
BYLAYER
 10
71.3078223389
 20
74.1409864616
 11
71.6571917707
 21
82.0405363224
  0
LINE
  5
2D4
100
AcDbEntity
  8
0
100
AcDbLine
 62
7
  6
BYLAYER
 10
66.0314495542
 20
70.9365321704
 11
66.1508669201
 21
71.0596554216
  0
LINE
  5
2D5
100
AcDbEntity
  8
0
100
AcDbLine
 62
7
  6
BYLAYER
 10
71.3078223389
 20
74.1409864616
 11
66.1508669201
 21
71.0596554216
  0
LINE
  5
2D6
100
AcDbEntity
  8
0
100
AcDbLine
 62
7
  6
BYLAYER
 10
55.0624694114
 20
66.4993147778
 11
54.151543906
 21
65.9733948313
  0
LINE
  5
2D7
100
AcDbEntity
  8
0
100
AcDbLine
 62
7
  6
BYLAYER
 10
54.8834774833
 20
65.9707821918
 11
55.7766784311
 21
66.4864689213
  0
LINE
  5
2D8
100
AcDbEntity
  8
0
100
AcDbLine
 62
7
  6
BYLAYER
 10
57.3297230466
 20
64.5053464047
 11
58.2251598332
 21
65.0223239885
  0
LINE
  5
2D9
100
AcDbEntity
  8
0
100
AcDbLine
 62
7
  6
BYLAYER
 10
40.3082556567
 20
111.3385112087
 11
39.8132788491
 21
111.6242797418
  0
LINE
  5
2DA
100
AcDbEntity
  8
0
100
AcDbLine
 62
7
  6
BYLAYER
 10
40.0254117757
 20
112.3183099332
 11
39.4409395936
 21
112.6557474882
  0
LINE
  5
2DB
100
AcDbEntity
  8
0
100
AcDbLine
 62
7
  6
BYLAYER
 10
41.0153653909
 20
111.7467728478
 11
41.0860204075
 21
111.7059810757
  0
LINE
  5
2DC
100
AcDbEntity
  8
0
100
AcDbLine
 62
7
  6
BYLAYER
 10
75.741356017
 20
122.4881137871
 11
75.7413640522
 21
124.2844509523
  0
LINE
  5
2DD
100
AcDbEntity
  8
0
100
AcDbLine
 62
7
  6
BYLAYER
 10
76.6607128258
 20
33.0814116781
 11
76.660713262
 21
30.345894217
  0
LINE
  5
2DE
100
AcDbEntity
  8
0
100
AcDbLine
 62
7
  6
BYLAYER
 10
79.2769145012
 20
120.4469153505
 11
79.2769225364
 21
122.2432525156
  0
LINE
  5
2DF
100
AcDbEntity
  8
0
100
AcDbLine
 62
7
  6
BYLAYER
 10
58.1442827595
 20
43.0845224819
 11
57.911958609
 21
42.6521788625
  0
LINE
  5
2E0
100
AcDbEntity
  8
0
100
AcDbLine
 62
7
  6
BYLAYER
 10
58.8278656082
 20
43.1809521075
 11
59.088494858
 21
43.6301518577
  0
LINE
  5
2E1
100
AcDbEntity
  8
0
100
AcDbLine
 62
7
  6
BYLAYER
 10
102.1513807262
 20
88.0766212794
 11
102.8206084563
 21
88.469745814
  0
LINE
  5
2E2
100
AcDbEntity
  8
0
100
AcDbLine
 62
7
  6
BYLAYER
 10
103.9187035586
 20
86.9904144584
 11
105.8280476697
 21
88.0927805105
  0
LINE
  5
2E3
100
AcDbEntity
  8
0
100
AcDbLine
 62
7
  6
BYLAYER
 10
58.1445077821
 20
62.9412820611
 11
59.0847139075
 21
63.4836414743
  0
LINE
  5
2E4
100
AcDbEntity
  8
0
100
AcDbLine
 62
7
  6
BYLAYER
 10
38.7526107376
 20
113.5430342862
 11
40.449674078
 21
112.5632564255
  0
LINE
  5
2E5
100
AcDbEntity
  8
0
100
AcDbLine
 62
7
  6
BYLAYER
 10
41.4396276932
 20
111.9917193401
 11
41.510290234
 21
111.950923224
  0
LINE
  5
2E6
100
AcDbEntity
  8
0
100
AcDbLine
 62
7
  6
BYLAYER
 10
38.3000741194
 20
115.8129135897
 11
43.2497698269
 21
112.95517062
  0
LINE
  5
2E7
100
AcDbEntity
  8
0
100
AcDbLine
 62
7
  6
BYLAYER
 10
85.3220084635
 20
89.9299628233
 11
35.7542601987
 21
118.5482643302
  0
LINE
  5
2E8
100
AcDbEntity
  8
0
100
AcDbLine
 62
7
  6
BYLAYER
 10
85.7137137516
 20
29.6794391211
 11
85.3220269203
 21
38.0820496293
  0
LINE
  5
2E9
100
AcDbEntity
  8
0
100
AcDbLine
 62
7
  6
BYLAYER
 10
82.8124670703
 20
118.4057134987
 11
82.8124751054
 21
120.2020506639
  0
LINE
  5
2EA
100
AcDbEntity
  8
0
100
AcDbLine
 62
7
  6
BYLAYER
 10
83.7318295031
 20
30.8236173586
 11
83.7318302303
 21
26.2634995589
  0
LINE
  5
2EB
100
AcDbEntity
  8
0
100
AcDbLine
 62
7
  6
BYLAYER
 10
84.0853581452
 20
108.8529091895
 11
84.0853576521
 21
102.3208776984
  0
LINE
  5
2EC
100
AcDbEntity
  8
0
100
AcDbLine
 62
7
  6
BYLAYER
 10
84.4389608211
 20
26.6717614357
 11
84.438960756
 21
27.0800163775
  0
LINE
  5
2ED
100
AcDbEntity
  8
0
100
AcDbLine
 62
7
  6
BYLAYER
 10
84.7924887052
 20
108.8529161798
 11
84.7924887361
 21
109.2611710663
  0
LINE
  5
2EE
100
AcDbEntity
  8
0
100
AcDbLine
 62
7
  6
BYLAYER
 10
57.8767424618
 20
58.7226369868
 11
58.955764664
 21
59.3461395895
  0
LINE
  5
2EF
100
AcDbEntity
  8
0
100
AcDbLine
 62
7
  6
BYLAYER
 10
58.6440566317
 20
58.8536967683
 11
57.5493991833
 21
58.2216997683
  0
LINE
  5
2F0
100
AcDbEntity
  8
0
100
AcDbLine
 62
7
  6
BYLAYER
 10
31.5048022887
 20
108.2970960579
 11
30.9391168638
 21
108.2970947064
  0
LINE
  5
2F1
100
AcDbEntity
  8
0
100
AcDbLine
 62
7
  6
BYLAYER
 10
85.1812600564
 20
122.222597007
 11
85.181260033
 21
121.1611438782
  0
LINE
  5
2F2
100
AcDbEntity
  8
0
100
AcDbLine
 62
7
  6
BYLAYER
 10
86.3480314695
 20
116.3645184771
 11
86.3480395047
 21
118.1608556422
  0
LINE
  5
2F3
100
AcDbEntity
  8
0
100
AcDbLine
 62
7
  6
BYLAYER
 10
87.6381626771
 20
28.1240143452
 11
87.6381627183
 21
27.8656416387
  0
LINE
  5
2F4
100
AcDbEntity
  8
0
100
AcDbLine
 62
7
  6
BYLAYER
 10
88.045159162
 20
111.7922791333
 11
88.0451591435
 21
111.5473284188
  0
LINE
  5
2F5
100
AcDbEntity
  8
0
100
AcDbLine
 62
7
  6
BYLAYER
 10
85.3220084635
 20
89.9299628233
 11
85.7136304367
 21
98.7848263598
  0
LINE
  5
2F6
100
AcDbEntity
  8
0
100
AcDbLine
 62
7
  6
BYLAYER
 10
54.8749678437
 20
50.5514829921
 11
53.7782000481
 21
49.9182675898
  0
LINE
  5
2F7
100
AcDbEntity
  8
0
100
AcDbLine
 62
7
  6
BYLAYER
 10
55.6161326322
 20
50.4720976833
 11
54.5116353643
 21
49.8344196948
  0
LINE
  5
2F8
100
AcDbEntity
  8
0
100
AcDbLine
 62
7
  6
BYLAYER
 10
52.8808813887
 20
46.226411105
 11
53.2030995006
 21
46.4124426891
  0
LINE
  5
2F9
100
AcDbEntity
  8
0
100
AcDbLine
 62
7
  6
BYLAYER
 10
56.8441447153
 20
48.4855628891
 11
57.9485520954
 21
49.1231889812
  0
LINE
  5
2FA
100
AcDbEntity
  8
0
100
AcDbLine
 62
7
  6
BYLAYER
 10
53.1612336356
 20
46.1402651022
 11
52.7505996736
 21
45.9031868889
  0
LINE
  5
2FB
100
AcDbEntity
  8
0
100
AcDbLine
 62
7
  6
BYLAYER
 10
33.2725618818
 20
109.3177064426
 11
32.7068764568
 21
109.3177050911
  0
LINE
  5
2FC
100
AcDbEntity
  8
0
100
AcDbLine
 62
7
  6
BYLAYER
 10
35.0403214748
 20
110.3383168272
 11
34.4746360499
 21
110.3383154758
  0
LINE
  5
2FD
100
AcDbEntity
  8
0
100
AcDbLine
 62
7
  6
BYLAYER
 10
36.8080810678
 20
111.3589272119
 11
36.2423956429
 21
111.3589258605
  0
LINE
  5
2FE
100
AcDbEntity
  8
0
100
AcDbLine
 62
7
  6
BYLAYER
 10
39.4409395936
 20
112.6557474882
 11
38.0493783184
 21
112.728781119
  0
LINE
  5
2FF
100
AcDbEntity
  8
0
100
AcDbLine
 62
7
  6
BYLAYER
 10
103.9187035586
 20
86.9904144584
 11
102.1513807486
 21
88.0107911914
  0
LINE
  5
300
100
AcDbEntity
  8
0
100
AcDbLine
 62
7
  6
BYLAYER
 10
85.7136304367
 20
98.7848263602
 11
36.1458917637
 21
127.4031223293
  0
LINE
  5
301
100
AcDbEntity
  8
0
100
AcDbLine
 62
7
  6
BYLAYER
 10
89.8835840386
 20
114.3233166253
 11
89.8835920737
 21
116.1196537905
  0
LINE
  5
302
100
AcDbEntity
  8
0
100
AcDbLine
 62
7
  6
BYLAYER
 10
94.3383899148
 20
31.734057384
 11
94.3383896023
 21
33.6937536331
  0
LINE
  5
303
100
AcDbEntity
  8
0
100
AcDbLine
 62
7
  6
BYLAYER
 10
58.1442863711
 20
43.0848528173
 11
59.0883573561
 21
43.630224806
  0
LINE
  5
304
100
AcDbEntity
  8
0
100
AcDbLine
 62
7
  6
BYLAYER
 10
58.8279002489
 20
43.1808967695
 11
57.9120061239
 21
42.6521082064
  0
LINE
  5
305
100
AcDbEntity
  8
0
100
AcDbLine
 62
7
  6
BYLAYER
 10
57.877070939
 20
46.9382388806
 11
58.9583852009
 21
47.5617698579
  0
LINE
  5
306
100
AcDbEntity
  8
0
100
AcDbLine
 62
7
  6
BYLAYER
 10
100.2443262347
 20
107.4750617611
 11
100.4344329093
 21
107.4426955987
  0
LINE
  5
307
100
AcDbEntity
  8
0
100
AcDbLine
 62
7
  6
BYLAYER
 10
43.4625278718
 20
128.516817114
 11
59.3364484701
 21
119.3518931124
  0
LINE
  5
308
100
AcDbEntity
  8
0
100
AcDbLine
 62
7
  6
BYLAYER
 10
91.685827896
 20
103.1980830152
 11
88.4658067775
 21
105.0572873251
  0
LINE
  5
309
100
AcDbEntity
  8
0
100
AcDbLine
 62
7
  6
BYLAYER
 10
45.5477592372
 20
129.8363355488
 11
42.1182284952
 21
131.8162985744
  0
LINE
  5
30A
100
AcDbEntity
  8
0
100
AcDbLine
 62
7
  6
BYLAYER
 10
57.2151180592
 20
124.2026035941
 11
48.7298013574
 21
129.1014928976
  0
LINE
  5
30B
100
AcDbEntity
  8
0
100
AcDbLine
 62
7
  6
BYLAYER
 10
56.7908909599
 20
124.6108735384
 11
56.2252031606
 21
124.9374661697
  0
LINE
  5
30C
100
AcDbEntity
  8
0
100
AcDbLine
 62
7
  6
BYLAYER
 10
48.8712620671
 20
129.183170205
 11
48.3055742582
 21
129.5097628419
  0
LINE
  5
30D
100
AcDbEntity
  8
0
100
AcDbLine
 62
7
  6
BYLAYER
 10
84.0853581452
 20
108.8529091895
 11
59.3364487562
 21
123.1412982464
  0
LINE
  5
30E
100
AcDbEntity
  8
0
100
AcDbLine
 62
7
  6
BYLAYER
 10
59.4776795986
 20
123.2228378793
 11
59.05359154
 21
123.4676797076
  0
LINE
  5
30F
100
AcDbEntity
  8
0
100
AcDbLine
 62
7
  6
BYLAYER
 10
59.7606983212
 20
123.4676813968
 11
59.8312305314
 21
123.4269605254
  0
LINE
  5
310
100
AcDbEntity
  8
0
100
AcDbLine
 62
7
  6
BYLAYER
 10
94.6919172483
 20
108.6517710254
 11
94.691917775
 21
115.629785502
  0
LINE
  5
311
100
AcDbEntity
  8
0
100
AcDbLine
 62
7
  6
BYLAYER
 10
84.7924887361
 20
109.2611710663
 11
60.043579347
 21
123.5495601232
  0
LINE
  5
312
100
AcDbEntity
  8
0
100
AcDbLine
 62
7
  6
BYLAYER
 10
58.2050957475
 20
124.7741640672
 11
57.639403248
 21
125.1007594121
  0
LINE
  5
313
100
AcDbEntity
  8
0
100
AcDbLine
 62
7
  6
BYLAYER
 10
54.4194860203
 20
126.9597375291
 11
53.5922652942
 21
127.4373228579
  0
LINE
  5
314
100
AcDbEntity
  8
0
100
AcDbLine
 62
7
  6
BYLAYER
 10
51.7404939749
 20
128.5064193958
 11
50.9073347516
 21
128.9874332401
  0
LINE
  5
315
100
AcDbEntity
  8
0
100
AcDbLine
 62
7
  6
BYLAYER
 10
60.3970917747
 20
123.8351011353
 11
60.0435369121
 21
124.039221523
  0
LINE
  5
316
100
AcDbEntity
  8
0
100
AcDbLine
 62
7
  6
BYLAYER
 10
51.1672928773
 20
129.1640049051
 11
51.4542998457
 21
128.9983051033
  0
LINE
  5
317
100
AcDbEntity
  8
0
100
AcDbLine
 62
7
  6
BYLAYER
 10
53.8543098328
 20
127.612689959
 11
54.1413168012
 21
127.4469901572
  0
LINE
  5
318
100
AcDbEntity
  8
0
100
AcDbLine
 62
7
  6
BYLAYER
 10
60.9627748444
 20
124.1616964584
 11
60.6092199819
 21
124.3658168461
  0
LINE
  5
319
100
AcDbEntity
  8
0
100
AcDbLine
 62
7
  6
BYLAYER
 10
62.7733278731
 20
125.4025450582
 11
62.5891107261
 21
125.5089004769
  0
LINE
  5
31A
100
AcDbEntity
  8
0
100
AcDbLine
 62
7
  6
BYLAYER
 10
88.0451591435
 20
111.5473284188
 11
63.2962497545
 21
125.8357174758
  0
LINE
  5
31B
100
AcDbEntity
  8
0
100
AcDbLine
 62
7
  6
BYLAYER
 10
88.045159162
 20
111.7922791333
 11
63.296249773
 21
126.0806681902
  0
LINE
  5
31C
100
AcDbEntity
  8
0
100
AcDbLine
 62
7
  6
BYLAYER
 10
56.7909147771
 20
129.9998113975
 11
48.3055980754
 21
134.898700701
  0
LINE
  5
31D
100
AcDbEntity
  8
0
100
AcDbLine
 62
7
  6
BYLAYER
 10
57.1444666958
 20
130.2039334744
 11
48.659149994
 21
135.1028227779
  0
LINE
  5
31E
100
AcDbEntity
  8
0
100
AcDbLine
 62
7
  6
BYLAYER
 10
98.2972543316
 20
107.0151968218
 11
94.6919172819
 21
109.0967641035
  0
LINE
  5
31F
100
AcDbEntity
  8
0
100
AcDbLine
 62
7
  6
BYLAYER
 10
49.1553671572
 20
135.3876189162
 11
48.7298037523
 21
135.6333203369
  0
LINE
  5
320
100
AcDbEntity
  8
0
100
AcDbLine
 62
7
  6
BYLAYER
 10
103.9187035586
 20
86.9904144584
 11
102.8206084563
 21
88.469745814
  0
LINE
  5
321
100
AcDbEntity
  8
0
100
AcDbLine
 62
7
  6
BYLAYER
 10
100.4543320887
 20
106.1376674431
 11
100.4379312522
 21
107.1843948423
  0
LINE
  5
322
100
AcDbEntity
  8
0
100
AcDbLine
 62
7
  6
BYLAYER
 10
100.4379312522
 20
107.1843948423
 11
100.4344329093
 21
107.4426955987
  0
LINE
  5
323
100
AcDbEntity
  8
0
100
AcDbLine
 62
7
  6
BYLAYER
 10
102.1513904902
 20
59.3683879828
 11
102.1513807262
 21
88.0766212794
  0
LINE
  5
324
100
AcDbEntity
  8
0
100
AcDbLine
 62
7
  6
BYLAYER
 10
100.4543548042
 20
39.347740274
 11
100.4346143999
 21
38.0302717499
  0
LINE
  5
325
100
AcDbEntity
  8
0
100
AcDbLine
 62
7
  6
BYLAYER
 10
102.1513904902
 20
59.3683879828
 11
105.8280655268
 21
61.4540749575
  0
LINE
  5
326
100
AcDbEntity
  8
0
100
AcDbLine
 62
7
  6
BYLAYER
 10
63.7205085635
 20
128.5623546649
 11
65.6575713614
 21
127.44397731
  0
LINE
  5
327
100
AcDbEntity
  8
0
100
AcDbLine
 62
7
  6
BYLAYER
 10
94.6919174015
 20
110.6807855551
 11
100.2443262319
 21
107.4750617616
  0
LINE
  5
328
100
AcDbEntity
  8
0
100
AcDbLine
 62
7
  6
BYLAYER
 10
68.5288380652
 20
125.8357406412
 11
66.4075088897
 21
127.0604631183
  0
LINE
  5
329
100
AcDbEntity
  8
0
100
AcDbLine
 62
7
  6
BYLAYER
 10
72.0643965493
 20
123.7945422045
 11
69.9430673739
 21
125.0192646816
  0
LINE
  5
32A
100
AcDbEntity
  8
0
100
AcDbLine
 62
7
  6
BYLAYER
 10
75.599948724
 20
121.7533474105
 11
73.478625858
 21
122.9780662449
  0
LINE
  5
32B
100
AcDbEntity
  8
0
100
AcDbLine
 62
7
  6
BYLAYER
 10
79.1355135176
 20
119.7121453311
 11
77.0141843422
 21
120.9368678082
  0
LINE
  5
32C
100
AcDbEntity
  8
0
100
AcDbLine
 62
7
  6
BYLAYER
 10
82.6710720018
 20
117.6709468944
 11
80.5497428263
 21
118.8956693715
  0
LINE
  5
32D
100
AcDbEntity
  8
0
100
AcDbLine
 62
7
  6
BYLAYER
 10
86.2066304859
 20
115.6297484577
 11
84.0853013105
 21
116.8544709347
  0
LINE
  5
32E
100
AcDbEntity
  8
0
100
AcDbLine
 62
7
  6
BYLAYER
 10
89.7421889701
 20
113.588550021
 11
87.6208597946
 21
114.813272498
  0
LINE
  5
32F
100
AcDbEntity
  8
0
100
AcDbLine
 62
7
  6
BYLAYER
 10
100.4344329093
 20
107.4426955987
 11
94.6919174073
 21
110.7581788675
  0
LINE
  5
330
100
AcDbEntity
  8
0
100
AcDbLine
 62
7
  6
BYLAYER
 10
65.7245955439
 20
127.4826737246
 11
63.7448603003
 21
128.6256883276
  0
LINE
  5
331
100
AcDbEntity
  8
0
100
AcDbLine
 62
7
  6
BYLAYER
 10
68.6702331337
 20
126.5705072456
 11
69.2358706037
 21
126.243943631
  0
LINE
  5
332
100
AcDbEntity
  8
0
100
AcDbLine
 62
7
  6
BYLAYER
 10
72.2057975329
 20
124.5293122239
 11
72.7714350028
 21
124.2027486093
  0
LINE
  5
333
100
AcDbEntity
  8
0
100
AcDbLine
 62
7
  6
BYLAYER
 10
75.741356017
 20
122.4881137872
 11
76.3069871775
 21
122.1615538153
  0
LINE
  5
334
100
AcDbEntity
  8
0
100
AcDbLine
 62
7
  6
BYLAYER
 10
79.2769145012
 20
120.4469153505
 11
79.8425519711
 21
120.1203517359
  0
LINE
  5
335
100
AcDbEntity
  8
0
100
AcDbLine
 62
7
  6
BYLAYER
 10
82.8124670703
 20
118.4057134988
 11
83.3781045402
 21
118.0791498842
  0
LINE
  5
336
100
AcDbEntity
  8
0
100
AcDbLine
 62
7
  6
BYLAYER
 10
86.3480314695
 20
116.3645184771
 11
86.9136689394
 21
116.0379548625
  0
LINE
  5
337
100
AcDbEntity
  8
0
100
AcDbLine
 62
7
  6
BYLAYER
 10
89.8835840386
 20
114.3233166254
 11
90.4492215085
 21
113.9967530108
  0
LINE
  5
338
100
AcDbEntity
  8
0
100
AcDbLine
 62
7
  6
BYLAYER
 10
59.9021749086
 20
132.530921463
 11
51.4168582069
 21
137.4298107665
  0
LINE
  5
339
100
AcDbEntity
  8
0
100
AcDbLine
 62
7
  6
BYLAYER
 10
59.9021770738
 20
133.0208241509
 11
51.4168603721
 21
137.9197134544
  0
LINE
  5
33A
100
AcDbEntity
  8
0
100
AcDbLine
 62
7
  6
BYLAYER
 10
68.6702411689
 20
128.3668444107
 11
70.7915703443
 21
127.1421219336
  0
LINE
  5
33B
100
AcDbEntity
  8
0
100
AcDbLine
 62
7
  6
BYLAYER
 10
72.2058055681
 20
126.325649389
 11
74.3271347435
 21
125.100926912
  0
LINE
  5
33C
100
AcDbEntity
  8
0
100
AcDbLine
 62
7
  6
BYLAYER
 10
75.7413640522
 20
124.2844509523
 11
77.8626869182
 21
123.0597321179
  0
LINE
  5
33D
100
AcDbEntity
  8
0
100
AcDbLine
 62
7
  6
BYLAYER
 10
79.2769225364
 20
122.2432525156
 11
81.3982517118
 21
121.0185300386
  0
LINE
  5
33E
100
AcDbEntity
  8
0
100
AcDbLine
 62
7
  6
BYLAYER
 10
82.8124751054
 20
120.2020506639
 11
84.9338042809
 21
118.9773281868
  0
LINE
  5
33F
100
AcDbEntity
  8
0
100
AcDbLine
 62
7
  6
BYLAYER
 10
86.3480395047
 20
118.1608556422
 11
88.4693686801
 21
116.9361331652
  0
LINE
  5
340
100
AcDbEntity
  8
0
100
AcDbLine
 62
7
  6
BYLAYER
 10
89.8835920737
 20
116.1196537905
 11
92.0049212492
 21
114.8949313134
  0
LINE
  5
341
100
AcDbEntity
  8
0
100
AcDbLine
 62
7
  6
BYLAYER
 10
60.4453699916
 20
133.5942457852
 11
51.9600532898
 21
138.4931350887
  0
LINE
  5
342
100
AcDbEntity
  8
0
100
AcDbLine
 62
7
  6
BYLAYER
 10
104.5741110021
 20
108.5162352401
 11
94.6919176688
 21
114.2217917413
  0
LINE
  5
343
100
AcDbEntity
  8
0
100
AcDbLine
 62
7
  6
BYLAYER
 10
68.7241547263
 20
129.2144693465
 11
64.5690619501
 21
131.6134425099
  0
LINE
  5
344
100
AcDbEntity
  8
0
100
AcDbLine
 62
7
  6
BYLAYER
 10
105.8280476698
 20
88.0927805105
 11
105.828042324
 21
103.8104127455
  0
LINE
  5
345
100
AcDbEntity
  8
0
100
AcDbLine
 62
7
  6
BYLAYER
 10
105.8280782658
 20
42.4502770471
 11
105.8280655268
 21
61.4540749575
  0
LINE
  5
346
100
AcDbEntity
  8
0
100
AcDbLine
 62
7
  6
BYLAYER
 10
71.3284314789
 20
37.2468298996
 11
66.2780000153
 21
34.4327456721
  0
LINE
  5
347
100
AcDbEntity
  8
0
100
AcDbLine
 62
7
  6
BYLAYER
 10
60.821404047
 20
134.5313178259
 11
59.5486065418
 21
135.2661512215
  0
LINE
  5
348
100
AcDbEntity
  8
0
100
AcDbLine
 62
7
  6
BYLAYER
 10
58.1343870915
 20
136.0826327721
 11
56.8615895862
 21
136.8174661676
  0
LINE
  5
349
100
AcDbEntity
  8
0
100
AcDbLine
 62
7
  6
BYLAYER
 10
55.4473701359
 20
137.6339477181
 11
54.1745726307
 21
138.3687811136
  0
LINE
  5
34A
100
AcDbEntity
  8
0
100
AcDbLine
 62
7
  6
BYLAYER
 10
94.691917775
 20
115.629785502
 11
69.943008386
 21
129.9181745589
  0
LINE
  5
34B
100
AcDbEntity
  8
0
100
AcDbLine
 62
7
  6
BYLAYER
 10
76.6959433546
 20
127.1214863105
 11
85.1812600564
 21
122.222597007
  0
LINE
  5
34C
100
AcDbEntity
  8
0
100
AcDbLine
 62
7
  6
BYLAYER
 10
55.9423322237
 20
139.3893914983
 11
57.215129729
 21
138.6545581028
  0
LINE
  5
34D
100
AcDbEntity
  8
0
100
AcDbLine
 62
7
  6
BYLAYER
 10
58.6293491793
 20
137.8380765523
 11
59.9021466845
 21
137.1032431568
  0
LINE
  5
34E
100
AcDbEntity
  8
0
100
AcDbLine
 62
7
  6
BYLAYER
 10
61.3163661348
 20
136.2867616062
 11
62.5891636401
 21
135.5519282106
  0
LINE
  5
34F
100
AcDbEntity
  8
0
100
AcDbLine
 62
7
  6
BYLAYER
 10
64.5690620386
 20
135.6335814336
 11
56.0837453369
 21
140.5324707371
  0
LINE
  5
350
100
AcDbEntity
  8
0
100
AcDbLine
 62
7
  6
BYLAYER
 10
71.6572094057
 20
30.1926226539
 11
85.3220269203
 21
38.0820496293
  0
LINE
  5
351
100
AcDbEntity
  8
0
100
AcDbLine
 62
7
  6
BYLAYER
 10
104.5741110021
 20
108.5162352401
 11
105.828042324
 21
103.8104127455
  0
LINE
  5
352
100
AcDbEntity
  8
0
100
AcDbLine
 62
7
  6
BYLAYER
 10
100.4543548042
 20
39.347740274
 11
105.8280782658
 21
42.4502770471
  0
LINE
  5
353
100
AcDbEntity
  8
0
100
AcDbLine
 62
7
  6
BYLAYER
 10
91.6857919607
 20
32.162261786
 11
98.2973106675
 21
35.9794584983
  0
LINE
  5
354
100
AcDbEntity
  8
0
100
AcDbLine
 62
7
  6
BYLAYER
 10
83.7318302303
 20
26.2634995589
 11
84.4389608211
 21
26.6717614357
  0
LINE
  5
355
100
AcDbEntity
  8
0
100
AcDbLine
 62
7
  6
BYLAYER
 10
87.6381627183
 20
27.8656416387
 11
94.3383899148
 21
31.734057384
  0
LINE
  5
356
100
AcDbEntity
  8
0
100
AcDbLine
 62
7
  6
BYLAYER
 10
87.6381626771
 20
28.1240143452
 11
84.438960756
 21
27.0800163775
  0
ARC
  5
357
100
AcDbEntity
  8
0
100
AcDbCircle
 62
7
  6
BYLAYER
 10
-166.771989803
 20
-277.7804943034
 40
410.277356461
100
AcDbArc
 50
57.6815864461
 51
58.5348363966
  0
ARC
  5
358
100
AcDbEntity
  8
0
100
AcDbCircle
 62
7
  6
BYLAYER
 10
-165.5952235791
 20
-275.8165551493
 40
407.7137797658
100
AcDbArc
 50
57.6733354557
 51
58.5344807318
  0
ARC
  5
359
100
AcDbEntity
  8
0
100
AcDbCircle
 62
7
  6
BYLAYER
 10
-159.7639937457
 20
-266.3183122441
 40
396.8425506002
100
AcDbArc
 50
58.6653777247
 51
59.92746133
  0
ARC
  5
35A
100
AcDbEntity
  8
0
100
AcDbCircle
 62
7
  6
BYLAYER
 10
-158.1148681297
 20
-263.4908620543
 40
393.2957793382
100
AcDbArc
 50
58.6590343649
 51
59.9316251388
  0
ARC
  5
35B
100
AcDbEntity
  8
0
100
AcDbCircle
 62
7
  6
BYLAYER
 10
-152.4380878695
 20
-253.7033249161
 40
382.2546414262
100
AcDbArc
 50
60.0648073595
 51
61.3631152055
  0
ARC
  5
35C
100
AcDbEntity
  8
0
100
AcDbCircle
 62
7
  6
BYLAYER
 10
-150.9382634569
 20
-251.0095787453
 40
378.8983052057
100
AcDbArc
 50
60.0609556317
 51
61.3693665814
  0
ARC
  5
35D
100
AcDbEntity
  8
0
100
AcDbCircle
 62
7
  6
BYLAYER
 10
-147.4674689005
 20
-244.6638539963
 40
371.6654148873
100
AcDbArc
 50
61.5029056214
 51
61.7448113547
  0
ARC
  5
35E
100
AcDbEntity
  8
0
100
AcDbCircle
 62
7
  6
BYLAYER
 10
-145.3703628196
 20
-240.74203059
 40
367.2181129958
100
AcDbArc
 50
61.7646351207
 51
62.4330483214
  0
SPLINE
  5
35F
100
AcDbEntity
  8
0
100
AcDbSpline
 62
7
  6
BYLAYER
 70
0
 71
3
 72
11
 73
7
 74
0
 42
0.0000001
 43
0.0000001
 44
0.0000000001
 40
0.0
 40
0.0
 40
0.0
 40
0.0
 40
0.2177648099
 40
0.450895039
 40
0.7103684961
 40
1.0
 40
1.0
 40
1.0
 40
1.0
 10
37.9576549384
 20
111.7875904924
 30
0.0
 10
37.9576594771
 20
111.7990159441
 30
0.0
 10
37.9618638374
 20
111.8228331783
 30
0.0
 10
37.9799290342
 20
111.856019682
 30
0.0
 10
38.0084760079
 20
111.8860107789
 30
0.0
 10
38.0323555232
 20
111.9024647337
 30
0.0
 10
38.0455157323
 20
111.9100627386
 30
0.0
  0
SPLINE
  5
360
100
AcDbEntity
  8
0
100
AcDbSpline
 62
7
  6
BYLAYER
 70
0
 71
3
 72
11
 73
7
 74
0
 42
0.0000001
 43
0.0000001
 44
0.0000000001
 40
0.0
 40
0.0
 40
0.0
 40
0.0
 40
0.2177648099
 40
0.450895039
 40
0.7103684961
 40
1.0
 40
1.0
 40
1.0
 40
1.0
 10
36.1898953454
 20
110.7669801077
 30
0.0
 10
36.189899884
 20
110.7784055594
 30
0.0
 10
36.1941042444
 20
110.8022227936
 30
0.0
 10
36.2121694412
 20
110.8354092973
 30
0.0
 10
36.2407164148
 20
110.8654003942
 30
0.0
 10
36.2645959302
 20
110.881854349
 30
0.0
 10
36.2777561393
 20
110.889452354
 30
0.0
  0
SPLINE
  5
361
100
AcDbEntity
  8
0
100
AcDbSpline
 62
7
  6
BYLAYER
 70
0
 71
3
 72
11
 73
7
 74
0
 42
0.0000001
 43
0.0000001
 44
0.0000000001
 40
0.0
 40
0.0
 40
0.0
 40
0.0
 40
0.2177648099
 40
0.450895039
 40
0.7103684961
 40
1.0
 40
1.0
 40
1.0
 40
1.0
 10
34.4221357524
 20
109.746369723
 30
0.0
 10
34.422140291
 20
109.7577951747
 30
0.0
 10
34.4263446513
 20
109.7816124089
 30
0.0
 10
34.4444098482
 20
109.8147989127
 30
0.0
 10
34.4729568218
 20
109.8447900096
 30
0.0
 10
34.4968363371
 20
109.8612439643
 30
0.0
 10
34.5099965463
 20
109.8688419693
 30
0.0
  0
SPLINE
  5
362
100
AcDbEntity
  8
0
100
AcDbSpline
 62
7
  6
BYLAYER
 70
0
 71
3
 72
11
 73
7
 74
0
 42
0.0000001
 43
0.0000001
 44
0.0000000001
 40
0.0
 40
0.0
 40
0.0
 40
0.0
 40
0.2177648099
 40
0.450895039
 40
0.7103684961
 40
1.0
 40
1.0
 40
1.0
 40
1.0
 10
32.6543761593
 20
108.7257593384
 30
0.0
 10
32.654380698
 20
108.7371847901
 30
0.0
 10
32.6585850583
 20
108.7610020242
 30
0.0
 10
32.6766502551
 20
108.794188528
 30
0.0
 10
32.7051972287
 20
108.8241796249
 30
0.0
 10
32.7290767441
 20
108.8406335797
 30
0.0
 10
32.7422369532
 20
108.8482315846
 30
0.0
  0
SPLINE
  5
363
100
AcDbEntity
  8
0
100
AcDbSpline
 62
7
  6
BYLAYER
 70
0
 71
3
 72
11
 73
7
 74
0
 42
0.0000001
 43
0.0000001
 44
0.0000000001
 40
0.0
 40
0.0
 40
0.0
 40
0.0
 40
0.2177648099
 40
0.450895039
 40
0.7103684961
 40
1.0
 40
1.0
 40
1.0
 40
1.0
 10
30.8866165663
 20
107.7051489537
 30
0.0
 10
30.8866211049
 20
107.7165744054
 30
0.0
 10
30.8908254652
 20
107.7403916396
 30
0.0
 10
30.9088906621
 20
107.7735781433
 30
0.0
 10
30.9374376357
 20
107.8035692402
 30
0.0
 10
30.961317151
 20
107.820023195
 30
0.0
 10
30.9744773602
 20
107.8276211999
 30
0.0
  0
SPLINE
  5
364
100
AcDbEntity
  8
0
100
AcDbSpline
 62
7
  6
BYLAYER
 70
0
 71
3
 72
17
 73
13
 74
0
 42
0.0000001
 43
0.0000001
 44
0.0000000001
 40
0.0
 40
0.0
 40
0.0
 40
0.0
 40
0.1286884471
 40
0.2702796799
 40
0.4174325438
 40
0.5617749897
 40
0.6954478159
 40
0.812711955
 40
0.8646769759
 40
0.9125101224
 40
0.9571398151
 40
1.0
 40
1.0
 40
1.0
 40
1.0
 10
30.9744773602
 20
107.8276211999
 30
0.0
 10
30.9966843469
 20
107.8404423332
 30
0.0
 10
31.0469649948
 20
107.861187961
 30
0.0
 10
31.1289114433
 20
107.8775835436
 30
0.0
 10
31.2155849774
 20
107.8799828758
 30
0.0
 10
31.2999114048
 20
107.8681335761
 30
0.0
 10
31.3750551747
 20
107.8430347069
 30
0.0
 10
31.4273177295
 20
107.8112218551
 30
0.0
 10
31.45798788
 20
107.7804403141
 30
0.0
 10
31.4742818008
 20
107.7564753908
 30
0.0
 10
31.4843221544
 20
107.731197201
 30
0.0
 10
31.4866073817
 20
107.7136892745
 30
0.0
 10
31.4866039892
 20
107.705148981
 30
0.0
  0
SPLINE
  5
365
100
AcDbEntity
  8
0
100
AcDbSpline
 62
7
  6
BYLAYER
 70
0
 71
3
 72
17
 73
13
 74
0
 42
0.0000001
 43
0.0000001
 44
0.0000000001
 40
0.0
 40
0.0
 40
0.0
 40
0.0
 40
0.1286884471
 40
0.2702796799
 40
0.4174325438
 40
0.5617749897
 40
0.6954478159
 40
0.812711955
 40
0.8646769759
 40
0.9125101224
 40
0.9571398151
 40
1.0
 40
1.0
 40
1.0
 40
1.0
 10
32.7422369532
 20
108.8482315846
 30
0.0
 10
32.76444394
 20
108.8610527178
 30
0.0
 10
32.8147245878
 20
108.8817983457
 30
0.0
 10
32.8966710364
 20
108.8981939282
 30
0.0
 10
32.9833445704
 20
108.9005932604
 30
0.0
 10
33.0676709979
 20
108.8887439608
 30
0.0
 10
33.1428147677
 20
108.8636450916
 30
0.0
 10
33.1950773226
 20
108.8318322397
 30
0.0
 10
33.225747473
 20
108.8010506988
 30
0.0
 10
33.2420413938
 20
108.7770857755
 30
0.0
 10
33.2520817474
 20
108.7518075857
 30
0.0
 10
33.2543669748
 20
108.7342996592
 30
0.0
 10
33.2543635822
 20
108.7257593656
 30
0.0
  0
SPLINE
  5
366
100
AcDbEntity
  8
0
100
AcDbSpline
 62
7
  6
BYLAYER
 70
0
 71
3
 72
17
 73
13
 74
0
 42
0.0000001
 43
0.0000001
 44
0.0000000001
 40
0.0
 40
0.0
 40
0.0
 40
0.0
 40
0.1286884471
 40
0.2702796799
 40
0.4174325438
 40
0.5617749897
 40
0.6954478159
 40
0.812711955
 40
0.8646769759
 40
0.9125101224
 40
0.9571398151
 40
1.0
 40
1.0
 40
1.0
 40
1.0
 10
34.5099965463
 20
109.8688419693
 30
0.0
 10
34.532203533
 20
109.8816631025
 30
0.0
 10
34.5824841808
 20
109.9024087303
 30
0.0
 10
34.6644306294
 20
109.9188043129
 30
0.0
 10
34.7511041635
 20
109.9212036451
 30
0.0
 10
34.8354305909
 20
109.9093543454
 30
0.0
 10
34.9105743608
 20
109.8842554763
 30
0.0
 10
34.9628369156
 20
109.8524426244
 30
0.0
 10
34.993507066
 20
109.8216610834
 30
0.0
 10
35.0098009869
 20
109.7976961602
 30
0.0
 10
35.0198413404
 20
109.7724179704
 30
0.0
 10
35.0221265678
 20
109.7549100439
 30
0.0
 10
35.0221231752
 20
109.7463697503
 30
0.0
  0
SPLINE
  5
367
100
AcDbEntity
  8
0
100
AcDbSpline
 62
7
  6
BYLAYER
 70
0
 71
3
 72
17
 73
13
 74
0
 42
0.0000001
 43
0.0000001
 44
0.0000000001
 40
0.0
 40
0.0
 40
0.0
 40
0.0
 40
0.1286884471
 40
0.2702796799
 40
0.4174325438
 40
0.5617749897
 40
0.6954478159
 40
0.812711955
 40
0.8646769759
 40
0.9125101224
 40
0.9571398151
 40
1.0
 40
1.0
 40
1.0
 40
1.0
 10
36.2777561393
 20
110.889452354
 30
0.0
 10
36.2999631261
 20
110.9022734872
 30
0.0
 10
36.3502437739
 20
110.923019115
 30
0.0
 10
36.4321902224
 20
110.9394146976
 30
0.0
 10
36.5188637565
 20
110.9418140298
 30
0.0
 10
36.6031901839
 20
110.9299647301
 30
0.0
 10
36.6783339538
 20
110.904865861
 30
0.0
 10
36.7305965086
 20
110.8730530091
 30
0.0
 10
36.7612666591
 20
110.8422714681
 30
0.0
 10
36.7775605799
 20
110.8183065448
 30
0.0
 10
36.7876009335
 20
110.793028355
 30
0.0
 10
36.7898861608
 20
110.7755204286
 30
0.0
 10
36.7898827683
 20
110.766980135
 30
0.0
  0
SPLINE
  5
368
100
AcDbEntity
  8
0
100
AcDbSpline
 62
7
  6
BYLAYER
 70
0
 71
3
 72
17
 73
13
 74
0
 42
0.0000001
 43
0.0000001
 44
0.0000000001
 40
0.0
 40
0.0
 40
0.0
 40
0.0
 40
0.1286884471
 40
0.2702796799
 40
0.4174325438
 40
0.5617749897
 40
0.6954478159
 40
0.812711955
 40
0.8646769759
 40
0.9125101224
 40
0.9571398151
 40
1.0
 40
1.0
 40
1.0
 40
1.0
 10
38.0455157323
 20
111.9100627386
 30
0.0
 10
38.0677227191
 20
111.9228838719
 30
0.0
 10
38.1180033669
 20
111.9436294997
 30
0.0
 10
38.1999498155
 20
111.9600250823
 30
0.0
 10
38.2866233495
 20
111.9624244145
 30
0.0
 10
38.370949777
 20
111.9505751148
 30
0.0
 10
38.4460935469
 20
111.9254762456
 30
0.0
 10
38.4983561017
 20
111.8936633938
 30
0.0
 10
38.5290262521
 20
111.8628818528
 30
0.0
 10
38.5453201729
 20
111.8389169295
 30
0.0
 10
38.5553605265
 20
111.8136387397
 30
0.0
 10
38.5576457539
 20
111.7961308133
 30
0.0
 10
38.5576423613
 20
111.7875905197
 30
0.0
  0
SPLINE
  5
369
100
AcDbEntity
  8
0
100
AcDbSpline
 62
7
  6
BYLAYER
 70
0
 71
3
 72
11
 73
7
 74
0
 42
0.0000001
 43
0.0000001
 44
0.0000000001
 40
0.0
 40
0.0
 40
0.0
 40
0.0
 40
0.2177648099
 40
0.450895039
 40
0.7103684961
 40
1.0
 40
1.0
 40
1.0
 40
1.0
 10
36.7898827683
 20
110.766980135
 30
0.0
 10
36.7898782296
 20
110.7555546833
 30
0.0
 10
36.7856738693
 20
110.7317374491
 30
0.0
 10
36.7676086725
 20
110.6985509454
 30
0.0
 10
36.7390616989
 20
110.6685598485
 30
0.0
 10
36.7151821835
 20
110.6521058937
 30
0.0
 10
36.7020219744
 20
110.6445078888
 30
0.0
  0
SPLINE
  5
36A
100
AcDbEntity
  8
0
100
AcDbSpline
 62
7
  6
BYLAYER
 70
0
 71
3
 72
11
 73
7
 74
0
 42
0.0000001
 43
0.0000001
 44
0.0000000001
 40
0.0
 40
0.0
 40
0.0
 40
0.0
 40
0.2177648099
 40
0.450895039
 40
0.7103684961
 40
1.0
 40
1.0
 40
1.0
 40
1.0
 10
35.0221231752
 20
109.7463697503
 30
0.0
 10
35.0221186366
 20
109.7349442986
 30
0.0
 10
35.0179142763
 20
109.7111270644
 30
0.0
 10
34.9998490794
 20
109.6779405607
 30
0.0
 10
34.9713021058
 20
109.6479494638
 30
0.0
 10
34.9474225905
 20
109.631495509
 30
0.0
 10
34.9342623813
 20
109.6238975041
 30
0.0
  0
SPLINE
  5
36B
100
AcDbEntity
  8
0
100
AcDbSpline
 62
7
  6
BYLAYER
 70
0
 71
3
 72
11
 73
7
 74
0
 42
0.0000001
 43
0.0000001
 44
0.0000000001
 40
0.0
 40
0.0
 40
0.0
 40
0.0
 40
0.2177648099
 40
0.450895039
 40
0.7103684961
 40
1.0
 40
1.0
 40
1.0
 40
1.0
 10
33.2543635822
 20
108.7257593656
 30
0.0
 10
33.2543590436
 20
108.714333914
 30
0.0
 10
33.2501546832
 20
108.6905166798
 30
0.0
 10
33.2320894864
 20
108.657330176
 30
0.0
 10
33.2035425128
 20
108.6273390791
 30
0.0
 10
33.1796629974
 20
108.6108851244
 30
0.0
 10
33.1665027883
 20
108.6032871194
 30
0.0
  0
SPLINE
  5
36C
100
AcDbEntity
  8
0
100
AcDbSpline
 62
7
  6
BYLAYER
 70
0
 71
3
 72
11
 73
7
 74
0
 42
0.0000001
 43
0.0000001
 44
0.0000000001
 40
0.0
 40
0.0
 40
0.0
 40
0.0
 40
0.2177648099
 40
0.450895039
 40
0.7103684961
 40
1.0
 40
1.0
 40
1.0
 40
1.0
 10
38.5576423613
 20
111.7875905197
 30
0.0
 10
38.5576378227
 20
111.776165068
 30
0.0
 10
38.5534334624
 20
111.7523478338
 30
0.0
 10
38.5353682655
 20
111.7191613301
 30
0.0
 10
38.5068212919
 20
111.6891702332
 30
0.0
 10
38.4829417766
 20
111.6727162784
 30
0.0
 10
38.4697815674
 20
111.6651182735
 30
0.0
  0
SPLINE
  5
36D
100
AcDbEntity
  8
0
100
AcDbSpline
 62
7
  6
BYLAYER
 70
0
 71
3
 72
17
 73
13
 74
0
 42
0.0000001
 43
0.0000001
 44
0.0000000001
 40
0.0
 40
0.0
 40
0.0
 40
0.0
 40
0.1286884471
 40
0.2702796799
 40
0.4174325438
 40
0.5617749897
 40
0.6954478159
 40
0.812711955
 40
0.8646769759
 40
0.9125101224
 40
0.9571398151
 40
1.0
 40
1.0
 40
1.0
 40
1.0
 10
31.3987431953
 20
107.5826767347
 30
0.0
 10
31.3765362085
 20
107.5698556015
 30
0.0
 10
31.3262555607
 20
107.5491099737
 30
0.0
 10
31.2443091121
 20
107.5327143911
 30
0.0
 10
31.1576355781
 20
107.5303150589
 30
0.0
 10
31.0733091506
 20
107.5421643586
 30
0.0
 10
30.9981653807
 20
107.5672632277
 30
0.0
 10
30.9459028259
 20
107.5990760796
 30
0.0
 10
30.9152326755
 20
107.6298576206
 30
0.0
 10
30.8989387546
 20
107.6538225439
 30
0.0
 10
30.8888984011
 20
107.6791007336
 30
0.0
 10
30.8866131737
 20
107.6966086601
 30
0.0
 10
30.8866165663
 20
107.7051489537
 30
0.0
  0
SPLINE
  5
36E
100
AcDbEntity
  8
0
100
AcDbSpline
 62
7
  6
BYLAYER
 70
0
 71
3
 72
17
 73
13
 74
0
 42
0.0000001
 43
0.0000001
 44
0.0000000001
 40
0.0
 40
0.0
 40
0.0
 40
0.0
 40
0.1286884471
 40
0.2702796799
 40
0.4174325438
 40
0.5617749897
 40
0.6954478159
 40
0.812711955
 40
0.8646769759
 40
0.9125101224
 40
0.9571398151
 40
1.0
 40
1.0
 40
1.0
 40
1.0
 10
33.1665027883
 20
108.6032871194
 30
0.0
 10
33.1442958015
 20
108.5904659862
 30
0.0
 10
33.0940151537
 20
108.5697203584
 30
0.0
 10
33.0120687052
 20
108.5533247758
 30
0.0
 10
32.9253951711
 20
108.5509254436
 30
0.0
 10
32.8410687437
 20
108.5627747433
 30
0.0
 10
32.7659249738
 20
108.5878736124
 30
0.0
 10
32.7136624189
 20
108.6196864643
 30
0.0
 10
32.6829922685
 20
108.6504680052
 30
0.0
 10
32.6666983477
 20
108.6744329285
 30
0.0
 10
32.6566579941
 20
108.6997111183
 30
0.0
 10
32.6543727668
 20
108.7172190448
 30
0.0
 10
32.6543761593
 20
108.7257593384
 30
0.0
  0
SPLINE
  5
36F
100
AcDbEntity
  8
0
100
AcDbSpline
 62
7
  6
BYLAYER
 70
0
 71
3
 72
17
 73
13
 74
0
 42
0.0000001
 43
0.0000001
 44
0.0000000001
 40
0.0
 40
0.0
 40
0.0
 40
0.0
 40
0.1286884471
 40
0.2702796799
 40
0.4174325438
 40
0.5617749897
 40
0.6954478159
 40
0.812711955
 40
0.8646769759
 40
0.9125101224
 40
0.9571398151
 40
1.0
 40
1.0
 40
1.0
 40
1.0
 10
34.9342623813
 20
109.6238975041
 30
0.0
 10
34.9120553946
 20
109.6110763708
 30
0.0
 10
34.8617747468
 20
109.590330743
 30
0.0
 10
34.7798282982
 20
109.5739351604
 30
0.0
 10
34.6931547641
 20
109.5715358283
 30
0.0
 10
34.6088283367
 20
109.5833851279
 30
0.0
 10
34.5336845668
 20
109.6084839971
 30
0.0
 10
34.481422012
 20
109.6402968489
 30
0.0
 10
34.4507518616
 20
109.6710783899
 30
0.0
 10
34.4344579407
 20
109.6950433132
 30
0.0
 10
34.4244175872
 20
109.720321503
 30
0.0
 10
34.4221323598
 20
109.7378294295
 30
0.0
 10
34.4221357524
 20
109.746369723
 30
0.0
  0
SPLINE
  5
370
100
AcDbEntity
  8
0
100
AcDbSpline
 62
7
  6
BYLAYER
 70
0
 71
3
 72
17
 73
13
 74
0
 42
0.0000001
 43
0.0000001
 44
0.0000000001
 40
0.0
 40
0.0
 40
0.0
 40
0.0
 40
0.1286884471
 40
0.2702796799
 40
0.4174325438
 40
0.5617749897
 40
0.6954478159
 40
0.812711955
 40
0.8646769759
 40
0.9125101224
 40
0.9571398151
 40
1.0
 40
1.0
 40
1.0
 40
1.0
 10
36.7020219744
 20
110.6445078888
 30
0.0
 10
36.6798149876
 20
110.6316867555
 30
0.0
 10
36.6295343398
 20
110.6109411277
 30
0.0
 10
36.5475878912
 20
110.5945455451
 30
0.0
 10
36.4609143572
 20
110.5921462129
 30
0.0
 10
36.3765879297
 20
110.6039955126
 30
0.0
 10
36.3014441598
 20
110.6290943818
 30
0.0
 10
36.249181605
 20
110.6609072336
 30
0.0
 10
36.2185114546
 20
110.6916887746
 30
0.0
 10
36.2022175338
 20
110.7156536979
 30
0.0
 10
36.1921771802
 20
110.7409318877
 30
0.0
 10
36.1898919528
 20
110.7584398142
 30
0.0
 10
36.1898953454
 20
110.7669801077
 30
0.0
  0
SPLINE
  5
371
100
AcDbEntity
  8
0
100
AcDbSpline
 62
7
  6
BYLAYER
 70
0
 71
3
 72
17
 73
13
 74
0
 42
0.0000001
 43
0.0000001
 44
0.0000000001
 40
0.0
 40
0.0
 40
0.0
 40
0.0
 40
0.1286884471
 40
0.2702796799
 40
0.4174325438
 40
0.5617749897
 40
0.6954478159
 40
0.812711955
 40
0.8646769759
 40
0.9125101224
 40
0.9571398151
 40
1.0
 40
1.0
 40
1.0
 40
1.0
 10
38.4697815674
 20
111.6651182735
 30
0.0
 10
38.4475745807
 20
111.6522971402
 30
0.0
 10
38.3972939328
 20
111.6315515124
 30
0.0
 10
38.3153474843
 20
111.6151559298
 30
0.0
 10
38.2286739502
 20
111.6127565976
 30
0.0
 10
38.1443475228
 20
111.6246058973
 30
0.0
 10
38.0692037529
 20
111.6497047665
 30
0.0
 10
38.0169411981
 20
111.6815176183
 30
0.0
 10
37.9862710476
 20
111.7122991593
 30
0.0
 10
37.9699771268
 20
111.7362640826
 30
0.0
 10
37.9599367732
 20
111.7615422724
 30
0.0
 10
37.9576515459
 20
111.7790501988
 30
0.0
 10
37.9576549384
 20
111.7875904924
 30
0.0
  0
SPLINE
  5
372
100
AcDbEntity
  8
0
100
AcDbSpline
 62
7
  6
BYLAYER
 70
0
 71
3
 72
11
 73
7
 74
0
 42
0.0000001
 43
0.0000001
 44
0.0000000001
 40
0.0
 40
0.0
 40
0.0
 40
0.0
 40
0.2177648099
 40
0.450895039
 40
0.7103684961
 40
1.0
 40
1.0
 40
1.0
 40
1.0
 10
31.4866039892
 20
107.705148981
 30
0.0
 10
31.4865994505
 20
107.6937235293
 30
0.0
 10
31.4823950902
 20
107.6699062951
 30
0.0
 10
31.4643298934
 20
107.6367197913
 30
0.0
 10
31.4357829197
 20
107.6067286945
 30
0.0
 10
31.4119034044
 20
107.5902747397
 30
0.0
 10
31.3987431953
 20
107.5826767347
 30
0.0
  0
SPLINE
  5
373
100
AcDbEntity
  8
0
100
AcDbSpline
 62
7
  6
BYLAYER
 70
0
 71
3
 72
12
 73
8
 74
0
 42
0.0000001
 43
0.0000001
 44
0.0000000001
 40
0.0
 40
0.0
 40
0.0
 40
0.0
 40
0.108159647
 40
0.218362144
 40
0.4513574771
 40
0.7104306883
 40
1.0
 40
1.0
 40
1.0
 40
1.0
 10
50.5362147346
 20
129.6878943803
 30
0.0
 10
50.558347009
 20
129.7006751852
 30
0.0
 10
50.6009050885
 20
129.7303722796
 30
0.0
 10
50.677243047
 20
129.8054616806
 30
0.0
 10
50.7528528869
 20
129.9287197875
 30
0.0
 10
50.8054507123
 20
130.1073760133
 30
0.0
 10
50.8158234039
 20
130.2374801065
 30
0.0
 10
50.8158237063
 20
130.3059037015
 30
0.0
  0
SPLINE
  5
374
100
AcDbEntity
  8
0
100
AcDbSpline
 62
7
  6
BYLAYER
 70
0
 71
3
 72
12
 73
8
 74
0
 42
0.0000001
 43
0.0000001
 44
0.0000000001
 40
0.0
 40
0.0
 40
0.0
 40
0.0
 40
0.108159647
 40
0.218362144
 40
0.4513574771
 40
0.7104306883
 40
1.0
 40
1.0
 40
1.0
 40
1.0
 10
55.9102486457
 20
126.5852644881
 30
0.0
 10
55.9323809201
 20
126.598045293
 30
0.0
 10
55.9749389997
 20
126.6277423874
 30
0.0
 10
56.0512769581
 20
126.7028317884
 30
0.0
 10
56.126886798
 20
126.8260898953
 30
0.0
 10
56.1794846234
 20
127.0047461211
 30
0.0
 10
56.189857315
 20
127.1348502143
 30
0.0
 10
56.1898576174
 20
127.2032738092
 30
0.0
  0
SPLINE
  5
375
100
AcDbEntity
  8
0
100
AcDbSpline
 62
7
  6
BYLAYER
 70
0
 71
3
 72
12
 73
8
 74
0
 42
0.0000001
 43
0.0000001
 44
0.0000000001
 40
0.0
 40
0.0
 40
0.0
 40
0.0
 40
0.108159647
 40
0.218362144
 40
0.4513574771
 40
0.7104306883
 40
1.0
 40
1.0
 40
1.0
 40
1.0
 10
53.2232316901
 20
128.1365794342
 30
0.0
 10
53.2453639646
 20
128.1493602391
 30
0.0
 10
53.2879220441
 20
128.1790573335
 30
0.0
 10
53.3642600025
 20
128.2541467345
 30
0.0
 10
53.4398698424
 20
128.3774048414
 30
0.0
 10
53.4924676679
 20
128.5560610672
 30
0.0
 10
53.5028403595
 20
128.6861651604
 30
0.0
 10
53.5028406619
 20
128.7545887553
 30
0.0
  0
SPLINE
  5
376
100
AcDbEntity
  8
0
100
AcDbSpline
 62
7
  6
BYLAYER
 70
0
 71
3
 72
13
 73
9
 74
0
 42
0.0000001
 43
0.0000001
 44
0.0000000001
 40
0.0
 40
0.0
 40
0.0
 40
0.0
 40
0.1142246536
 40
0.2375577669
 40
0.499998008
 40
0.7624393352
 40
0.8857737441
 40
1.0
 40
1.0
 40
1.0
 40
1.0
 10
51.7350571032
 20
138.4708475388
 30
0.0
 10
51.713280128
 20
138.458274671
 30
0.0
 10
51.6702512666
 20
138.4281049669
 30
0.0
 10
51.5896882874
 20
138.3527162832
 30
0.0
 10
51.504600081
 20
138.2364806701
 30
0.0
 10
51.4464813796
 20
138.104673951
 30
0.0
 10
51.4214740649
 20
137.9972091988
 30
0.0
 10
51.4168604832
 20
137.9448596548
 30
0.0
 10
51.4168603721
 20
137.9197134544
 30
0.0
  0
SPLINE
  5
377
100
AcDbEntity
  8
0
100
AcDbSpline
 62
7
  6
BYLAYER
 70
0
 71
3
 72
18
 73
14
 74
0
 42
0.0000001
 43
0.0000001
 44
0.0000000001
 40
0.0
 40
0.0
 40
0.0
 40
0.0
 40
0.0446071661
 40
0.0901240009
 40
0.1373912437
 40
0.1870758957
 40
0.2396633349
 40
0.2954535662
 40
0.4168621441
 40
0.5508434375
 40
0.6950790099
 40
0.8461407941
 40
1.0
 40
1.0
 40
1.0
 40
1.0
 10
50.992279778
 20
129.0204331577
 30
0.0
 10
50.957122423
 20
129.0001314128
 30
0.0
 10
50.8822347423
 20
128.9654334026
 30
0.0
 10
50.760779749
 20
128.9333492739
 30
0.0
 10
50.6311347078
 20
128.9212129437
 30
0.0
 10
50.494801554
 20
128.9290093655
 30
0.0
 10
50.3531990839
 20
128.956509565
 30
0.0
 10
50.1537427938
 20
129.0207575518
 30
0.0
 10
49.9000493366
 20
129.1509471285
 30
0.0
 10
49.6078816086
 20
129.3697707015
 30
0.0
 10
49.3306263901
 20
129.6467330866
 30
0.0
 10
49.0795119583
 20
129.9705044944
 30
0.0
 10
48.9361812625
 20
130.2090343049
 30
0.0
 10
48.8712671241
 20
130.3331101145
 30
0.0
  0
SPLINE
  5
378
100
AcDbEntity
  8
0
100
AcDbSpline
 62
7
  6
BYLAYER
 70
0
 71
3
 72
18
 73
14
 74
0
 42
0.0000001
 43
0.0000001
 44
0.0000000001
 40
0.0
 40
0.0
 40
0.0
 40
0.0
 40
0.0439684304
 40
0.0889606718
 40
0.1359136531
 40
0.1855454724
 40
0.2943997689
 40
0.3541764515
 40
0.4173836809
 40
0.5529337095
 40
0.6981149997
 40
0.8487148661
 40
1.0
 40
1.0
 40
1.0
 40
1.0
 10
53.6792957474
 20
127.4691199181
 30
0.0
 10
53.6416024646
 20
127.4473491749
 30
0.0
 10
53.5608747245
 20
127.4105906223
 30
0.0
 10
53.4294773504
 20
127.3785058242
 30
0.0
 10
53.2889420226
 20
127.3694156398
 30
0.0
 10
53.0857546938
 20
127.3883816393
 30
0.0
 10
52.8772737442
 20
127.454576416
 30
0.0
 10
52.671833847
 20
127.5572760422
 30
0.0
 10
52.4546469664
 20
127.6934418755
 30
0.0
 10
52.1912480003
 20
127.9116830543
 30
0.0
 10
51.9042982088
 20
128.2296342205
 30
0.0
 10
51.6523872361
 20
128.5949425515
 30
0.0
 10
51.5144275511
 20
128.8611323613
 30
0.0
 10
51.4542998457
 20
128.9983051033
 30
0.0
  0
SPLINE
  5
379
100
AcDbEntity
  8
0
100
AcDbSpline
 62
7
  6
BYLAYER
 70
0
 71
3
 72
11
 73
7
 74
0
 42
0.0000001
 43
0.0000001
 44
0.0000000001
 40
0.0
 40
0.0
 40
0.0
 40
0.0
 40
0.2177800633
 40
0.450907749
 40
0.7102818966
 40
1.0
 40
1.0
 40
1.0
 40
1.0
 10
51.9600522717
 20
138.4931333268
 30
0.0
 10
51.9452094403
 20
138.5017035922
 30
0.0
 10
51.9111034005
 20
138.5140776393
 30
0.0
 10
51.8544571206
 20
138.5155145466
 30
0.0
 10
51.794082762
 20
138.5009352218
 30
0.0
 10
51.754803345
 20
138.482247969
 30
0.0
 10
51.7350571032
 20
138.4708475388
 30
0.0
  0
SPLINE
  5
37A
100
AcDbEntity
  8
0
100
AcDbSpline
 62
7
  6
BYLAYER
 70
0
 71
3
 72
11
 73
7
 74
0
 42
0.0000001
 43
0.0000001
 44
0.0000000001
 40
0.0
 40
0.0
 40
0.0
 40
0.0
 40
0.2177822285
 40
0.4509087634
 40
0.7102954166
 40
1.0
 40
1.0
 40
1.0
 40
1.0
 10
60.4453688689
 20
133.5942438405
 30
0.0
 10
60.4602129544
 20
133.585673796
 30
0.0
 10
60.4879856563
 20
133.5623254989
 30
0.0
 10
60.5175528422
 20
133.513981569
 30
0.0
 10
60.5351138661
 20
133.4544037008
 30
0.0
 10
60.5385706281
 20
133.4110411271
 30
0.0
 10
60.5385705273
 20
133.3882401578
 30
0.0
  0
SPLINE
  5
37B
100
AcDbEntity
  8
0
100
AcDbSpline
 62
7
  6
BYLAYER
 70
0
 71
3
 72
17
 73
13
 74
0
 42
0.0000001
 43
0.0000001
 44
0.0000000001
 40
0.0
 40
0.0
 40
0.0
 40
0.0
 40
0.0441679773
 40
0.0902160444
 40
0.1386907346
 40
0.190020668
 40
0.3019357832
 40
0.4263358631
 40
0.5615675672
 40
0.7047509022
 40
0.852228506
 40
1.0
 40
1.0
 40
1.0
 40
1.0
 10
56.2252072009
 20
125.8561990079
 30
0.0
 10
56.1856153538
 20
125.8438858369
 30
0.0
 10
56.1024089546
 20
125.8257788695
 30
0.0
 10
55.9719290915
 20
125.8186972083
 30
0.0
 10
55.8351389906
 20
125.8312563049
 30
0.0
 10
55.640798809
 20
125.8750595621
 30
0.0
 10
55.3899408163
 20
125.9807010298
 30
0.0
 10
55.0970468923
 20
126.1727179704
 30
0.0
 10
54.8143940532
 20
126.4257854649
 30
0.0
 10
54.553169535
 20
126.7298152017
 30
0.0
 10
54.323724902
 20
127.0725848127
 30
0.0
 10
54.1970072661
 20
127.3199403434
 30
0.0
 10
54.1413168012
 20
127.4469901572
 30
0.0
  0
SPLINE
  5
37C
100
AcDbEntity
  8
0
100
AcDbSpline
 62
7
  6
BYLAYER
 70
0
 71
3
 72
20
 73
16
 74
0
 42
0.0000001
 43
0.0000001
 44
0.0000000001
 40
0.0
 40
0.0
 40
0.0
 40
0.0
 40
0.0624058109
 40
0.1288061631
 40
0.2703014024
 40
0.4173598088
 40
0.5616143223
 40
0.6302518623
 40
0.6953785581
 40
0.7563615054
 40
0.8128312904
 40
0.8647632174
 40
0.9125668386
 40
0.9571676247
 40
1.0
 40
1.0
 40
1.0
 40
1.0
 10
53.5028406619
 20
128.7545887553
 30
0.0
 10
53.5028409093
 20
128.8105823758
 30
0.0
 10
53.4952439895
 20
128.9262367192
 30
0.0
 10
53.4527161723
 20
129.1653749544
 30
0.0
 10
53.3500333854
 20
129.4689910039
 30
0.0
 10
53.1644401236
 20
129.8119461355
 30
0.0
 10
52.9645191185
 20
130.0679841249
 30
0.0
 10
52.7846116721
 20
130.2412845593
 30
0.0
 10
52.6467499831
 20
130.3492176199
 30
0.0
 10
52.5066549713
 20
130.4349223439
 30
0.0
 10
52.367165093
 20
130.4965660374
 30
0.0
 10
52.2310616692
 20
130.532734039
 30
0.0
 10
52.1010094343
 20
130.542310022
 30
0.0
 10
51.9799056438
 20
130.5245477545
 30
0.0
 10
51.906534126
 20
130.4940669255
 30
0.0
 10
51.8732533757
 20
130.4748481698
 30
0.0
  0
SPLINE
  5
37D
100
AcDbEntity
  8
0
100
AcDbSpline
 62
7
  6
BYLAYER
 70
0
 71
3
 72
20
 73
16
 74
0
 42
0.0000001
 43
0.0000001
 44
0.0000000001
 40
0.0
 40
0.0
 40
0.0
 40
0.0
 40
0.0624058109
 40
0.1288061631
 40
0.2703014024
 40
0.4173598088
 40
0.5616143223
 40
0.6302518623
 40
0.6953785581
 40
0.7563615054
 40
0.8128312904
 40
0.8647632174
 40
0.9125668386
 40
0.9571676247
 40
1.0
 40
1.0
 40
1.0
 40
1.0
 10
56.1898576174
 20
127.2032738092
 30
0.0
 10
56.1898578649
 20
127.2592674297
 30
0.0
 10
56.182260945
 20
127.3749217731
 30
0.0
 10
56.1397331278
 20
127.6140600083
 30
0.0
 10
56.037050341
 20
127.9176760578
 30
0.0
 10
55.8514570791
 20
128.2606311894
 30
0.0
 10
55.651536074
 20
128.5166691788
 30
0.0
 10
55.4716286277
 20
128.6899696132
 30
0.0
 10
55.3337669387
 20
128.7979026738
 30
0.0
 10
55.1936719268
 20
128.8836073977
 30
0.0
 10
55.0541820486
 20
128.9452510913
 30
0.0
 10
54.9180786247
 20
128.9814190929
 30
0.0
 10
54.7880263899
 20
128.9909950758
 30
0.0
 10
54.6669225994
 20
128.9732328084
 30
0.0
 10
54.5935510816
 20
128.9427519794
 30
0.0
 10
54.5602703313
 20
128.9235332237
 30
0.0
  0
SPLINE
  5
37E
100
AcDbEntity
  8
0
100
AcDbSpline
 62
7
  6
BYLAYER
 70
0
 71
3
 72
20
 73
16
 74
0
 42
0.0000001
 43
0.0000001
 44
0.0000000001
 40
0.0
 40
0.0
 40
0.0
 40
0.0
 40
0.0624058109
 40
0.1288061631
 40
0.2703014024
 40
0.4173598088
 40
0.5616143223
 40
0.6302518623
 40
0.6953785581
 40
0.7563615054
 40
0.8128312904
 40
0.8647632174
 40
0.9125668386
 40
0.9571676247
 40
1.0
 40
1.0
 40
1.0
 40
1.0
 10
50.8158237063
 20
130.3059037015
 30
0.0
 10
50.8158239538
 20
130.3618973219
 30
0.0
 10
50.8082270339
 20
130.4775516653
 30
0.0
 10
50.7656992167
 20
130.7166899005
 30
0.0
 10
50.6630164298
 20
131.02030595
 30
0.0
 10
50.477423168
 20
131.3632610816
 30
0.0
 10
50.2775021629
 20
131.619299071
 30
0.0
 10
50.0975947165
 20
131.7925995054
 30
0.0
 10
49.9597330276
 20
131.900532566
 30
0.0
 10
49.8196380157
 20
131.98623729
 30
0.0
 10
49.6801481374
 20
132.0478809835
 30
0.0
 10
49.5440447136
 20
132.0840489851
 30
0.0
 10
49.4139924788
 20
132.0936249681
 30
0.0
 10
49.2928886883
 20
132.0758627006
 30
0.0
 10
49.2195171704
 20
132.0453818716
 30
0.0
 10
49.1862364202
 20
132.0261631159
 30
0.0
  0
SPLINE
  5
37F
100
AcDbEntity
  8
0
100
AcDbSpline
 62
7
  6
BYLAYER
 70
0
 71
3
 72
9
 73
5
 74
0
 42
0.0000001
 43
0.0000001
 44
0.0000000001
 40
0.0
 40
0.0
 40
0.0
 40
0.0
 40
0.2407583665
 40
1.0
 40
1.0
 40
1.0
 40
1.0
 10
60.5385705273
 20
133.3882401578
 30
0.0
 10
60.5385704966
 20
133.3812843483
 30
0.0
 10
60.537859436
 20
133.3523946353
 30
0.0
 10
60.5344412113
 20
133.3235952597
 30
0.0
 10
60.5306139892
 20
133.3019962828
 30
0.0
  0
SPLINE
  5
380
100
AcDbEntity
  8
0
100
AcDbSpline
 62
7
  6
BYLAYER
 70
0
 71
3
 72
12
 73
8
 74
0
 42
0.0000001
 43
0.0000001
 44
0.0000000001
 40
0.0
 40
0.0
 40
0.0
 40
0.0
 40
0.108159647
 40
0.218362144
 40
0.4513574771
 40
0.7104306883
 40
1.0
 40
1.0
 40
1.0
 40
1.0
 10
49.1862364202
 20
132.0261631159
 30
0.0
 10
49.1641041457
 20
132.013382311
 30
0.0
 10
49.1215460662
 20
131.9836852166
 30
0.0
 10
49.0452081078
 20
131.9085958155
 30
0.0
 10
48.9695982678
 20
131.7853377086
 30
0.0
 10
48.9170004424
 20
131.6066814829
 30
0.0
 10
48.9066277508
 20
131.4765773897
 30
0.0
 10
48.9066274484
 20
131.4081537947
 30
0.0
  0
SPLINE
  5
381
100
AcDbEntity
  8
0
100
AcDbSpline
 62
7
  6
BYLAYER
 70
0
 71
3
 72
12
 73
8
 74
0
 42
0.0000001
 43
0.0000001
 44
0.0000000001
 40
0.0
 40
0.0
 40
0.0
 40
0.0
 40
0.108159647
 40
0.218362144
 40
0.4513574771
 40
0.7104306883
 40
1.0
 40
1.0
 40
1.0
 40
1.0
 10
51.8732533757
 20
130.4748481698
 30
0.0
 10
51.8511211013
 20
130.4620673649
 30
0.0
 10
51.8085630217
 20
130.4323702705
 30
0.0
 10
51.7322250633
 20
130.3572808694
 30
0.0
 10
51.6566152234
 20
130.2340227625
 30
0.0
 10
51.604017398
 20
130.0553665368
 30
0.0
 10
51.5936447064
 20
129.9252624436
 30
0.0
 10
51.593644404
 20
129.8568388486
 30
0.0
  0
SPLINE
  5
382
100
AcDbEntity
  8
0
100
AcDbSpline
 62
7
  6
BYLAYER
 70
0
 71
3
 72
15
 73
11
 74
0
 42
0.0000001
 43
0.0000001
 44
0.0000000001
 40
0.0
 40
0.0
 40
0.0
 40
0.0
 40
0.1042470868
 40
0.2211621529
 40
0.3485528227
 40
0.4828206857
 40
0.6195786857
 40
0.7541878668
 40
0.8822163046
 40
1.0
 40
1.0
 40
1.0
 40
1.0
 10
50.7983090145
 20
130.0626849849
 30
0.0
 10
50.7237805781
 20
130.0843552704
 30
0.0
 10
50.5716827345
 20
130.1517069114
 30
0.0
 10
50.3584475316
 20
130.3016513801
 30
0.0
 10
50.1558097792
 20
130.4991078699
 30
0.0
 10
49.9737358636
 20
130.734398196
 30
0.0
 10
49.8210720369
 20
130.9959490744
 30
0.0
 10
49.7054003822
 20
131.2708764019
 30
0.0
 10
49.6324080792
 20
131.545492547
 30
0.0
 10
49.613730898
 20
131.7287003956
 30
0.0
 10
49.6137312856
 20
131.8163938024
 30
0.0
  0
SPLINE
  5
383
100
AcDbEntity
  8
0
100
AcDbSpline
 62
7
  6
BYLAYER
 70
0
 71
3
 72
20
 73
16
 74
0
 42
0.0000001
 43
0.0000001
 44
0.0000000001
 40
0.0
 40
0.0
 40
0.0
 40
0.0
 40
0.0624058109
 40
0.1288061631
 40
0.2703014024
 40
0.4173598088
 40
0.5616143223
 40
0.6302518623
 40
0.6953785581
 40
0.7563615054
 40
0.8128312904
 40
0.8647632174
 40
0.9125668386
 40
0.9571676247
 40
1.0
 40
1.0
 40
1.0
 40
1.0
 10
51.593644404
 20
129.8568388486
 30
0.0
 10
51.5936441565
 20
129.8008452282
 30
0.0
 10
51.6012410764
 20
129.6851908848
 30
0.0
 10
51.6437688936
 20
129.4460526496
 30
0.0
 10
51.7464516804
 20
129.1424366001
 30
0.0
 10
51.9320449423
 20
128.7994814684
 30
0.0
 10
52.1319659474
 20
128.5434434791
 30
0.0
 10
52.3118733937
 20
128.3701430447
 30
0.0
 10
52.4497350827
 20
128.262209984
 30
0.0
 10
52.5898300946
 20
128.1765052601
 30
0.0
 10
52.7293199728
 20
128.1148615666
 30
0.0
 10
52.8654233967
 20
128.0786935649
 30
0.0
 10
52.9954756315
 20
128.069117582
 30
0.0
 10
53.116579422
 20
128.0868798495
 30
0.0
 10
53.1899509398
 20
128.1173606784
 30
0.0
 10
53.2232316901
 20
128.1365794342
 30
0.0
  0
SPLINE
  5
384
100
AcDbEntity
  8
0
100
AcDbSpline
 62
7
  6
BYLAYER
 70
0
 71
3
 72
15
 73
11
 74
0
 42
0.0000001
 43
0.0000001
 44
0.0000000001
 40
0.0
 40
0.0
 40
0.0
 40
0.0
 40
0.1042470868
 40
0.2211621529
 40
0.3485528227
 40
0.4828206857
 40
0.6195786857
 40
0.7541878668
 40
0.8822163046
 40
1.0
 40
1.0
 40
1.0
 40
1.0
 10
53.4853259701
 20
128.5113700388
 30
0.0
 10
53.4107975337
 20
128.5330403243
 30
0.0
 10
53.2586996901
 20
128.6003919653
 30
0.0
 10
53.0454644872
 20
128.750336434
 30
0.0
 10
52.8428267348
 20
128.9477929238
 30
0.0
 10
52.6607528191
 20
129.1830832499
 30
0.0
 10
52.5080889925
 20
129.4446341282
 30
0.0
 10
52.3924173377
 20
129.7195614558
 30
0.0
 10
52.3194250348
 20
129.9941776009
 30
0.0
 10
52.3007478536
 20
130.1773854495
 30
0.0
 10
52.3007482412
 20
130.2650788563
 30
0.0
  0
SPLINE
  5
385
100
AcDbEntity
  8
0
100
AcDbSpline
 62
7
  6
BYLAYER
 70
0
 71
3
 72
20
 73
16
 74
0
 42
0.0000001
 43
0.0000001
 44
0.0000000001
 40
0.0
 40
0.0
 40
0.0
 40
0.0
 40
0.0624058109
 40
0.1288061631
 40
0.2703014024
 40
0.4173598088
 40
0.5616143223
 40
0.6302518623
 40
0.6953785581
 40
0.7563615054
 40
0.8128312904
 40
0.8647632174
 40
0.9125668386
 40
0.9571676247
 40
1.0
 40
1.0
 40
1.0
 40
1.0
 10
54.2806613595
 20
128.3055239025
 30
0.0
 10
54.2806611121
 20
128.2495302821
 30
0.0
 10
54.2882580319
 20
128.1338759387
 30
0.0
 10
54.3307858491
 20
127.8947377035
 30
0.0
 10
54.433468636
 20
127.591121654
 30
0.0
 10
54.6190618978
 20
127.2481665223
 30
0.0
 10
54.8189829029
 20
126.992128533
 30
0.0
 10
54.9988903493
 20
126.8188280986
 30
0.0
 10
55.1367520383
 20
126.7108950379
 30
0.0
 10
55.2768470501
 20
126.625190314
 30
0.0
 10
55.4163369284
 20
126.5635466205
 30
0.0
 10
55.5524403522
 20
126.5273786188
 30
0.0
 10
55.6824925871
 20
126.5178026359
 30
0.0
 10
55.8035963776
 20
126.5355649033
 30
0.0
 10
55.8769678954
 20
126.5660457323
 30
0.0
 10
55.9102486457
 20
126.5852644881
 30
0.0
  0
SPLINE
  5
386
100
AcDbEntity
  8
0
100
AcDbSpline
 62
7
  6
BYLAYER
 70
0
 71
3
 72
20
 73
16
 74
0
 42
0.0000001
 43
0.0000001
 44
0.0000000001
 40
0.0
 40
0.0
 40
0.0
 40
0.0
 40
0.0624058109
 40
0.1288061631
 40
0.2703014024
 40
0.4173598088
 40
0.5616143223
 40
0.6302518623
 40
0.6953785581
 40
0.7563615054
 40
0.8128312904
 40
0.8647632174
 40
0.9125668386
 40
0.9571676247
 40
1.0
 40
1.0
 40
1.0
 40
1.0
 10
48.9066274484
 20
131.4081537947
 30
0.0
 10
48.9066272009
 20
131.3521601743
 30
0.0
 10
48.9142241208
 20
131.2365058309
 30
0.0
 10
48.956751938
 20
130.9973675957
 30
0.0
 10
49.0594347249
 20
130.6937515462
 30
0.0
 10
49.2450279867
 20
130.3507964145
 30
0.0
 10
49.4449489918
 20
130.0947584252
 30
0.0
 10
49.6248564382
 20
129.9214579908
 30
0.0
 10
49.7627181271
 20
129.8135249301
 30
0.0
 10
49.902813139
 20
129.7278202062
 30
0.0
 10
50.0423030173
 20
129.6661765127
 30
0.0
 10
50.1784064411
 20
129.630008511
 30
0.0
 10
50.3084586759
 20
129.6204325281
 30
0.0
 10
50.4295624665
 20
129.6381947956
 30
0.0
 10
50.5029339843
 20
129.6686756245
 30
0.0
 10
50.5362147346
 20
129.6878943803
 30
0.0
  0
SPLINE
  5
387
100
AcDbEntity
  8
0
100
AcDbSpline
 62
7
  6
BYLAYER
 70
0
 71
3
 72
15
 73
11
 74
0
 42
0.0000001
 43
0.0000001
 44
0.0000000001
 40
0.0
 40
0.0
 40
0.0
 40
0.0
 40
0.1042470868
 40
0.2211621529
 40
0.3485528227
 40
0.4828206857
 40
0.6195786857
 40
0.7541878668
 40
0.8822163046
 40
1.0
 40
1.0
 40
1.0
 40
1.0
 10
56.1723429256
 20
126.9600550926
 30
0.0
 10
56.0978144892
 20
126.9817253782
 30
0.0
 10
55.9457166456
 20
127.0490770192
 30
0.0
 10
55.7324814427
 20
127.1990214879
 30
0.0
 10
55.5298436903
 20
127.3964779777
 30
0.0
 10
55.3477697747
 20
127.6317683038
 30
0.0
 10
55.1951059481
 20
127.8933191821
 30
0.0
 10
55.0794342933
 20
128.1682465097
 30
0.0
 10
55.0064419903
 20
128.4428626548
 30
0.0
 10
54.9877648092
 20
128.6260705034
 30
0.0
 10
54.9877651967
 20
128.7137639102
 30
0.0
  0
SPLINE
  5
388
100
AcDbEntity
  8
0
100
AcDbSpline
 62
7
  6
BYLAYER
 70
0
 71
3
 72
13
 73
9
 74
0
 42
0.0000001
 43
0.0000001
 44
0.0000000001
 40
0.0
 40
0.0
 40
0.0
 40
0.0
 40
0.1142262176
 40
0.237560561
 40
0.5000018547
 40
0.7624421293
 40
0.8857753081
 40
1.0
 40
1.0
 40
1.0
 40
1.0
 10
59.9021770738
 20
133.0208241509
 30
0.0
 10
59.902177185
 20
133.0459703429
 30
0.0
 10
59.9067907569
 20
133.0983198646
 30
0.0
 10
59.9317980656
 20
133.2057845874
 30
0.0
 10
59.9899167436
 20
133.3375912987
 30
0.0
 10
60.0750049451
 20
133.4538269359
 30
0.0
 10
60.1555679467
 20
133.5292156395
 30
0.0
 10
60.1985968225
 20
133.5593853633
 30
0.0
 10
60.220373805
 20
133.5719582353
 30
0.0
  0
SPLINE
  5
389
100
AcDbEntity
  8
0
100
AcDbSpline
 62
7
  6
BYLAYER
 70
0
 71
3
 72
11
 73
7
 74
0
 42
0.0000001
 43
0.0000001
 44
0.0000000001
 40
0.0
 40
0.0
 40
0.0
 40
0.0
 40
0.2897028106
 40
0.5490887622
 40
0.7822160349
 40
1.0
 40
1.0
 40
1.0
 40
1.0
 10
60.220373805
 20
133.5719582353
 30
0.0
 10
60.240118996
 20
133.5833580588
 30
0.0
 10
60.2793985429
 20
133.6020444802
 30
0.0
 10
60.3397720527
 20
133.6166241372
 30
0.0
 10
60.3964201314
 20
133.6151903029
 30
0.0
 10
60.4305253687
 20
133.6028135471
 30
0.0
 10
60.4453688689
 20
133.5942438405
 30
0.0
  0
SPLINE
  5
38A
100
AcDbEntity
  8
0
100
AcDbSpline
 62
7
  6
BYLAYER
 70
0
 71
3
 72
9
 73
5
 74
0
 42
0.0000001
 43
0.0000001
 44
0.0000000001
 40
0.0
 40
0.0
 40
0.0
 40
0.0
 40
0.2607126815
 40
1.0
 40
1.0
 40
1.0
 40
1.0
 10
52.3007482412
 20
130.2650788563
 30
0.0
 10
52.3007483263
 20
130.2843360068
 30
0.0
 10
52.3024382982
 20
130.3581761514
 30
0.0
 10
52.3110689304
 20
130.4319623019
 30
0.0
 10
52.3222733032
 20
130.4854068073
 30
0.0
  0
SPLINE
  5
38B
100
AcDbEntity
  8
0
100
AcDbSpline
 62
7
  6
BYLAYER
 70
0
 71
3
 72
9
 73
5
 74
0
 42
0.0000001
 43
0.0000001
 44
0.0000000001
 40
0.0
 40
0.0
 40
0.0
 40
0.0
 40
0.2607126815
 40
1.0
 40
1.0
 40
1.0
 40
1.0
 10
54.9877651967
 20
128.7137639102
 30
0.0
 10
54.9877652818
 20
128.7330210607
 30
0.0
 10
54.9894552538
 20
128.8068612053
 30
0.0
 10
54.998085886
 20
128.8806473558
 30
0.0
 10
55.0092902587
 20
128.9340918612
 30
0.0
  0
SPLINE
  5
38C
100
AcDbEntity
  8
0
100
AcDbSpline
 62
7
  6
BYLAYER
 70
0
 71
3
 72
9
 73
5
 74
0
 42
0.0000001
 43
0.0000001
 44
0.0000000001
 40
0.0
 40
0.0
 40
0.0
 40
0.0
 40
0.2607126815
 40
1.0
 40
1.0
 40
1.0
 40
1.0
 10
49.6137312856
 20
131.8163938024
 30
0.0
 10
49.6137313707
 20
131.8356509529
 30
0.0
 10
49.6154213427
 20
131.9094910976
 30
0.0
 10
49.6240519749
 20
131.983277248
 30
0.0
 10
49.6352563476
 20
132.0367217534
 30
0.0
  0
SPLINE
  5
38D
100
AcDbEntity
  8
0
100
AcDbSpline
 62
7
  6
BYLAYER
 70
0
 71
3
 72
12
 73
8
 74
0
 42
0.0000001
 43
0.0000001
 44
0.0000000001
 40
0.0
 40
0.0
 40
0.0
 40
0.0
 40
0.108159647
 40
0.218362144
 40
0.4513574771
 40
0.7104306883
 40
1.0
 40
1.0
 40
1.0
 40
1.0
 10
54.5602703313
 20
128.9235332237
 30
0.0
 10
54.5381380568
 20
128.9107524188
 30
0.0
 10
54.4955799773
 20
128.8810553244
 30
0.0
 10
54.4192420189
 20
128.8059659233
 30
0.0
 10
54.343632179
 20
128.6827078164
 30
0.0
 10
54.2910343535
 20
128.5040515907
 30
0.0
 10
54.2806616619
 20
128.3739474974
 30
0.0
 10
54.2806613595
 20
128.3055239025
 30
0.0
  0
SPLINE
  5
38E
100
AcDbEntity
  8
0
100
AcDbSpline
 62
7
  6
BYLAYER
 70
0
 71
3
 72
13
 73
9
 74
0
 42
0.0000001
 43
0.0000001
 44
0.0000000001
 40
0.0
 40
0.0
 40
0.0
 40
0.0
 40
0.1081110244
 40
0.2182611223
 40
0.4511597502
 40
0.5771823788
 40
0.7105494137
 40
1.0
 40
1.0
 40
1.0
 40
1.0
 10
79.4284929545
 20
31.2675093498
 30
0.0
 10
79.4612830021
 20
31.2864406552
 30
0.0
 10
79.5243221344
 20
31.3304539645
 30
0.0
 10
79.6374166682
 20
31.4416612872
 30
0.0
 10
79.7247837209
 20
31.5840716122
 30
0.0
 10
79.7851058906
 20
31.7458387705
 30
0.0
 10
79.8308967825
 20
31.9329192462
 30
0.0
 10
79.8427153118
 20
32.0817060871
 30
0.0
 10
79.8427153118
 20
32.1830775356
 30
0.0
  0
SPLINE
  5
38F
100
AcDbEntity
  8
0
100
AcDbSpline
 62
7
  6
BYLAYER
 70
0
 71
3
 72
13
 73
9
 74
0
 42
0.0000001
 43
0.0000001
 44
0.0000000001
 40
0.0
 40
0.0
 40
0.0
 40
0.0
 40
0.1081110244
 40
0.2182611223
 40
0.4511597502
 40
0.5771823788
 40
0.7105494137
 40
1.0
 40
1.0
 40
1.0
 40
1.0
 10
82.9640514387
 20
29.2263120207
 30
0.0
 10
82.9968414863
 20
29.2452433261
 30
0.0
 10
83.0598806186
 20
29.2892566354
 30
0.0
 10
83.1729751523
 20
29.4004639581
 30
0.0
 10
83.2603422051
 20
29.5428742832
 30
0.0
 10
83.3206643748
 20
29.7046414415
 30
0.0
 10
83.3664552667
 20
29.8917219172
 30
0.0
 10
83.378273796
 20
30.0405087581
 30
0.0
 10
83.378273796
 20
30.1418802066
 30
0.0
  0
SPLINE
  5
390
100
AcDbEntity
  8
0
100
AcDbSpline
 62
7
  6
BYLAYER
 70
0
 71
3
 72
10
 73
6
 74
0
 42
0.0000001
 43
0.0000001
 44
0.0000000001
 40
0.0
 40
0.0
 40
0.0
 40
0.0
 40
0.2309428017
 40
0.4765684019
 40
1.0
 40
1.0
 40
1.0
 40
1.0
 10
83.378273796
 20
30.1418802066
 30
0.0
 10
83.378273796
 20
30.2243994498
 30
0.0
 10
83.3671395371
 20
30.3948169246
 30
0.0
 10
83.3047973099
 20
30.7471133666
 30
0.0
 10
83.2164190377
 20
31.0095304003
 30
0.0
 10
83.1423049975
 20
31.1812489036
 30
0.0
  0
SPLINE
  5
391
100
AcDbEntity
  8
0
100
AcDbSpline
 62
7
  6
BYLAYER
 70
0
 71
3
 72
10
 73
6
 74
0
 42
0.0000001
 43
0.0000001
 44
0.0000000001
 40
0.0
 40
0.0
 40
0.0
 40
0.0
 40
0.230941728
 40
0.476567407
 40
1.0
 40
1.0
 40
1.0
 40
1.0
 10
79.8427153118
 20
32.1830775356
 30
0.0
 10
79.8427153118
 20
32.2656058612
 30
0.0
 10
79.8315785942
 20
32.4360425499
 30
0.0
 10
79.7692231295
 20
32.7883784043
 30
0.0
 10
79.680826724
 20
33.0508236378
 30
0.0
 10
79.6066976622
 20
33.2225594126
 30
0.0
  0
SPLINE
  5
392
100
AcDbEntity
  8
0
100
AcDbSpline
 62
7
  6
BYLAYER
 70
0
 71
3
 72
15
 73
11
 74
0
 42
0.0000001
 43
0.0000001
 44
0.0000000001
 40
0.0
 40
0.0
 40
0.0
 40
0.0
 40
0.103530798
 40
0.2175103659
 40
0.3405872125
 40
0.4705342515
 40
0.604559812
 40
0.7395633944
 40
0.8723853222
 40
1.0
 40
1.0
 40
1.0
 40
1.0
 10
79.789382934
 20
31.8428346234
 30
0.0
 10
79.6980691136
 20
31.8726430917
 30
0.0
 10
79.5127495748
 20
31.9559753384
 30
0.0
 10
79.2488744245
 20
32.1317578859
 30
0.0
 10
78.9935267639
 20
32.3584959695
 30
0.0
 10
78.7554404014
 20
32.6283959062
 30
0.0
 10
78.542687823
 20
32.932219599
 30
0.0
 10
78.3625928034
 20
33.2595177144
 30
0.0
 10
78.2214085504
 20
33.5989188055
 30
0.0
 10
78.1546133187
 20
33.8318762258
 30
0.0
 10
78.1295218269
 20
33.9475880731
 30
0.0
  0
SPLINE
  5
393
100
AcDbEntity
  8
0
100
AcDbSpline
 62
7
  6
BYLAYER
 70
0
 71
3
 72
11
 73
7
 74
0
 42
0.0000001
 43
0.0000001
 44
0.0000000001
 40
0.0
 40
0.0
 40
0.0
 40
0.0
 40
0.2210815992
 40
0.4594291942
 40
0.7187483988
 40
1.0
 40
1.0
 40
1.0
 40
1.0
 10
80.7857539437
 20
32.5416923099
 30
0.0
 10
80.7464408875
 20
32.4959901964
 30
0.0
 10
80.6761790998
 20
32.3907884315
 30
0.0
 10
80.6027309423
 20
32.2078962734
 30
0.0
 10
80.5587823601
 20
31.9991818153
 30
0.0
 10
80.5498270086
 20
31.8515300935
 30
0.0
 10
80.5498270086
 20
31.7748386713
 30
0.0
  0
SPLINE
  5
394
100
AcDbEntity
  8
0
100
AcDbSpline
 62
7
  6
BYLAYER
 70
0
 71
3
 72
15
 73
11
 74
0
 42
0.0000001
 43
0.0000001
 44
0.0000000001
 40
0.0
 40
0.0
 40
0.0
 40
0.0
 40
0.1038363807
 40
0.2185418972
 40
0.3425727815
 40
0.4734226066
 40
0.607982924
 40
0.7428434447
 40
0.8745792714
 40
1.0
 40
1.0
 40
1.0
 40
1.0
 10
83.3249414181
 20
29.8016372944
 30
0.0
 10
83.2294511692
 20
29.8328091153
 30
0.0
 10
83.0356225375
 20
29.9210802382
 30
0.0
 10
82.7607490766
 20
30.1083111736
 30
0.0
 10
82.4960149575
 20
30.3502274416
 30
0.0
 10
82.251265771
 20
30.6378039241
 30
0.0
 10
82.0355208057
 20
30.9603411468
 30
0.0
 10
81.8568607037
 20
31.3057882991
 30
0.0
 10
81.7220077562
 20
31.6611034765
 30
0.0
 10
81.6627454033
 20
31.9035944503
 30
0.0
 10
81.6425100663
 20
32.0232247554
 30
0.0
  0
SPLINE
  5
395
100
AcDbEntity
  8
0
100
AcDbSpline
 62
7
  6
BYLAYER
 70
0
 71
3
 72
22
 73
18
 74
0
 42
0.0000001
 43
0.0000001
 44
0.0000000001
 40
0.0
 40
0.0
 40
0.0
 40
0.0
 40
0.0623919554
 40
0.1287666078
 40
0.1983733156
 40
0.270372558
 40
0.4173891103
 40
0.4904355541
 40
0.5617439342
 40
0.6303613706
 40
0.6954674307
 40
0.7564327752
 40
0.8128870304
 40
0.864802578
 40
0.9125913306
 40
0.957179516
 40
1.0
 40
1.0
 40
1.0
 40
1.0
 10
80.5498270086
 20
31.7748386713
 30
0.0
 10
80.5498270086
 20
31.6918791406
 30
0.0
 10
80.5610818805
 20
31.5205503876
 30
0.0
 10
80.6073148061
 20
31.2604258284
 30
0.0
 10
80.6825383919
 20
30.9938466178
 30
0.0
 10
80.8201549399
 20
30.6351932805
 30
0.0
 10
81.0060864594
 20
30.2916694901
 30
0.0
 10
81.2322280923
 20
29.9766661452
 30
0.0
 10
81.4172229508
 20
29.7617232948
 30
0.0
 10
81.6138959391
 20
29.5723186962
 30
0.0
 10
81.8181302803
 20
29.412433289
 30
0.0
 10
82.0256770617
 20
29.2854568788
 30
0.0
 10
82.2323250286
 20
29.1941230958
 30
0.0
 10
82.4339642856
 20
29.1405562843
 30
0.0
 10
82.6266303653
 20
29.1263791954
 30
0.0
 10
82.8060488791
 20
29.1526728762
 30
0.0
 10
82.9147431297
 20
29.1978439116
 30
0.0
 10
82.9640514387
 20
29.2263120207
 30
0.0
  0
SPLINE
  5
396
100
AcDbEntity
  8
0
100
AcDbSpline
 62
7
  6
BYLAYER
 70
0
 71
3
 72
19
 73
15
 74
0
 42
0.0000001
 43
0.0000001
 44
0.0000000001
 40
0.0
 40
0.0
 40
0.0
 40
0.0
 40
0.1409799606
 40
0.2881151893
 40
0.4349263529
 40
0.5749795728
 40
0.6407754431
 40
0.7029859976
 40
0.7612665216
 40
0.8154948096
 40
0.8658227434
 40
0.9127291309
 40
0.957060816
 40
1.0
 40
1.0
 40
1.0
 40
1.0
 10
77.0689174756
 20
33.3349148358
 30
0.0
 10
77.1038261932
 20
33.1740120743
 30
0.0
 10
77.2051901187
 20
32.8512674918
 30
0.0
 10
77.4302710235
 20
32.3939633048
 30
0.0
 10
77.7193746837
 20
31.9754284991
 30
0.0
 10
78.0041885077
 20
31.6749941772
 30
0.0
 10
78.2487943167
 20
31.4789403449
 30
0.0
 10
78.4315853447
 20
31.3602043518
 30
0.0
 10
78.6145275799
 20
31.2687300245
 30
0.0
 10
78.794728998
 20
31.2060776456
 30
0.0
 10
78.9693584626
 20
31.1734378114
 30
0.0
 10
79.1356600524
 20
31.1717434258
 30
0.0
 10
79.2906447361
 20
31.2014424597
 30
0.0
 10
79.3850640847
 20
31.2424357297
 30
0.0
 10
79.4284929545
 20
31.2675093498
 30
0.0
  0
SPLINE
  5
397
100
AcDbEntity
  8
0
100
AcDbSpline
 62
7
  6
BYLAYER
 70
0
 71
3
 72
12
 73
8
 74
0
 42
0.0000001
 43
0.0000001
 44
0.0000000001
 40
0.0
 40
0.0
 40
0.0
 40
0.0
 40
0.1081602523
 40
0.218368215
 40
0.4513506362
 40
0.7104497662
 40
1.0
 40
1.0
 40
1.0
 40
1.0
 10
62.1042175027
 20
116.7143986623
 30
0.0
 10
62.1370082417
 20
116.7333291882
 30
0.0
 10
62.2000674351
 20
116.7773156152
 30
0.0
 10
62.3131301743
 20
116.8885848412
 30
0.0
 10
62.4251759964
 20
117.071170142
 30
0.0
 10
62.5030741968
 20
117.3358543247
 30
0.0
 10
62.5184511145
 20
117.5285983259
 30
0.0
 10
62.5184511145
 20
117.6299590787
 30
0.0
  0
SPLINE
  5
398
100
AcDbEntity
  8
0
100
AcDbSpline
 62
7
  6
BYLAYER
 70
0
 71
3
 72
12
 73
8
 74
0
 42
0.0000001
 43
0.0000001
 44
0.0000000001
 40
0.0
 40
0.0
 40
0.0
 40
0.0
 40
0.1081602523
 40
0.218368215
 40
0.4513506362
 40
0.7104497662
 40
1.0
 40
1.0
 40
1.0
 40
1.0
 10
65.6397759868
 20
114.6732002256
 30
0.0
 10
65.6725667259
 20
114.6921307515
 30
0.0
 10
65.7356259192
 20
114.7361171785
 30
0.0
 10
65.8486886584
 20
114.8473864045
 30
0.0
 10
65.9607344805
 20
115.0299717053
 30
0.0
 10
66.038632681
 20
115.294655888
 30
0.0
 10
66.0540095987
 20
115.4873998892
 30
0.0
 10
66.0540095987
 20
115.5887606419
 30
0.0
  0
SPLINE
  5
399
100
AcDbEntity
  8
0
100
AcDbSpline
 62
7
  6
BYLAYER
 70
0
 71
3
 72
12
 73
8
 74
0
 42
0.0000001
 43
0.0000001
 44
0.0000000001
 40
0.0
 40
0.0
 40
0.0
 40
0.0
 40
0.1081602523
 40
0.218368215
 40
0.4513506362
 40
0.7104497662
 40
1.0
 40
1.0
 40
1.0
 40
1.0
 10
69.175334471
 20
112.6320017889
 30
0.0
 10
69.20812521
 20
112.6509323148
 30
0.0
 10
69.2711844034
 20
112.6949187418
 30
0.0
 10
69.3842471426
 20
112.8061879678
 30
0.0
 10
69.4962929647
 20
112.9887732686
 30
0.0
 10
69.5741911651
 20
113.2534574513
 30
0.0
 10
69.5895680828
 20
113.4462014525
 30
0.0
 10
69.5895680828
 20
113.5475622052
 30
0.0
  0
SPLINE
  5
39A
100
AcDbEntity
  8
0
100
AcDbSpline
 62
7
  6
BYLAYER
 70
0
 71
3
 72
12
 73
8
 74
0
 42
0.0000001
 43
0.0000001
 44
0.0000000001
 40
0.0
 40
0.0
 40
0.0
 40
0.0
 40
0.1081602523
 40
0.218368215
 40
0.4513506362
 40
0.7104497662
 40
1.0
 40
1.0
 40
1.0
 40
1.0
 10
72.7108929551
 20
110.5908033522
 30
0.0
 10
72.7436836942
 20
110.6097338781
 30
0.0
 10
72.8067428875
 20
110.6537203051
 30
0.0
 10
72.9198056267
 20
110.7649895311
 30
0.0
 10
73.0318514488
 20
110.9475748319
 30
0.0
 10
73.1097496493
 20
111.2122590146
 30
0.0
 10
73.125126567
 20
111.4050030158
 30
0.0
 10
73.125126567
 20
111.5063637685
 30
0.0
  0
SPLINE
  5
39B
100
AcDbEntity
  8
0
100
AcDbSpline
 62
7
  6
BYLAYER
 70
0
 71
3
 72
12
 73
8
 74
0
 42
0.0000001
 43
0.0000001
 44
0.0000000001
 40
0.0
 40
0.0
 40
0.0
 40
0.0
 40
0.1081602523
 40
0.218368215
 40
0.4513506362
 40
0.7104497662
 40
1.0
 40
1.0
 40
1.0
 40
1.0
 10
76.2464514393
 20
108.5496049155
 30
0.0
 10
76.2792421783
 20
108.5685354414
 30
0.0
 10
76.3423013717
 20
108.6125218684
 30
0.0
 10
76.4553641109
 20
108.7237910944
 30
0.0
 10
76.567409933
 20
108.9063763952
 30
0.0
 10
76.6453081334
 20
109.1710605779
 30
0.0
 10
76.6606850511
 20
109.3638045791
 30
0.0
 10
76.6606850511
 20
109.4651653318
 30
0.0
  0
SPLINE
  5
39C
100
AcDbEntity
  8
0
100
AcDbSpline
 62
7
  6
BYLAYER
 70
0
 71
3
 72
12
 73
8
 74
0
 42
0.0000001
 43
0.0000001
 44
0.0000000001
 40
0.0
 40
0.0
 40
0.0
 40
0.0
 40
0.1081602523
 40
0.218368215
 40
0.4513506362
 40
0.7104497662
 40
1.0
 40
1.0
 40
1.0
 40
1.0
 10
79.7820099234
 20
106.5084064788
 30
0.0
 10
79.8148006625
 20
106.5273370047
 30
0.0
 10
79.8778598558
 20
106.5713234317
 30
0.0
 10
79.990922595
 20
106.6825926577
 30
0.0
 10
80.1029684171
 20
106.8651779585
 30
0.0
 10
80.1808666176
 20
107.1298621412
 30
0.0
 10
80.1962435353
 20
107.3226061424
 30
0.0
 10
80.1962435353
 20
107.4239668951
 30
0.0
  0
SPLINE
  5
39D
100
AcDbEntity
  8
0
100
AcDbSpline
 62
7
  6
BYLAYER
 70
0
 71
3
 72
12
 73
8
 74
0
 42
0.0000001
 43
0.0000001
 44
0.0000000001
 40
0.0
 40
0.0
 40
0.0
 40
0.0
 40
0.1081602523
 40
0.218368215
 40
0.4513506362
 40
0.7104497662
 40
1.0
 40
1.0
 40
1.0
 40
1.0
 10
83.3175684076
 20
104.4672080421
 30
0.0
 10
83.3503591466
 20
104.486138568
 30
0.0
 10
83.41341834
 20
104.530124995
 30
0.0
 10
83.5264810792
 20
104.641394221
 30
0.0
 10
83.6385269013
 20
104.8239795218
 30
0.0
 10
83.7164251017
 20
105.0886637045
 30
0.0
 10
83.7318020194
 20
105.2814077057
 30
0.0
 10
83.7318020194
 20
105.3827684584
 30
0.0
  0
SPLINE
  5
39E
100
AcDbEntity
  8
0
100
AcDbSpline
 62
7
  6
BYLAYER
 70
0
 71
3
 72
20
 73
16
 74
0
 42
0.0000001
 43
0.0000001
 44
0.0000000001
 40
0.0
 40
0.0
 40
0.0
 40
0.0
 40
0.0623995107
 40
0.1288073319
 40
0.2703004282
 40
0.4173595794
 40
0.561613088
 40
0.6302520308
 40
0.6953770693
 40
0.7563609053
 40
0.8128323895
 40
0.8647626142
 40
0.9125665109
 40
0.9571682002
 40
1.0
 40
1.0
 40
1.0
 40
1.0
 10
83.7318020194
 20
105.3827684584
 30
0.0
 10
83.7318020194
 20
105.465713547
 30
0.0
 10
83.7205366673
 20
105.6370536795
 30
0.0
 10
83.6575525377
 20
105.9913346464
 30
0.0
 10
83.5053998988
 20
106.4411349687
 30
0.0
 10
83.2304704242
 20
106.9492247102
 30
0.0
 10
82.9342749898
 20
107.3285286575
 30
0.0
 10
82.6677577066
 20
107.5852809654
 30
0.0
 10
82.463500974
 20
107.7451611791
 30
0.0
 10
82.2559604813
 20
107.8721424714
 30
0.0
 10
82.0493116433
 20
107.9634803
 30
0.0
 10
81.8476689598
 20
108.0170355009
 30
0.0
 10
81.6550043407
 20
108.0312296556
 30
0.0
 10
81.4755822426
 20
108.0049390334
 30
0.0
 10
81.3668963937
 20
107.9597532378
 30
0.0
 10
81.3175888439
 20
107.9312873395
 30
0.0
  0
SPLINE
  5
39F
100
AcDbEntity
  8
0
100
AcDbSpline
 62
7
  6
BYLAYER
 70
0
 71
3
 72
20
 73
16
 74
0
 42
0.0000001
 43
0.0000001
 44
0.0000000001
 40
0.0
 40
0.0
 40
0.0
 40
0.0
 40
0.0623995107
 40
0.1288073319
 40
0.2703004282
 40
0.4173595794
 40
0.561613088
 40
0.6302520308
 40
0.6953770693
 40
0.7563609053
 40
0.8128323895
 40
0.8647626142
 40
0.9125665109
 40
0.9571682002
 40
1.0
 40
1.0
 40
1.0
 40
1.0
 10
80.1962435353
 20
107.4239668951
 30
0.0
 10
80.1962435353
 20
107.5069119837
 30
0.0
 10
80.1849781831
 20
107.6782521162
 30
0.0
 10
80.1219940536
 20
108.0325330831
 30
0.0
 10
79.9698414147
 20
108.4823334054
 30
0.0
 10
79.6949119401
 20
108.9904231469
 30
0.0
 10
79.3987165056
 20
109.3697270942
 30
0.0
 10
79.1321992225
 20
109.6264794021
 30
0.0
 10
78.9279424898
 20
109.7863596158
 30
0.0
 10
78.7204019972
 20
109.9133409081
 30
0.0
 10
78.5137531591
 20
110.0046787367
 30
0.0
 10
78.3121104757
 20
110.0582339376
 30
0.0
 10
78.1194458566
 20
110.0724280923
 30
0.0
 10
77.9400237584
 20
110.0461374701
 30
0.0
 10
77.8313379095
 20
110.0009516745
 30
0.0
 10
77.7820303598
 20
109.9724857762
 30
0.0
  0
SPLINE
  5
3A0
100
AcDbEntity
  8
0
100
AcDbSpline
 62
7
  6
BYLAYER
 70
0
 71
3
 72
20
 73
16
 74
0
 42
0.0000001
 43
0.0000001
 44
0.0000000001
 40
0.0
 40
0.0
 40
0.0
 40
0.0
 40
0.0623995107
 40
0.1288073319
 40
0.2703004282
 40
0.4173595794
 40
0.561613088
 40
0.6302520308
 40
0.6953770693
 40
0.7563609053
 40
0.8128323895
 40
0.8647626142
 40
0.9125665109
 40
0.9571682002
 40
1.0
 40
1.0
 40
1.0
 40
1.0
 10
76.6606850511
 20
109.4651653318
 30
0.0
 10
76.6606850511
 20
109.5481104204
 30
0.0
 10
76.649419699
 20
109.7194505529
 30
0.0
 10
76.5864355694
 20
110.0737315198
 30
0.0
 10
76.4342829305
 20
110.5235318422
 30
0.0
 10
76.1593534559
 20
111.0316215836
 30
0.0
 10
75.8631580215
 20
111.4109255309
 30
0.0
 10
75.5966407384
 20
111.6676778388
 30
0.0
 10
75.3923840057
 20
111.8275580526
 30
0.0
 10
75.184843513
 20
111.9545393448
 30
0.0
 10
74.978194675
 20
112.0458771734
 30
0.0
 10
74.7765519915
 20
112.0994323743
 30
0.0
 10
74.5838873724
 20
112.113626529
 30
0.0
 10
74.4044652743
 20
112.0873359068
 30
0.0
 10
74.2957794254
 20
112.0421501112
 30
0.0
 10
74.2464718757
 20
112.0136842129
 30
0.0
  0
SPLINE
  5
3A1
100
AcDbEntity
  8
0
100
AcDbSpline
 62
7
  6
BYLAYER
 70
0
 71
3
 72
20
 73
16
 74
0
 42
0.0000001
 43
0.0000001
 44
0.0000000001
 40
0.0
 40
0.0
 40
0.0
 40
0.0
 40
0.0623995107
 40
0.1288073319
 40
0.2703004282
 40
0.4173595794
 40
0.561613088
 40
0.6302520308
 40
0.6953770693
 40
0.7563609053
 40
0.8128323895
 40
0.8647626142
 40
0.9125665109
 40
0.9571682002
 40
1.0
 40
1.0
 40
1.0
 40
1.0
 10
73.125126567
 20
111.5063637685
 30
0.0
 10
73.125126567
 20
111.5893088571
 30
0.0
 10
73.1138612148
 20
111.7606489896
 30
0.0
 10
73.0508770853
 20
112.1149299565
 30
0.0
 10
72.8987244464
 20
112.5647302789
 30
0.0
 10
72.6237949718
 20
113.0728200203
 30
0.0
 10
72.3275995373
 20
113.4521239676
 30
0.0
 10
72.0610822542
 20
113.7088762755
 30
0.0
 10
71.8568255215
 20
113.8687564893
 30
0.0
 10
71.6492850289
 20
113.9957377815
 30
0.0
 10
71.4426361908
 20
114.0870756101
 30
0.0
 10
71.2409935074
 20
114.140630811
 30
0.0
 10
71.0483288883
 20
114.1548249657
 30
0.0
 10
70.8689067901
 20
114.1285343435
 30
0.0
 10
70.7602209412
 20
114.0833485479
 30
0.0
 10
70.7109133915
 20
114.0548826496
 30
0.0
  0
SPLINE
  5
3A2
100
AcDbEntity
  8
0
100
AcDbSpline
 62
7
  6
BYLAYER
 70
0
 71
3
 72
20
 73
16
 74
0
 42
0.0000001
 43
0.0000001
 44
0.0000000001
 40
0.0
 40
0.0
 40
0.0
 40
0.0
 40
0.0623995107
 40
0.1288073319
 40
0.2703004282
 40
0.4173595794
 40
0.561613088
 40
0.6302520308
 40
0.6953770693
 40
0.7563609053
 40
0.8128323895
 40
0.8647626142
 40
0.9125665109
 40
0.9571682002
 40
1.0
 40
1.0
 40
1.0
 40
1.0
 10
69.5895680828
 20
113.5475622052
 30
0.0
 10
69.5895680828
 20
113.6305072937
 30
0.0
 10
69.5783027307
 20
113.8018474262
 30
0.0
 10
69.5153186011
 20
114.1561283931
 30
0.0
 10
69.3631659622
 20
114.6059287155
 30
0.0
 10
69.0882364876
 20
115.114018457
 30
0.0
 10
68.7920410532
 20
115.4933224043
 30
0.0
 10
68.5255237701
 20
115.7500747122
 30
0.0
 10
68.3212670374
 20
115.909954926
 30
0.0
 10
68.1137265447
 20
116.0369362182
 30
0.0
 10
67.9070777067
 20
116.1282740468
 30
0.0
 10
67.7054350232
 20
116.1818292478
 30
0.0
 10
67.5127704041
 20
116.1960234025
 30
0.0
 10
67.333348306
 20
116.1697327803
 30
0.0
 10
67.2246624571
 20
116.1245469846
 30
0.0
 10
67.1753549074
 20
116.0960810863
 30
0.0
  0
SPLINE
  5
3A3
100
AcDbEntity
  8
0
100
AcDbSpline
 62
7
  6
BYLAYER
 70
0
 71
3
 72
20
 73
16
 74
0
 42
0.0000001
 43
0.0000001
 44
0.0000000001
 40
0.0
 40
0.0
 40
0.0
 40
0.0
 40
0.0623995107
 40
0.1288073319
 40
0.2703004282
 40
0.4173595794
 40
0.561613088
 40
0.6302520308
 40
0.6953770693
 40
0.7563609053
 40
0.8128323895
 40
0.8647626142
 40
0.9125665109
 40
0.9571682002
 40
1.0
 40
1.0
 40
1.0
 40
1.0
 10
66.0540095987
 20
115.5887606419
 30
0.0
 10
66.0540095987
 20
115.6717057304
 30
0.0
 10
66.0427442465
 20
115.8430458629
 30
0.0
 10
65.979760117
 20
116.1973268298
 30
0.0
 10
65.8276074781
 20
116.6471271522
 30
0.0
 10
65.5526780035
 20
117.1552168937
 30
0.0
 10
65.2564825691
 20
117.534520841
 30
0.0
 10
64.9899652859
 20
117.7912731489
 30
0.0
 10
64.7857085532
 20
117.9511533627
 30
0.0
 10
64.5781680606
 20
118.0781346549
 30
0.0
 10
64.3715192226
 20
118.1694724835
 30
0.0
 10
64.1698765391
 20
118.2230276845
 30
0.0
 10
63.97721192
 20
118.2372218392
 30
0.0
 10
63.7977898218
 20
118.210931217
 30
0.0
 10
63.689103973
 20
118.1657454213
 30
0.0
 10
63.6397964232
 20
118.137279523
 30
0.0
  0
SPLINE
  5
3A4
100
AcDbEntity
  8
0
100
AcDbSpline
 62
7
  6
BYLAYER
 70
0
 71
3
 72
20
 73
16
 74
0
 42
0.0000001
 43
0.0000001
 44
0.0000000001
 40
0.0
 40
0.0
 40
0.0
 40
0.0
 40
0.0623995107
 40
0.1288073319
 40
0.2703004282
 40
0.4173595794
 40
0.561613088
 40
0.6302520308
 40
0.6953770693
 40
0.7563609053
 40
0.8128323895
 40
0.8647626142
 40
0.9125665109
 40
0.9571682002
 40
1.0
 40
1.0
 40
1.0
 40
1.0
 10
62.5184511145
 20
117.6299590787
 30
0.0
 10
62.5184511145
 20
117.7129041672
 30
0.0
 10
62.5071857624
 20
117.8842442997
 30
0.0
 10
62.4442016328
 20
118.2385252666
 30
0.0
 10
62.2920489939
 20
118.688325589
 30
0.0
 10
62.0171195193
 20
119.1964153304
 30
0.0
 10
61.7209240849
 20
119.5757192777
 30
0.0
 10
61.4544068018
 20
119.8324715856
 30
0.0
 10
61.2501500691
 20
119.9923517994
 30
0.0
 10
61.0426095764
 20
120.1193330916
 30
0.0
 10
60.8359607384
 20
120.2106709203
 30
0.0
 10
60.6343180549
 20
120.2642261212
 30
0.0
 10
60.4416534358
 20
120.2784202759
 30
0.0
 10
60.2622313377
 20
120.2521296537
 30
0.0
 10
60.1535454888
 20
120.206943858
 30
0.0
 10
60.1042379391
 20
120.1784779597
 30
0.0
  0
SPLINE
  5
3A5
100
AcDbEntity
  8
0
100
AcDbSpline
 62
7
  6
BYLAYER
 70
0
 71
3
 72
12
 73
8
 74
0
 42
0.0000001
 43
0.0000001
 44
0.0000000001
 40
0.0
 40
0.0
 40
0.0
 40
0.0
 40
0.1081602523
 40
0.218368215
 40
0.4513506362
 40
0.7104497662
 40
1.0
 40
1.0
 40
1.0
 40
1.0
 10
81.3175888439
 20
107.9312873395
 30
0.0
 10
81.2847981049
 20
107.9123568136
 30
0.0
 10
81.2217389115
 20
107.8683703866
 30
0.0
 10
81.1086761723
 20
107.7571011606
 30
0.0
 10
80.9966303502
 20
107.5745158598
 30
0.0
 10
80.9187321498
 20
107.3098316771
 30
0.0
 10
80.9033552321
 20
107.1170876759
 30
0.0
 10
80.9033552321
 20
107.0157269232
 30
0.0
  0
SPLINE
  5
3A6
100
AcDbEntity
  8
0
100
AcDbSpline
 62
7
  6
BYLAYER
 70
0
 71
3
 72
12
 73
8
 74
0
 42
0.0000001
 43
0.0000001
 44
0.0000000001
 40
0.0
 40
0.0
 40
0.0
 40
0.0
 40
0.1081602523
 40
0.218368215
 40
0.4513506362
 40
0.7104497662
 40
1.0
 40
1.0
 40
1.0
 40
1.0
 10
63.6397964232
 20
118.137279523
 30
0.0
 10
63.6070056842
 20
118.1183489972
 30
0.0
 10
63.5439464908
 20
118.0743625702
 30
0.0
 10
63.4308837516
 20
117.9630933442
 30
0.0
 10
63.3188379295
 20
117.7805080433
 30
0.0
 10
63.2409397291
 20
117.5158238607
 30
0.0
 10
63.2255628114
 20
117.3230798595
 30
0.0
 10
63.2255628114
 20
117.2217191067
 30
0.0
  0
SPLINE
  5
3A7
100
AcDbEntity
  8
0
100
AcDbSpline
 62
7
  6
BYLAYER
 70
0
 71
3
 72
12
 73
8
 74
0
 42
0.0000001
 43
0.0000001
 44
0.0000000001
 40
0.0
 40
0.0
 40
0.0
 40
0.0
 40
0.1081602523
 40
0.218368215
 40
0.4513506362
 40
0.7104497662
 40
1.0
 40
1.0
 40
1.0
 40
1.0
 10
60.1042379391
 20
120.1784779597
 30
0.0
 10
60.0714472
 20
120.1595474339
 30
0.0
 10
60.0083880067
 20
120.1155610069
 30
0.0
 10
59.8953252675
 20
120.0042917808
 30
0.0
 10
59.7832794454
 20
119.82170648
 30
0.0
 10
59.7053812449
 20
119.5570222974
 30
0.0
 10
59.6900043272
 20
119.3642782961
 30
0.0
 10
59.6900043272
 20
119.2629175434
 30
0.0
  0
SPLINE
  5
3A8
100
AcDbEntity
  8
0
100
AcDbSpline
 62
7
  6
BYLAYER
 70
0
 71
3
 72
15
 73
11
 74
0
 42
0.0000001
 43
0.0000001
 44
0.0000000001
 40
0.0
 40
0.0
 40
0.0
 40
0.0
 40
0.1060189477
 40
0.2241270534
 40
0.3519937681
 40
0.4860746903
 40
0.6221580436
 40
0.755835941
 40
0.8829380626
 40
1.0
 40
1.0
 40
1.0
 40
1.0
 10
76.5892764597
 20
109.1309444132
 30
0.0
 10
76.4806828786
 20
109.1681179061
 30
0.0
 10
76.2606749456
 20
109.2754925435
 30
0.0
 10
75.9534444753
 20
109.5035727333
 30
0.0
 10
75.6631443123
 20
109.7972022287
 30
0.0
 10
75.403458091
 20
110.1425936786
 30
0.0
 10
75.1864879321
 20
110.5235053537
 30
0.0
 10
75.0224996881
 20
110.9220037468
 30
0.0
 10
74.9192397588
 20
111.319142647
 30
0.0
 10
74.8929030721
 20
111.5837572929
 30
0.0
 10
74.8929036294
 20
111.7104927713
 30
0.0
  0
SPLINE
  5
3A9
100
AcDbEntity
  8
0
100
AcDbSpline
 62
7
  6
BYLAYER
 70
0
 71
3
 72
9
 73
5
 74
0
 42
0.0000001
 43
0.0000001
 44
0.0000000001
 40
0.0
 40
0.0
 40
0.0
 40
0.0
 40
0.261832248
 40
1.0
 40
1.0
 40
1.0
 40
1.0
 10
60.7506696928
 20
119.8752865181
 30
0.0
 10
60.7506698302
 20
119.9065248559
 30
0.0
 10
60.7536617746
 20
120.0257825566
 30
0.0
 10
60.7689662552
 20
120.1449619668
 30
0.0
 10
60.7889886024
 20
120.2307240773
 30
0.0
  0
SPLINE
  5
3AA
100
AcDbEntity
  8
0
100
AcDbSpline
 62
7
  6
BYLAYER
 70
0
 71
3
 72
15
 73
11
 74
0
 42
0.0000001
 43
0.0000001
 44
0.0000000001
 40
0.0
 40
0.0
 40
0.0
 40
0.0
 40
0.1060189477
 40
0.2241270534
 40
0.3519937681
 40
0.4860746903
 40
0.6221580436
 40
0.755835941
 40
0.8829380626
 40
1.0
 40
1.0
 40
1.0
 40
1.0
 10
62.4470425231
 20
117.29573816
 30
0.0
 10
62.338448942
 20
117.3329116529
 30
0.0
 10
62.118441009
 20
117.4402862903
 30
0.0
 10
61.8112105387
 20
117.6683664801
 30
0.0
 10
61.5209103757
 20
117.9619959755
 30
0.0
 10
61.2612241544
 20
118.3073874254
 30
0.0
 10
61.0442539956
 20
118.6882991005
 30
0.0
 10
60.8802657515
 20
119.0867974936
 30
0.0
 10
60.7770058223
 20
119.4839363938
 30
0.0
 10
60.7506691355
 20
119.7485510397
 30
0.0
 10
60.7506696928
 20
119.8752865181
 30
0.0
  0
SPLINE
  5
3AB
100
AcDbEntity
  8
0
100
AcDbSpline
 62
7
  6
BYLAYER
 70
0
 71
3
 72
9
 73
5
 74
0
 42
0.0000001
 43
0.0000001
 44
0.0000000001
 40
0.0
 40
0.0
 40
0.0
 40
0.0
 40
0.261832248
 40
1.0
 40
1.0
 40
1.0
 40
1.0
 10
64.286228177
 20
117.8340880814
 30
0.0
 10
64.2862283144
 20
117.8653264192
 30
0.0
 10
64.2892202587
 20
117.9845841199
 30
0.0
 10
64.3045247393
 20
118.1037635301
 30
0.0
 10
64.3245470865
 20
118.1895256406
 30
0.0
  0
SPLINE
  5
3AC
100
AcDbEntity
  8
0
100
AcDbSpline
 62
7
  6
BYLAYER
 70
0
 71
3
 72
12
 73
8
 74
0
 42
0.0000001
 43
0.0000001
 44
0.0000000001
 40
0.0
 40
0.0
 40
0.0
 40
0.0
 40
0.1081602523
 40
0.218368215
 40
0.4513506362
 40
0.7104497662
 40
1.0
 40
1.0
 40
1.0
 40
1.0
 10
74.2464718757
 20
112.0136842129
 30
0.0
 10
74.2136811366
 20
111.9947536871
 30
0.0
 10
74.1506219432
 20
111.9507672601
 30
0.0
 10
74.0375592041
 20
111.839498034
 30
0.0
 10
73.9255133819
 20
111.6569127332
 30
0.0
 10
73.8476151815
 20
111.3922285505
 30
0.0
 10
73.8322382638
 20
111.1994845493
 30
0.0
 10
73.8322382638
 20
111.0981237966
 30
0.0
  0
SPLINE
  5
3AD
100
AcDbEntity
  8
0
100
AcDbSpline
 62
7
  6
BYLAYER
 70
0
 71
3
 72
9
 73
5
 74
0
 42
0.0000001
 43
0.0000001
 44
0.0000000001
 40
0.0
 40
0.0
 40
0.0
 40
0.0
 40
0.261832248
 40
1.0
 40
1.0
 40
1.0
 40
1.0
 10
67.8217866611
 20
115.7928896447
 30
0.0
 10
67.8217867985
 20
115.8241279825
 30
0.0
 10
67.8247787429
 20
115.9433856832
 30
0.0
 10
67.8400832235
 20
116.0625650934
 30
0.0
 10
67.8601055707
 20
116.1483272039
 30
0.0
  0
SPLINE
  5
3AE
100
AcDbEntity
  8
0
100
AcDbSpline
 62
7
  6
BYLAYER
 70
0
 71
3
 72
9
 73
5
 74
0
 42
0.0000001
 43
0.0000001
 44
0.0000000001
 40
0.0
 40
0.0
 40
0.0
 40
0.0
 40
0.261832248
 40
1.0
 40
1.0
 40
1.0
 40
1.0
 10
71.3573451453
 20
113.751691208
 30
0.0
 10
71.3573452827
 20
113.7829295458
 30
0.0
 10
71.360337227
 20
113.9021872465
 30
0.0
 10
71.3756417076
 20
114.0213666567
 30
0.0
 10
71.3956640548
 20
114.1071287672
 30
0.0
  0
SPLINE
  5
3AF
100
AcDbEntity
  8
0
100
AcDbSpline
 62
7
  6
BYLAYER
 70
0
 71
3
 72
9
 73
5
 74
0
 42
0.0000001
 43
0.0000001
 44
0.0000000001
 40
0.0
 40
0.0
 40
0.0
 40
0.0
 40
0.261832248
 40
1.0
 40
1.0
 40
1.0
 40
1.0
 10
74.8929036294
 20
111.7104927713
 30
0.0
 10
74.8929037668
 20
111.7417311091
 30
0.0
 10
74.8958957112
 20
111.8609888098
 30
0.0
 10
74.9112001918
 20
111.98016822
 30
0.0
 10
74.9312225389
 20
112.0659303305
 30
0.0
  0
SPLINE
  5
3B0
100
AcDbEntity
  8
0
100
AcDbSpline
 62
7
  6
BYLAYER
 70
0
 71
3
 72
9
 73
5
 74
0
 42
0.0000001
 43
0.0000001
 44
0.0000000001
 40
0.0
 40
0.0
 40
0.0
 40
0.0
 40
0.261832248
 40
1.0
 40
1.0
 40
1.0
 40
1.0
 10
78.4284621136
 20
109.6692943346
 30
0.0
 10
78.4284622509
 20
109.7005326724
 30
0.0
 10
78.4314541953
 20
109.8197903731
 30
0.0
 10
78.4467586759
 20
109.9389697833
 30
0.0
 10
78.4667810231
 20
110.0247318938
 30
0.0
  0
SPLINE
  5
3B1
100
AcDbEntity
  8
0
100
AcDbSpline
 62
7
  6
BYLAYER
 70
0
 71
3
 72
20
 73
16
 74
0
 42
0.0000001
 43
0.0000001
 44
0.0000000001
 40
0.0
 40
0.0
 40
0.0
 40
0.0
 40
0.0623995107
 40
0.1288073319
 40
0.2703004282
 40
0.4173595794
 40
0.561613088
 40
0.6302520308
 40
0.6953770693
 40
0.7563609053
 40
0.8128323895
 40
0.8647626142
 40
0.9125665109
 40
0.9571682002
 40
1.0
 40
1.0
 40
1.0
 40
1.0
 10
80.9033552321
 20
107.0157269232
 30
0.0
 10
80.9033552321
 20
106.9327818347
 30
0.0
 10
80.9146205842
 20
106.7614417021
 30
0.0
 10
80.9776047138
 20
106.4071607353
 30
0.0
 10
81.1297573527
 20
105.9573604129
 30
0.0
 10
81.4046868273
 20
105.4492706714
 30
0.0
 10
81.7008822617
 20
105.0699667241
 30
0.0
 10
81.9673995449
 20
104.8132144162
 30
0.0
 10
82.1716562775
 20
104.6533342025
 30
0.0
 10
82.3791967702
 20
104.5263529102
 30
0.0
 10
82.5858456082
 20
104.4350150816
 30
0.0
 10
82.7874882917
 20
104.3814598807
 30
0.0
 10
82.9801529108
 20
104.367265726
 30
0.0
 10
83.1595750089
 20
104.3935563482
 30
0.0
 10
83.2682608578
 20
104.4387421438
 30
0.0
 10
83.3175684076
 20
104.4672080421
 30
0.0
  0
SPLINE
  5
3B2
100
AcDbEntity
  8
0
100
AcDbSpline
 62
7
  6
BYLAYER
 70
0
 71
3
 72
20
 73
16
 74
0
 42
0.0000001
 43
0.0000001
 44
0.0000000001
 40
0.0
 40
0.0
 40
0.0
 40
0.0
 40
0.0623995107
 40
0.1288073319
 40
0.2703004282
 40
0.4173595794
 40
0.561613088
 40
0.6302520308
 40
0.6953770693
 40
0.7563609053
 40
0.8128323895
 40
0.8647626142
 40
0.9125665109
 40
0.9571682002
 40
1.0
 40
1.0
 40
1.0
 40
1.0
 10
77.3677967479
 20
109.0569253599
 30
0.0
 10
77.3677967479
 20
108.9739802714
 30
0.0
 10
77.3790621001
 20
108.8026401388
 30
0.0
 10
77.4420462296
 20
108.448359172
 30
0.0
 10
77.5941988685
 20
107.9985588496
 30
0.0
 10
77.8691283432
 20
107.4904691081
 30
0.0
 10
78.1653237776
 20
107.1111651608
 30
0.0
 10
78.4318410607
 20
106.8544128529
 30
0.0
 10
78.6360977934
 20
106.6945326392
 30
0.0
 10
78.8436382861
 20
106.5675513469
 30
0.0
 10
79.0502871241
 20
106.4762135183
 30
0.0
 10
79.2519298075
 20
106.4226583174
 30
0.0
 10
79.4445944267
 20
106.4084641627
 30
0.0
 10
79.6240165248
 20
106.4347547849
 30
0.0
 10
79.7327023737
 20
106.4799405805
 30
0.0
 10
79.7820099234
 20
106.5084064788
 30
0.0
  0
SPLINE
  5
3B3
100
AcDbEntity
  8
0
100
AcDbSpline
 62
7
  6
BYLAYER
 70
0
 71
3
 72
15
 73
11
 74
0
 42
0.0000001
 43
0.0000001
 44
0.0000000001
 40
0.0
 40
0.0
 40
0.0
 40
0.0
 40
0.1060189477
 40
0.2241270534
 40
0.3519937681
 40
0.4860746903
 40
0.6221580436
 40
0.755835941
 40
0.8829380626
 40
1.0
 40
1.0
 40
1.0
 40
1.0
 10
65.9826010073
 20
115.2545397233
 30
0.0
 10
65.8740074261
 20
115.2917132162
 30
0.0
 10
65.6539994931
 20
115.3990878536
 30
0.0
 10
65.3467690229
 20
115.6271680434
 30
0.0
 10
65.0564688598
 20
115.9207975388
 30
0.0
 10
64.7967826386
 20
116.2661889887
 30
0.0
 10
64.5798124797
 20
116.6471006638
 30
0.0
 10
64.4158242357
 20
117.0455990569
 30
0.0
 10
64.3125643064
 20
117.4427379571
 30
0.0
 10
64.2862276197
 20
117.707352603
 30
0.0
 10
64.286228177
 20
117.8340880814
 30
0.0
  0
SPLINE
  5
3B4
100
AcDbEntity
  8
0
100
AcDbSpline
 62
7
  6
BYLAYER
 70
0
 71
3
 72
20
 73
16
 74
0
 42
0.0000001
 43
0.0000001
 44
0.0000000001
 40
0.0
 40
0.0
 40
0.0
 40
0.0
 40
0.0623995107
 40
0.1288073319
 40
0.2703004282
 40
0.4173595794
 40
0.561613088
 40
0.6302520308
 40
0.6953770693
 40
0.7563609053
 40
0.8128323895
 40
0.8647626142
 40
0.9125665109
 40
0.9571682002
 40
1.0
 40
1.0
 40
1.0
 40
1.0
 10
73.8322382638
 20
111.0981237966
 30
0.0
 10
73.8322382638
 20
111.0151787081
 30
0.0
 10
73.8435036159
 20
110.8438385755
 30
0.0
 10
73.9064877455
 20
110.4895576087
 30
0.0
 10
74.0586403844
 20
110.0397572863
 30
0.0
 10
74.333569859
 20
109.5316675448
 30
0.0
 10
74.6297652934
 20
109.1523635976
 30
0.0
 10
74.8962825766
 20
108.8956112896
 30
0.0
 10
75.1005393093
 20
108.7357310759
 30
0.0
 10
75.3080798019
 20
108.6087497836
 30
0.0
 10
75.5147286399
 20
108.517411955
 30
0.0
 10
75.7163713234
 20
108.4638567541
 30
0.0
 10
75.9090359425
 20
108.4496625994
 30
0.0
 10
76.0884580407
 20
108.4759532216
 30
0.0
 10
76.1971438895
 20
108.5211390172
 30
0.0
 10
76.2464514393
 20
108.5496049155
 30
0.0
  0
SPLINE
  5
3B5
100
AcDbEntity
  8
0
100
AcDbSpline
 62
7
  6
BYLAYER
 70
0
 71
3
 72
15
 73
11
 74
0
 42
0.0000001
 43
0.0000001
 44
0.0000000001
 40
0.0
 40
0.0
 40
0.0
 40
0.0
 40
0.1060189477
 40
0.2241270534
 40
0.3519937681
 40
0.4860746903
 40
0.6221580436
 40
0.755835941
 40
0.8829380626
 40
1.0
 40
1.0
 40
1.0
 40
1.0
 10
73.0537179756
 20
111.1721428499
 30
0.0
 10
72.9451243944
 20
111.2093163428
 30
0.0
 10
72.7251164614
 20
111.3166909802
 30
0.0
 10
72.4178859912
 20
111.54477117
 30
0.0
 10
72.1275858281
 20
111.8384006654
 30
0.0
 10
71.8678996069
 20
112.1837921153
 30
0.0
 10
71.650929448
 20
112.5647037904
 30
0.0
 10
71.486941204
 20
112.9632021835
 30
0.0
 10
71.3836812747
 20
113.3603410837
 30
0.0
 10
71.3573445879
 20
113.6249557296
 30
0.0
 10
71.3573451453
 20
113.751691208
 30
0.0
  0
SPLINE
  5
3B6
100
AcDbEntity
  8
0
100
AcDbSpline
 62
7
  6
BYLAYER
 70
0
 71
3
 72
20
 73
16
 74
0
 42
0.0000001
 43
0.0000001
 44
0.0000000001
 40
0.0
 40
0.0
 40
0.0
 40
0.0
 40
0.0623995107
 40
0.1288073319
 40
0.2703004282
 40
0.4173595794
 40
0.561613088
 40
0.6302520308
 40
0.6953770693
 40
0.7563609053
 40
0.8128323895
 40
0.8647626142
 40
0.9125665109
 40
0.9571682002
 40
1.0
 40
1.0
 40
1.0
 40
1.0
 10
70.2966797797
 20
113.1393222333
 30
0.0
 10
70.2966797797
 20
113.0563771448
 30
0.0
 10
70.3079451318
 20
112.8850370123
 30
0.0
 10
70.3709292614
 20
112.5307560454
 30
0.0
 10
70.5230819003
 20
112.080955723
 30
0.0
 10
70.7980113749
 20
111.5728659815
 30
0.0
 10
71.0942068093
 20
111.1935620343
 30
0.0
 10
71.3607240924
 20
110.9368097263
 30
0.0
 10
71.5649808251
 20
110.7769295126
 30
0.0
 10
71.7725213178
 20
110.6499482203
 30
0.0
 10
71.9791701558
 20
110.5586103917
 30
0.0
 10
72.1808128393
 20
110.5050551908
 30
0.0
 10
72.3734774584
 20
110.4908610361
 30
0.0
 10
72.5528995565
 20
110.5171516583
 30
0.0
 10
72.6615854054
 20
110.5623374539
 30
0.0
 10
72.7108929551
 20
110.5908033522
 30
0.0
  0
SPLINE
  5
3B7
100
AcDbEntity
  8
0
100
AcDbSpline
 62
7
  6
BYLAYER
 70
0
 71
3
 72
20
 73
16
 74
0
 42
0.0000001
 43
0.0000001
 44
0.0000000001
 40
0.0
 40
0.0
 40
0.0
 40
0.0
 40
0.0623995107
 40
0.1288073319
 40
0.2703004282
 40
0.4173595794
 40
0.561613088
 40
0.6302520308
 40
0.6953770693
 40
0.7563609053
 40
0.8128323895
 40
0.8647626142
 40
0.9125665109
 40
0.9571682002
 40
1.0
 40
1.0
 40
1.0
 40
1.0
 10
66.7611212955
 20
115.18052067
 30
0.0
 10
66.7611212955
 20
115.0975755815
 30
0.0
 10
66.7723866477
 20
114.926235449
 30
0.0
 10
66.8353707772
 20
114.5719544821
 30
0.0
 10
66.9875234161
 20
114.1221541597
 30
0.0
 10
67.2624528907
 20
113.6140644183
 30
0.0
 10
67.5586483251
 20
113.234760471
 30
0.0
 10
67.8251656083
 20
112.978008163
 30
0.0
 10
68.029422341
 20
112.8181279493
 30
0.0
 10
68.2369628336
 20
112.691146657
 30
0.0
 10
68.4436116716
 20
112.5998088284
 30
0.0
 10
68.6452543551
 20
112.5462536275
 30
0.0
 10
68.8379189742
 20
112.5320594728
 30
0.0
 10
69.0173410724
 20
112.558350095
 30
0.0
 10
69.1260269212
 20
112.6035358906
 30
0.0
 10
69.175334471
 20
112.6320017889
 30
0.0
  0
SPLINE
  5
3B8
100
AcDbEntity
  8
0
100
AcDbSpline
 62
7
  6
BYLAYER
 70
0
 71
3
 72
20
 73
16
 74
0
 42
0.0000001
 43
0.0000001
 44
0.0000000001
 40
0.0
 40
0.0
 40
0.0
 40
0.0
 40
0.0623995107
 40
0.1288073319
 40
0.2703004282
 40
0.4173595794
 40
0.561613088
 40
0.6302520308
 40
0.6953770693
 40
0.7563609053
 40
0.8128323895
 40
0.8647626142
 40
0.9125665109
 40
0.9571682002
 40
1.0
 40
1.0
 40
1.0
 40
1.0
 10
63.2255628114
 20
117.2217191067
 30
0.0
 10
63.2255628114
 20
117.1387740182
 30
0.0
 10
63.2368281635
 20
116.9674338857
 30
0.0
 10
63.2998122931
 20
116.6131529188
 30
0.0
 10
63.451964932
 20
116.1633525964
 30
0.0
 10
63.7268944066
 20
115.655262855
 30
0.0
 10
64.023089841
 20
115.2759589077
 30
0.0
 10
64.2896071241
 20
115.0192065997
 30
0.0
 10
64.4938638568
 20
114.859326386
 30
0.0
 10
64.7014043495
 20
114.7323450937
 30
0.0
 10
64.9080531875
 20
114.6410072651
 30
0.0
 10
65.109695871
 20
114.5874520642
 30
0.0
 10
65.3023604901
 20
114.5732579095
 30
0.0
 10
65.4817825882
 20
114.5995485317
 30
0.0
 10
65.5904684371
 20
114.6447343273
 30
0.0
 10
65.6397759868
 20
114.6732002256
 30
0.0
  0
SPLINE
  5
3B9
100
AcDbEntity
  8
0
100
AcDbSpline
 62
7
  6
BYLAYER
 70
0
 71
3
 72
20
 73
16
 74
0
 42
0.0000001
 43
0.0000001
 44
0.0000000001
 40
0.0
 40
0.0
 40
0.0
 40
0.0
 40
0.0623995107
 40
0.1288073319
 40
0.2703004282
 40
0.4173595794
 40
0.561613088
 40
0.6302520308
 40
0.6953770693
 40
0.7563609053
 40
0.8128323895
 40
0.8647626142
 40
0.9125665109
 40
0.9571682002
 40
1.0
 40
1.0
 40
1.0
 40
1.0
 10
59.6900043272
 20
119.2629175434
 30
0.0
 10
59.6900043272
 20
119.1799724549
 30
0.0
 10
59.7012696794
 20
119.0086323224
 30
0.0
 10
59.7642538089
 20
118.6543513555
 30
0.0
 10
59.9164064478
 20
118.2045510331
 30
0.0
 10
60.1913359224
 20
117.6964612917
 30
0.0
 10
60.4875313569
 20
117.3171573444
 30
0.0
 10
60.75404864
 20
117.0604050364
 30
0.0
 10
60.9583053727
 20
116.9005248227
 30
0.0
 10
61.1658458653
 20
116.7735435304
 30
0.0
 10
61.3724947034
 20
116.6822057018
 30
0.0
 10
61.5741373868
 20
116.6286505009
 30
0.0
 10
61.7668020059
 20
116.6144563462
 30
0.0
 10
61.9462241041
 20
116.6407469684
 30
0.0
 10
62.0549099529
 20
116.685932764
 30
0.0
 10
62.1042175027
 20
116.7143986623
 30
0.0
  0
SPLINE
  5
3BA
100
AcDbEntity
  8
0
100
AcDbSpline
 62
7
  6
BYLAYER
 70
0
 71
3
 72
15
 73
11
 74
0
 42
0.0000001
 43
0.0000001
 44
0.0000000001
 40
0.0
 40
0.0
 40
0.0
 40
0.0
 40
0.1060189477
 40
0.2241270534
 40
0.3519937681
 40
0.4860746903
 40
0.6221580436
 40
0.755835941
 40
0.8829380626
 40
1.0
 40
1.0
 40
1.0
 40
1.0
 10
80.1248349438
 20
107.0897459765
 30
0.0
 10
80.0162413627
 20
107.1269194694
 30
0.0
 10
79.7962334297
 20
107.2342941068
 30
0.0
 10
79.4890029595
 20
107.4623742966
 30
0.0
 10
79.1987027964
 20
107.756003792
 30
0.0
 10
78.9390165752
 20
108.1013952419
 30
0.0
 10
78.7220464163
 20
108.482306917
 30
0.0
 10
78.5580581722
 20
108.8808053101
 30
0.0
 10
78.454798243
 20
109.2779442103
 30
0.0
 10
78.4284615562
 20
109.5425588562
 30
0.0
 10
78.4284621136
 20
109.6692943346
 30
0.0
  0
SPLINE
  5
3BB
100
AcDbEntity
  8
0
100
AcDbSpline
 62
7
  6
BYLAYER
 70
0
 71
3
 72
12
 73
8
 74
0
 42
0.0000001
 43
0.0000001
 44
0.0000000001
 40
0.0
 40
0.0
 40
0.0
 40
0.0
 40
0.1081602523
 40
0.218368215
 40
0.4513506362
 40
0.7104497662
 40
1.0
 40
1.0
 40
1.0
 40
1.0
 10
77.7820303598
 20
109.9724857762
 30
0.0
 10
77.7492396207
 20
109.9535552504
 30
0.0
 10
77.6861804274
 20
109.9095688233
 30
0.0
 10
77.5731176882
 20
109.7982995973
 30
0.0
 10
77.4610718661
 20
109.6157142965
 30
0.0
 10
77.3831736656
 20
109.3510301138
 30
0.0
 10
77.3677967479
 20
109.1582861126
 30
0.0
 10
77.3677967479
 20
109.0569253599
 30
0.0
  0
SPLINE
  5
3BC
100
AcDbEntity
  8
0
100
AcDbSpline
 62
7
  6
BYLAYER
 70
0
 71
3
 72
9
 73
5
 74
0
 42
0.0000001
 43
0.0000001
 44
0.0000000001
 40
0.0
 40
0.0
 40
0.0
 40
0.0
 40
0.261832248
 40
1.0
 40
1.0
 40
1.0
 40
1.0
 10
81.9640205977
 20
107.6280958979
 30
0.0
 10
81.9640207351
 20
107.6593342357
 30
0.0
 10
81.9670126795
 20
107.7785919364
 30
0.0
 10
81.9823171601
 20
107.8977713466
 30
0.0
 10
82.0023395072
 20
107.9835334571
 30
0.0
  0
SPLINE
  5
3BD
100
AcDbEntity
  8
0
100
AcDbSpline
 62
7
  6
BYLAYER
 70
0
 71
3
 72
15
 73
11
 74
0
 42
0.0000001
 43
0.0000001
 44
0.0000000001
 40
0.0
 40
0.0
 40
0.0
 40
0.0
 40
0.1060189477
 40
0.2241270534
 40
0.3519937681
 40
0.4860746903
 40
0.6221580436
 40
0.755835941
 40
0.8829380626
 40
1.0
 40
1.0
 40
1.0
 40
1.0
 10
69.5181594914
 20
113.2133412866
 30
0.0
 10
69.4095659103
 20
113.2505147795
 30
0.0
 10
69.1895579773
 20
113.3578894169
 30
0.0
 10
68.882327507
 20
113.5859696067
 30
0.0
 10
68.592027344
 20
113.8795991021
 30
0.0
 10
68.3323411227
 20
114.224990552
 30
0.0
 10
68.1153709639
 20
114.6059022271
 30
0.0
 10
67.9513827198
 20
115.0044006202
 30
0.0
 10
67.8481227906
 20
115.4015395204
 30
0.0
 10
67.8217861038
 20
115.6661541663
 30
0.0
 10
67.8217866611
 20
115.7928896447
 30
0.0
  0
SPLINE
  5
3BE
100
AcDbEntity
  8
0
100
AcDbSpline
 62
7
  6
BYLAYER
 70
0
 71
3
 72
12
 73
8
 74
0
 42
0.0000001
 43
0.0000001
 44
0.0000000001
 40
0.0
 40
0.0
 40
0.0
 40
0.0
 40
0.1081602523
 40
0.218368215
 40
0.4513506362
 40
0.7104497662
 40
1.0
 40
1.0
 40
1.0
 40
1.0
 10
67.1753549074
 20
116.0960810863
 30
0.0
 10
67.1425641683
 20
116.0771505605
 30
0.0
 10
67.079504975
 20
116.0331641335
 30
0.0
 10
66.9664422358
 20
115.9218949075
 30
0.0
 10
66.8543964137
 20
115.7393096066
 30
0.0
 10
66.7764982132
 20
115.474625424
 30
0.0
 10
66.7611212955
 20
115.2818814227
 30
0.0
 10
66.7611212955
 20
115.18052067
 30
0.0
  0
SPLINE
  5
3BF
100
AcDbEntity
  8
0
100
AcDbSpline
 62
7
  6
BYLAYER
 70
0
 71
3
 72
15
 73
11
 74
0
 42
0.0000001
 43
0.0000001
 44
0.0000000001
 40
0.0
 40
0.0
 40
0.0
 40
0.0
 40
0.1060189477
 40
0.2241270534
 40
0.3519937681
 40
0.4860746903
 40
0.6221580436
 40
0.755835941
 40
0.8829380626
 40
1.0
 40
1.0
 40
1.0
 40
1.0
 10
83.660393428
 20
105.0485475398
 30
0.0
 10
83.5517998469
 20
105.0857210327
 30
0.0
 10
83.3317919139
 20
105.1930956701
 30
0.0
 10
83.0245614436
 20
105.4211758599
 30
0.0
 10
82.7342612805
 20
105.7148053553
 30
0.0
 10
82.4745750593
 20
106.0601968052
 30
0.0
 10
82.2576049004
 20
106.4411084803
 30
0.0
 10
82.0936166564
 20
106.8396068734
 30
0.0
 10
81.9903567271
 20
107.2367457735
 30
0.0
 10
81.9640200404
 20
107.5013604195
 30
0.0
 10
81.9640205977
 20
107.6280958979
 30
0.0
  0
SPLINE
  5
3C0
100
AcDbEntity
  8
0
100
AcDbSpline
 62
7
  6
BYLAYER
 70
0
 71
3
 72
12
 73
8
 74
0
 42
0.0000001
 43
0.0000001
 44
0.0000000001
 40
0.0
 40
0.0
 40
0.0
 40
0.0
 40
0.1081602523
 40
0.218368215
 40
0.4513506362
 40
0.7104497662
 40
1.0
 40
1.0
 40
1.0
 40
1.0
 10
70.7109133915
 20
114.0548826496
 30
0.0
 10
70.6781226525
 20
114.0359521238
 30
0.0
 10
70.6150634591
 20
113.9919656968
 30
0.0
 10
70.5020007199
 20
113.8806964707
 30
0.0
 10
70.3899548978
 20
113.6981111699
 30
0.0
 10
70.3120566974
 20
113.4334269872
 30
0.0
 10
70.2966797797
 20
113.240682986
 30
0.0
 10
70.2966797797
 20
113.1393222333
 30
0.0
  0
SPLINE
  5
3C1
100
AcDbEntity
  8
0
100
AcDbSpline
 62
7
  6
BYLAYER
 70
0
 71
3
 72
11
 73
7
 74
0
 42
0.0000001
 43
0.0000001
 44
0.0000000001
 40
0.0
 40
0.0
 40
0.0
 40
0.0
 40
0.2146069702
 40
0.4455099452
 40
0.7056911666
 40
1.0
 40
1.0
 40
1.0
 40
1.0
 10
53.0301278749
 20
45.8652419722
 30
0.0
 10
53.0609163664
 20
45.8830836418
 30
0.0
 10
53.1182551798
 20
45.9327017571
 30
0.0
 10
53.1757605321
 20
46.0366758063
 30
0.0
 10
53.206796024
 20
46.1643265152
 30
0.0
 10
53.2095129227
 20
46.2568725953
 30
0.0
 10
53.2069088605
 20
46.3056031204
 30
0.0
  0
SPLINE
  5
3C2
100
AcDbEntity
  8
0
100
AcDbSpline
 62
7
  6
BYLAYER
 70
0
 71
3
 72
9
 73
5
 74
0
 42
0.0000001
 43
0.0000001
 44
0.0000000001
 40
0.0
 40
0.0
 40
0.0
 40
0.0
 40
0.2328175972
 40
1.0
 40
1.0
 40
1.0
 40
1.0
 10
49.9139602181
 20
136.0844766791
 30
0.0
 10
49.816764639
 20
136.067668853
 30
0.0
 10
49.4032128328
 20
135.9727708239
 30
0.0
 10
49.0112938412
 20
135.7958316034
 30
0.0
 10
48.7298037523
 20
135.6333203369
 30
0.0
  0
SPLINE
  5
3C3
100
AcDbEntity
  8
0
100
AcDbSpline
 62
7
  6
BYLAYER
 70
0
 71
3
 72
9
 73
5
 74
0
 42
0.0000001
 43
0.0000001
 44
0.0000000001
 40
0.0
 40
0.0
 40
0.0
 40
0.0
 40
0.4853213168
 40
1.0
 40
1.0
 40
1.0
 40
1.0
 10
42.1182284952
 20
131.8163003005
 30
0.0
 10
41.0763760629
 20
131.2148100709
 30
0.0
 10
39.0052099666
 20
129.8418997856
 30
0.0
 10
37.0908799569
 20
128.2602276598
 30
0.0
 10
36.1458917637
 20
127.4031223293
 30
0.0
  0
SPLINE
  5
3C4
100
AcDbEntity
  8
0
100
AcDbSpline
 62
7
  6
BYLAYER
 70
0
 71
3
 72
9
 73
5
 74
0
 42
0.0000001
 43
0.0000001
 44
0.0000000001
 40
0.0
 40
0.0
 40
0.0
 40
0.0
 40
0.2468645529
 40
1.0
 40
1.0
 40
1.0
 40
1.0
 10
16.4632511826
 20
99.5550935594
 30
0.0
 10
16.3433369061
 20
99.4314659157
 30
0.0
 10
15.8634969082
 20
98.9249677329
 30
0.0
 10
15.407142501
 20
98.3962898464
 30
0.0
 10
15.0769010905
 20
97.987598828
 30
0.0
  0
SPLINE
  5
3C5
100
AcDbEntity
  8
0
100
AcDbSpline
 62
7
  6
BYLAYER
 70
0
 71
3
 72
11
 73
7
 74
0
 42
0.0000001
 43
0.0000001
 44
0.0000000001
 40
0.0
 40
0.0
 40
0.0
 40
0.0
 40
0.2579971384
 40
0.5170454164
 40
0.7673029575
 40
1.0
 40
1.0
 40
1.0
 40
1.0
 10
15.0769010905
 20
97.987598828
 30
0.0
 10
14.9520427064
 20
97.8330800471
 30
0.0
 10
14.7242243574
 20
97.5046963145
 30
0.0
 10
14.4560157034
 20
96.9762150856
 30
0.0
 10
14.2708500531
 20
96.4336999386
 30
0.0
 10
14.2066755113
 20
96.0651407051
 30
0.0
 10
14.1934845186
 20
95.8864484964
 30
0.0
  0
SPLINE
  5
3C6
100
AcDbEntity
  8
0
100
AcDbSpline
 62
7
  6
BYLAYER
 70
0
 71
3
 72
9
 73
5
 74
0
 42
0.0000001
 43
0.0000001
 44
0.0000000001
 40
0.0
 40
0.0
 40
0.0
 40
0.0
 40
0.5110852594
 40
1.0
 40
1.0
 40
1.0
 40
1.0
 10
14.1934845186
 20
95.8864484964
 30
0.0
 10
13.7936213281
 20
90.467469503
 30
0.0
 10
13.3767649079
 20
79.8335151194
 30
0.0
 10
13.7754984897
 20
69.1960589123
 30
0.0
 10
14.193386789
 20
64.0148828015
 30
0.0
  0
SPLINE
  5
3C7
100
AcDbEntity
  8
0
100
AcDbSpline
 62
7
  6
BYLAYER
 70
0
 71
3
 72
11
 73
7
 74
0
 42
0.0000001
 43
0.0000001
 44
0.0000000001
 40
0.0
 40
0.0
 40
0.0
 40
0.0
 40
0.2844079952
 40
0.541979723
 40
0.7772809672
 40
1.0
 40
1.0
 40
1.0
 40
1.0
 10
14.193386789
 20
64.0148828015
 30
0.0
 10
14.201986551
 20
63.9074413641
 30
0.0
 10
14.2344561213
 20
63.7033298577
 30
0.0
 10
14.3383018803
 20
63.4251358612
 30
0.0
 10
14.4936825893
 20
63.1990727397
 30
0.0
 10
14.6312461666
 20
63.0882258685
 30
0.0
 10
14.7043432993
 20
63.0460215192
 30
0.0
  0
SPLINE
  5
3C8
100
AcDbEntity
  8
0
100
AcDbSpline
 62
7
  6
BYLAYER
 70
0
 71
3
 72
11
 73
7
 74
0
 42
0.0000001
 43
0.0000001
 44
0.0000000001
 40
0.0
 40
0.0
 40
0.0
 40
0.0
 40
0.2113431609
 40
0.4426153017
 40
0.7043321284
 40
1.0
 40
1.0
 40
1.0
 40
1.0
 10
21.4534855787
 20
63.6832811571
 30
0.0
 10
21.4117786085
 20
63.6592147275
 30
0.0
 10
21.315014763
 20
63.6240205623
 30
0.0
 10
21.1528069787
 20
63.6171638669
 30
0.0
 10
20.9753060169
 20
63.6524031573
 30
0.0
 10
20.8567395582
 20
63.6996570713
 30
0.0
 10
20.7960292876
 20
63.7288515598
 30
0.0
  0
SPLINE
  5
3C9
100
AcDbEntity
  8
0
100
AcDbSpline
 62
7
  6
BYLAYER
 70
0
 71
3
 72
11
 73
7
 74
0
 42
0.0000001
 43
0.0000001
 44
0.0000000001
 40
0.0
 40
0.0
 40
0.0
 40
0.0
 40
0.2262835694
 40
0.4625371728
 40
0.7188194824
 40
1.0
 40
1.0
 40
1.0
 40
1.0
 10
57.549381086
 20
58.2217336499
 30
0.0
 10
57.501387699
 20
58.1940468033
 30
0.0
 10
57.394013774
 20
58.1521367661
 30
0.0
 10
57.216378455
 20
58.1384113582
 30
0.0
 10
57.0282646951
 20
58.1721323778
 30
0.0
 10
56.9055370872
 20
58.2221130761
 30
0.0
 10
56.8441447156
 20
58.2532760393
 30
0.0
  0
SPLINE
  5
3CA
100
AcDbEntity
  8
0
100
AcDbSpline
 62
7
  6
BYLAYER
 70
0
 71
3
 72
10
 73
6
 74
0
 42
0.0000001
 43
0.0000001
 44
0.0000000001
 40
0.0
 40
0.0
 40
0.0
 40
0.0
 40
0.5241826701
 40
0.7699159568
 40
1.0
 40
1.0
 40
1.0
 40
1.0
 10
100.4346143999
 20
38.0302717499
 30
0.0
 10
100.1368287232
 20
37.6027282429
 30
0.0
 10
99.6410493906
 20
37.0109205533
 30
0.0
 10
98.8882260656
 20
36.359665942
 30
0.0
 10
98.4951836586
 20
36.0937031983
 30
0.0
 10
98.2971214794
 20
35.9793586343
 30
0.0
  0
SPLINE
  5
3CB
100
AcDbEntity
  8
0
100
AcDbSpline
 62
7
  6
BYLAYER
 70
0
 71
3
 72
9
 73
5
 74
0
 42
0.0000001
 43
0.0000001
 44
0.0000000001
 40
0.0
 40
0.0
 40
0.0
 40
0.0
 40
0.5193103926
 40
1.0
 40
1.0
 40
1.0
 40
1.0
 10
91.685791959
 20
32.162261785
 30
0.0
 10
90.7138493706
 20
31.6011075605
 30
0.0
 10
88.7775836006
 20
30.6270720881
 30
0.0
 10
86.7220855461
 20
29.9291847436
 30
0.0
 10
85.7137137516
 20
29.6794391211
 30
0.0
  0
SPLINE
  5
3CC
100
AcDbEntity
  8
0
100
AcDbSpline
 62
7
  6
BYLAYER
 70
0
 71
3
 72
9
 73
5
 74
0
 42
0.0000001
 43
0.0000001
 44
0.0000000001
 40
0.0
 40
0.0
 40
0.0
 40
0.0
 40
0.2696180675
 40
1.0
 40
1.0
 40
1.0
 40
1.0
 10
66.2780000153
 20
34.4327456721
 30
0.0
 10
66.2575065555
 20
34.4213358186
 30
0.0
 10
66.1799965075
 20
34.381976092
 30
0.0
 10
66.0953732804
 20
34.3550488408
 30
0.0
 10
66.032314455
 20
34.3472428281
 30
0.0
  0
SPLINE
  5
3CD
100
AcDbEntity
  8
0
100
AcDbSpline
 62
7
  6
BYLAYER
 70
0
 71
3
 72
9
 73
5
 74
0
 42
0.0000001
 43
0.0000001
 44
0.0000000001
 40
0.0
 40
0.0
 40
0.0
 40
0.0
 40
0.2572903994
 40
1.0
 40
1.0
 40
1.0
 40
1.0
 10
66.032314455
 20
34.3472428281
 30
0.0
 10
65.9140972625
 20
34.3326074503
 30
0.0
 10
65.4534012985
 20
34.2865613156
 30
0.0
 10
64.9878199822
 20
34.2854611336
 30
0.0
 10
64.6451367951
 20
34.313859682
 30
0.0
  0
SPLINE
  5
3CE
100
AcDbEntity
  8
0
100
AcDbSpline
 62
7
  6
BYLAYER
 70
0
 71
3
 72
11
 73
7
 74
0
 42
0.0000001
 43
0.0000001
 44
0.0000000001
 40
0.0
 40
0.0
 40
0.0
 40
0.0
 40
0.2232998409
 40
0.4581411222
 40
0.7154921767
 40
1.0
 40
1.0
 40
1.0
 40
1.0
 10
21.053536958
 20
79.2919351914
 30
0.0
 10
21.0017030967
 20
79.2620428404
 30
0.0
 10
20.8844185301
 20
79.2179660146
 30
0.0
 10
20.6902246867
 20
79.2096309323
 30
0.0
 10
20.4853834809
 20
79.2563054828
 30
0.0
 10
20.3530216852
 20
79.3185068797
 30
0.0
 10
20.286998156
 20
79.35662471
 30
0.0
  0
SPLINE
  5
3CF
100
AcDbEntity
  8
0
100
AcDbSpline
 62
7
  6
BYLAYER
 70
0
 71
3
 72
11
 73
7
 74
0
 42
0.0000001
 43
0.0000001
 44
0.0000000001
 40
0.0
 40
0.0
 40
0.0
 40
0.0
 40
0.2503248951
 40
0.5006079183
 40
0.7504582879
 40
1.0
 40
1.0
 40
1.0
 40
1.0
 10
30.0056562656
 20
82.2026615839
 30
0.0
 10
29.8905882457
 20
82.2651366387
 30
0.0
 10
29.6603186356
 20
82.3897945013
 30
0.0
 10
29.3153344986
 20
82.5770591722
 30
0.0
 10
28.9699470547
 20
82.7627180558
 30
0.0
 10
28.7392179038
 20
82.8851755492
 30
0.0
 10
28.6242477306
 20
82.9469698407
 30
0.0
  0
SPLINE
  5
3D0
100
AcDbEntity
  8
0
100
AcDbSpline
 62
7
  6
BYLAYER
 70
0
 71
3
 72
11
 73
7
 74
0
 42
0.0000001
 43
0.0000001
 44
0.0000000001
 40
0.0
 40
0.0
 40
0.0
 40
0.0
 40
0.2503888159
 40
0.5006460333
 40
0.7505936161
 40
1.0
 40
1.0
 40
1.0
 40
1.0
 10
28.5055924325
 20
83.0146567387
 30
0.0
 10
28.1964908356
 20
83.1798559257
 30
0.0
 10
27.5779471535
 20
83.5092256459
 30
0.0
 10
26.6504979556
 20
84.0028480683
 30
0.0
 10
25.7231046823
 20
84.4936492281
 30
0.0
 10
25.1036810738
 20
84.8174809656
 30
0.0
 10
24.794042694
 20
84.9787156381
 30
0.0
  0
SPLINE
  5
3D1
100
AcDbEntity
  8
0
100
AcDbSpline
 62
7
  6
BYLAYER
 70
0
 71
3
 72
11
 73
7
 74
0
 42
0.0000001
 43
0.0000001
 44
0.0000000001
 40
0.0
 40
0.0
 40
0.0
 40
0.0
 40
0.2807306063
 40
0.537040037
 40
0.7735639881
 40
1.0
 40
1.0
 40
1.0
 40
1.0
 10
24.794042694
 20
84.9787156381
 30
0.0
 10
24.7523985521
 20
85.0004708599
 30
0.0
 10
24.668699653
 20
85.0350722899
 30
0.0
 10
24.5402217424
 20
85.0583802919
 30
0.0
 10
24.4186811926
 20
85.0497036597
 30
0.0
 10
24.3451225577
 20
85.0211243075
 30
0.0
 10
24.3123296614
 20
85.0021287121
 30
0.0
  0
SPLINE
  5
3D2
100
AcDbEntity
  8
0
100
AcDbSpline
 62
7
  6
BYLAYER
 70
0
 71
3
 72
11
 73
7
 74
0
 42
0.0000001
 43
0.0000001
 44
0.0000000001
 40
0.0
 40
0.0
 40
0.0
 40
0.0
 40
0.2397243906
 40
0.5011272887
 40
0.7618997118
 40
1.0
 40
1.0
 40
1.0
 40
1.0
 10
53.2039191253
 20
67.7113910821
 30
0.0
 10
53.2096472617
 20
67.8258685226
 30
0.0
 10
53.1794085683
 20
68.0673887777
 30
0.0
 10
53.0500810336
 20
68.4109972965
 30
0.0
 10
52.8468167738
 20
68.7158106033
 30
0.0
 10
52.6683284975
 20
68.8799593532
 30
0.0
 10
52.5721191548
 20
68.9408218716
 30
0.0
  0
SPLINE
  5
3D3
100
AcDbEntity
  8
0
100
AcDbSpline
 62
7
  6
BYLAYER
 70
0
 71
3
 72
11
 73
7
 74
0
 42
0.0000001
 43
0.0000001
 44
0.0000000001
 40
0.0
 40
0.0
 40
0.0
 40
0.0
 40
0.2410785982
 40
0.5046567899
 40
0.7657012478
 40
1.0
 40
1.0
 40
1.0
 40
1.0
 10
24.5403523282
 20
62.026237657
 30
0.0
 10
24.4707568565
 20
62.0698140269
 30
0.0
 10
24.3387937091
 20
62.1831897853
 30
0.0
 10
24.1796048639
 20
62.3917040149
 30
0.0
 10
24.0647252355
 20
62.6250111884
 30
0.0
 10
24.024265728
 20
62.7911821103
 30
0.0
 10
24.0180848223
 20
62.8707454462
 30
0.0
  0
SPLINE
  5
3D4
100
AcDbEntity
  8
0
100
AcDbSpline
 62
7
  6
BYLAYER
 70
0
 71
3
 72
9
 73
5
 74
0
 42
0.0000001
 43
0.0000001
 44
0.0000000001
 40
0.0
 40
0.0
 40
0.0
 40
0.0
 40
0.4940084424
 40
1.0
 40
1.0
 40
1.0
 40
1.0
 10
52.4316006684
 20
45.9241452605
 30
0.0
 10
47.7415028896
 20
48.4014766936
 30
0.0
 10
38.344931213
 20
53.6023857808
 30
0.0
 10
29.1449825683
 20
59.143006963
 30
0.0
 10
24.5403523282
 20
62.026237657
 30
0.0
  0
SPLINE
  5
3D5
100
AcDbEntity
  8
0
100
AcDbSpline
 62
7
  6
BYLAYER
 70
0
 71
3
 72
9
 73
5
 74
0
 42
0.0000001
 43
0.0000001
 44
0.0000000001
 40
0.0
 40
0.0
 40
0.0
 40
0.0
 40
0.2556230957
 40
1.0
 40
1.0
 40
1.0
 40
1.0
 10
24.0605145855
 20
84.4476538407
 30
0.0
 10
23.9643031859
 20
82.6111734929
 30
0.0
 10
23.675238836
 20
75.422705272
 30
0.0
 10
23.7423388008
 20
68.2185948271
 30
0.0
 10
24.0180965909
 20
62.8705172068
 30
0.0
  0
SPLINE
  5
3D6
100
AcDbEntity
  8
0
100
AcDbSpline
 62
7
  6
BYLAYER
 70
0
 71
3
 72
9
 73
5
 74
0
 42
0.0000001
 43
0.0000001
 44
0.0000000001
 40
0.0
 40
0.0
 40
0.0
 40
0.0
 40
0.2555948402
 40
1.0
 40
1.0
 40
1.0
 40
1.0
 10
53.2039455352
 20
67.7110993367
 30
0.0
 10
53.1127968586
 20
65.8891955166
 30
0.0
 10
52.8424050816
 20
58.7572150052
 30
0.0
 10
52.9236489109
 20
51.610614117
 30
0.0
 10
53.2068750922
 20
46.3053431962
 30
0.0
  0
SPLINE
  5
3D7
100
AcDbEntity
  8
0
100
AcDbSpline
 62
7
  6
BYLAYER
 70
0
 71
3
 72
9
 73
5
 74
0
 42
0.0000001
 43
0.0000001
 44
0.0000000001
 40
0.0
 40
0.0
 40
0.0
 40
0.0
 40
0.2591416261
 40
1.0
 40
1.0
 40
1.0
 40
1.0
 10
16.9945368695
 20
68.7401353994
 30
0.0
 10
16.983039881
 20
68.8940576095
 30
0.0
 10
16.9513222121
 20
69.4888292446
 30
0.0
 10
16.9711797402
 20
70.0869282764
 30
0.0
 10
17.0209966374
 20
70.5253803295
 30
0.0
  0
SPLINE
  5
3D8
100
AcDbEntity
  8
0
100
AcDbSpline
 62
7
  6
BYLAYER
 70
0
 71
3
 72
9
 73
5
 74
0
 42
0.0000001
 43
0.0000001
 44
0.0000000001
 40
0.0
 40
0.0
 40
0.0
 40
0.0
 40
0.2586622714
 40
1.0
 40
1.0
 40
1.0
 40
1.0
 10
17.3373321018
 20
66.6443038693
 30
0.0
 10
17.2934737966
 20
66.8221996484
 30
0.0
 10
17.1366551408
 20
67.5129625041
 30
0.0
 10
17.0336512397
 20
68.2164704171
 30
0.0
 10
16.9945368695
 20
68.7401353994
 30
0.0
  0
SPLINE
  5
3D9
100
AcDbEntity
  8
0
100
AcDbSpline
 62
7
  6
BYLAYER
 70
0
 71
3
 72
11
 73
7
 74
0
 42
0.0000001
 43
0.0000001
 44
0.0000000001
 40
0.0
 40
0.0
 40
0.0
 40
0.0
 40
0.2425379646
 40
0.5022580268
 40
0.7606702548
 40
1.0
 40
1.0
 40
1.0
 40
1.0
 10
18.3402497058
 20
65.1887024784
 30
0.0
 10
18.2214130356
 20
65.2725483044
 30
0.0
 10
17.9941092468
 20
65.4733040783
 30
0.0
 10
17.7053531593
 20
65.8286885886
 30
0.0
 10
17.4765710375
 20
66.2231368917
 30
0.0
 10
17.3716854218
 20
66.5049617175
 30
0.0
 10
17.3373321018
 20
66.6443038693
 30
0.0
  0
SPLINE
  5
3DA
100
AcDbEntity
  8
0
100
AcDbSpline
 62
7
  6
BYLAYER
 70
0
 71
3
 72
9
 73
5
 74
0
 42
0.0000001
 43
0.0000001
 44
0.0000000001
 40
0.0
 40
0.0
 40
0.0
 40
0.0
 40
0.2386925065
 40
1.0
 40
1.0
 40
1.0
 40
1.0
 10
20.7960292876
 20
63.7288515598
 30
0.0
 10
20.5910400641
 20
63.8274272289
 30
0.0
 10
19.7421528691
 20
64.260942074
 30
0.0
 10
18.9330343968
 20
64.77046018
 30
0.0
 10
18.3402497058
 20
65.1887024784
 30
0.0
  0
SPLINE
  5
3DB
100
AcDbEntity
  8
0
100
AcDbSpline
 62
7
  6
BYLAYER
 70
0
 71
3
 72
9
 73
5
 74
0
 42
0.0000001
 43
0.0000001
 44
0.0000000001
 40
0.0
 40
0.0
 40
0.0
 40
0.0
 40
0.2457279479
 40
1.0
 40
1.0
 40
1.0
 40
1.0
 10
88.4656941888
 20
105.0572231881
 30
0.0
 10
88.2906313468
 20
104.9561545667
 30
0.0
 10
87.5825187861
 20
104.5374100554
 30
0.0
 10
86.8916424153
 20
104.0896476897
 30
0.0
 10
86.3805783852
 20
103.7377706675
 30
0.0
  0
SPLINE
  5
3DC
100
AcDbEntity
  8
0
100
AcDbSpline
 62
7
  6
BYLAYER
 70
0
 71
3
 72
11
 73
7
 74
0
 42
0.0000001
 43
0.0000001
 44
0.0000000001
 40
0.0
 40
0.0
 40
0.0
 40
0.0
 40
0.281012433
 40
0.5369287015
 40
0.7732656461
 40
1.0
 40
1.0
 40
1.0
 40
1.0
 10
17.0209966374
 20
70.5253803295
 30
0.0
 10
17.0268210338
 20
70.5766424258
 30
0.0
 10
17.0457033225
 20
70.6740141802
 30
0.0
 10
17.0999654914
 20
70.80640034
 30
0.0
 10
17.1784356703
 20
70.9143072127
 30
0.0
 10
17.2463378854
 20
70.967646491
 30
0.0
 10
17.2823958271
 20
70.9884459838
 30
0.0
  0
SPLINE
  5
3DD
100
AcDbEntity
  8
0
100
AcDbSpline
 62
7
  6
BYLAYER
 70
0
 71
3
 72
11
 73
7
 74
0
 42
0.0000001
 43
0.0000001
 44
0.0000000001
 40
0.0
 40
0.0
 40
0.0
 40
0.0
 40
0.2813592991
 40
0.5374197246
 40
0.7735935247
 40
1.0
 40
1.0
 40
1.0
 40
1.0
 10
53.516319579
 20
49.4500598473
 30
0.0
 10
53.5219374696
 20
49.501890766
 30
0.0
 10
53.5404902031
 20
49.6003517793
 30
0.0
 10
53.594602679
 20
49.7343140951
 30
0.0
 10
53.6734651435
 20
49.8434121387
 30
0.0
 10
53.7418781046
 20
49.8972774819
 30
0.0
 10
53.7782211002
 20
49.9182335567
 30
0.0
  0
SPLINE
  5
3DE
100
AcDbEntity
  8
0
100
AcDbSpline
 62
7
  6
BYLAYER
 70
0
 71
3
 72
9
 73
5
 74
0
 42
0.0000001
 43
0.0000001
 44
0.0000000001
 40
0.0
 40
0.0
 40
0.0
 40
0.0
 40
0.2587594408
 40
1.0
 40
1.0
 40
1.0
 40
1.0
 10
53.493806719
 20
47.508005793
 30
0.0
 10
53.4810286973
 20
47.6751672133
 30
0.0
 10
53.4451802617
 20
48.3220650914
 30
0.0
 10
53.4645509084
 20
48.9726117624
 30
0.0
 10
53.516319579
 20
49.4500598473
 30
0.0
  0
SPLINE
  5
3DF
100
AcDbEntity
  8
0
100
AcDbSpline
 62
7
  6
BYLAYER
 70
0
 71
3
 72
9
 73
5
 74
0
 42
0.0000001
 43
0.0000001
 44
0.0000000001
 40
0.0
 40
0.0
 40
0.0
 40
0.0
 40
0.2569065317
 40
1.0
 40
1.0
 40
1.0
 40
1.0
 10
53.7644313524
 20
45.6794115925
 30
0.0
 10
53.7310446872
 20
45.8342180597
 30
0.0
 10
53.6103925382
 20
46.4387353997
 30
0.0
 10
53.5287201061
 20
47.0512706672
 30
0.0
 10
53.493806719
 20
47.508005793
 30
0.0
  0
SPLINE
  5
3E0
100
AcDbEntity
  8
0
100
AcDbSpline
 62
7
  6
BYLAYER
 70
0
 71
3
 72
11
 73
7
 74
0
 42
0.0000001
 43
0.0000001
 44
0.0000000001
 40
0.0
 40
0.0
 40
0.0
 40
0.0
 40
0.2418112128
 40
0.5027803013
 40
0.7621303884
 40
1.0
 40
1.0
 40
1.0
 40
1.0
 10
54.8834752534
 20
44.048910384
 30
0.0
 10
54.7484958568
 20
44.139578968
 30
0.0
 10
54.4901383184
 20
44.3618493395
 30
0.0
 10
54.164554433
 20
44.7604729946
 30
0.0
 10
53.9101668132
 20
45.2048797558
 30
0.0
 10
53.7981488971
 20
45.5230517084
 30
0.0
 10
53.7644313524
 20
45.6794115925
 30
0.0
  0
SPLINE
  5
3E1
100
AcDbEntity
  8
0
100
AcDbSpline
 62
7
  6
BYLAYER
 70
0
 71
3
 72
9
 73
5
 74
0
 42
0.0000001
 43
0.0000001
 44
0.0000000001
 40
0.0
 40
0.0
 40
0.0
 40
0.0
 40
0.2382135587
 40
1.0
 40
1.0
 40
1.0
 40
1.0
 10
57.3297559925
 20
42.6785619208
 30
0.0
 10
57.1262174331
 20
42.7691951316
 30
0.0
 10
56.2813028953
 20
43.1709687644
 30
0.0
 10
55.4749383943
 20
43.6516117829
 30
0.0
 10
54.8834752534
 20
44.048910384
 30
0.0
  0
SPLINE
  5
3E2
100
AcDbEntity
  8
0
100
AcDbSpline
 62
7
  6
BYLAYER
 70
0
 71
3
 72
9
 73
5
 74
0
 42
0.0000001
 43
0.0000001
 44
0.0000000001
 40
0.0
 40
0.0
 40
0.0
 40
0.0
 40
0.2553112085
 40
1.0
 40
1.0
 40
1.0
 40
1.0
 10
53.4937220324
 20
63.5241243313
 30
0.0
 10
53.5049658988
 20
63.6841992337
 30
0.0
 10
53.5601228569
 20
64.3103250956
 30
0.0
 10
53.661467483
 20
64.9325638283
 30
0.0
 10
53.7646049587
 20
65.3891141235
 30
0.0
  0
SPLINE
  5
3E3
100
AcDbEntity
  8
0
100
AcDbSpline
 62
7
  6
BYLAYER
 70
0
 71
3
 72
9
 73
5
 74
0
 42
0.0000001
 43
0.0000001
 44
0.0000000001
 40
0.0
 40
0.0
 40
0.0
 40
0.0
 40
0.2554722569
 40
1.0
 40
1.0
 40
1.0
 40
1.0
 10
53.5164041461
 20
61.2460379788
 30
0.0
 10
53.4998397832
 20
61.4394435012
 30
0.0
 10
53.4488778492
 20
62.1975783768
 30
0.0
 10
53.4540835781
 20
62.9598058412
 30
0.0
 10
53.4937220324
 20
63.5241243313
 30
0.0
  0
SPLINE
  5
3E4
100
AcDbEntity
  8
0
100
AcDbSpline
 62
7
  6
BYLAYER
 70
0
 71
3
 72
11
 73
7
 74
0
 42
0.0000001
 43
0.0000001
 44
0.0000000001
 40
0.0
 40
0.0
 40
0.0
 40
0.0
 40
0.2316541937
 40
0.487781512
 40
0.7503647668
 40
1.0
 40
1.0
 40
1.0
 40
1.0
 10
54.5116353658
 20
59.5974682158
 30
0.0
 10
54.3787109446
 20
59.6742104499
 30
0.0
 10
54.1254722375
 20
59.8827562118
 30
0.0
 10
53.8237658032
 20
60.2823268433
 30
0.0
 10
53.6060849998
 20
60.746410858
 30
0.0
 10
53.5305138316
 20
61.0812401646
 30
0.0
 10
53.5164041461
 20
61.2460379788
 30
0.0
  0
SPLINE
  5
3E5
100
AcDbEntity
  8
0
100
AcDbSpline
 62
7
  6
BYLAYER
 70
0
 71
3
 72
11
 73
7
 74
0
 42
0.0000001
 43
0.0000001
 44
0.0000000001
 40
0.0
 40
0.0
 40
0.0
 40
0.0
 40
0.2747971568
 40
0.5308582543
 40
0.7706714839
 40
1.0
 40
1.0
 40
1.0
 40
1.0
 10
53.7646049587
 20
65.3891141235
 30
0.0
 10
53.7791336907
 20
65.4534374823
 30
0.0
 10
53.8167104801
 20
65.5758777059
 30
0.0
 10
53.9021504794
 20
65.7411794043
 30
0.0
 10
54.013199067
 20
65.8769501542
 30
0.0
 10
54.1039030172
 20
65.9458398603
 30
0.0
 10
54.1515677902
 20
65.9733471114
 30
0.0
  0
SPLINE
  5
3E6
100
AcDbEntity
  8
0
100
AcDbSpline
 62
7
  6
BYLAYER
 70
0
 71
3
 72
9
 73
5
 74
0
 42
0.0000001
 43
0.0000001
 44
0.0000000001
 40
0.0
 40
0.0
 40
0.0
 40
0.0
 40
0.509138014
 40
1.0
 40
1.0
 40
1.0
 40
1.0
 10
16.9944220285
 20
84.4076354266
 30
0.0
 10
17.0191484132
 20
84.7672248512
 30
0.0
 10
17.0988887315
 20
85.4718231722
 30
0.0
 10
17.2473343152
 20
86.1654190928
 30
0.0
 10
17.3375971373
 20
86.5009917979
 30
0.0
  0
SPLINE
  5
3E7
100
AcDbEntity
  8
0
100
AcDbSpline
 62
7
  6
BYLAYER
 70
0
 71
3
 72
9
 73
5
 74
0
 42
0.0000001
 43
0.0000001
 44
0.0000000001
 40
0.0
 40
0.0
 40
0.0
 40
0.0
 40
0.2557029687
 40
1.0
 40
1.0
 40
1.0
 40
1.0
 10
17.021038765
 20
82.309998267
 30
0.0
 10
17.0051242376
 20
82.4881963683
 30
0.0
 10
16.9557419117
 20
83.1861393079
 30
0.0
 10
16.9586973725
 20
83.8881009816
 30
0.0
 10
16.9944220285
 20
84.4076354266
 30
0.0
  0
SPLINE
  5
3E8
100
AcDbEntity
  8
0
100
AcDbSpline
 62
7
  6
BYLAYER
 70
0
 71
3
 72
11
 73
7
 74
0
 42
0.0000001
 43
0.0000001
 44
0.0000000001
 40
0.0
 40
0.0
 40
0.0
 40
0.0
 40
0.2347368411
 40
0.4909518523
 40
0.7518814208
 40
1.0
 40
1.0
 40
1.0
 40
1.0
 10
17.9546965624
 20
80.7056014598
 30
0.0
 10
17.8292475051
 20
80.7868279369
 30
0.0
 10
17.5920909972
 20
80.9964918446
 30
0.0
 10
17.309600874
 20
81.3867954716
 30
0.0
 10
17.1065624272
 20
81.8330666951
 30
0.0
 10
17.0350907802
 20
82.1526550826
 30
0.0
 10
17.021038765
 20
82.309998267
 30
0.0
  0
SPLINE
  5
3E9
100
AcDbEntity
  8
0
100
AcDbSpline
 62
7
  6
BYLAYER
 70
0
 71
3
 72
9
 73
5
 74
0
 42
0.0000001
 43
0.0000001
 44
0.0000000001
 40
0.0
 40
0.0
 40
0.0
 40
0.0
 40
0.4889144828
 40
1.0
 40
1.0
 40
1.0
 40
1.0
 10
63.7616399134
 20
35.396289813
 30
0.0
 10
63.3437607884
 20
40.5774638948
 30
0.0
 10
62.9450362671
 20
51.214919821
 30
0.0
 10
63.3618824957
 20
61.8488740466
 30
0.0
 10
63.7617359324
 20
67.267856488
 30
0.0
  0
SPLINE
  5
3EA
100
AcDbEntity
  8
0
100
AcDbSpline
 62
7
  6
BYLAYER
 70
0
 71
3
 72
11
 73
7
 74
0
 42
0.0000001
 43
0.0000001
 44
0.0000000001
 40
0.0
 40
0.0
 40
0.0
 40
0.0
 40
0.232697261
 40
0.4829550713
 40
0.7420033596
 40
1.0
 40
1.0
 40
1.0
 40
1.0
 10
63.7617359324
 20
67.267856488
 30
0.0
 10
63.7749266175
 20
67.4465490014
 30
0.0
 10
63.8390996559
 20
67.8151090003
 30
0.0
 10
64.0242608325
 20
68.3576263525
 30
0.0
 10
64.2924630347
 20
68.8861109824
 30
0.0
 10
64.5202761887
 20
69.2144980904
 30
0.0
 10
64.6451318242
 20
69.3690187602
 30
0.0
  0
SPLINE
  5
3EB
100
AcDbEntity
  8
0
100
AcDbSpline
 62
7
  6
BYLAYER
 70
0
 71
3
 72
9
 73
5
 74
0
 42
0.0000001
 43
0.0000001
 44
0.0000000001
 40
0.0
 40
0.0
 40
0.0
 40
0.0
 40
0.2529935975
 40
1.0
 40
1.0
 40
1.0
 40
1.0
 10
64.6451318242
 20
69.3690187602
 30
0.0
 10
64.7560636258
 20
69.5063073673
 30
0.0
 10
65.2004596894
 20
70.0441451854
 30
0.0
 10
65.6686009768
 20
70.5624336981
 30
0.0
 10
66.0314495542
 20
70.9365321704
 30
0.0
  0
SPLINE
  5
3EC
100
AcDbEntity
  8
0
100
AcDbSpline
 62
7
  6
BYLAYER
 70
0
 71
3
 72
11
 73
7
 74
0
 42
0.0000001
 43
0.0000001
 44
0.0000000001
 40
0.0
 40
0.0
 40
0.0
 40
0.0
 40
0.237249422
 40
0.4981206778
 40
0.7600071951
 40
1.0
 40
1.0
 40
1.0
 40
1.0
 10
52.4779532718
 20
68.6752707615
 30
0.0
 10
52.546167925
 20
68.6330434945
 30
0.0
 10
52.6735890743
 20
68.5184750422
 30
0.0
 10
52.817296761
 20
68.3028766863
 30
0.0
 10
52.9095484978
 20
68.0597756927
 30
0.0
 10
52.9298444172
 20
67.8885276222
 30
0.0
 10
52.9255900497
 20
67.8074844648
 30
0.0
  0
SPLINE
  5
3ED
100
AcDbEntity
  8
0
100
AcDbSpline
 62
7
  6
BYLAYER
 70
0
 71
3
 72
9
 73
5
 74
0
 42
0.0000001
 43
0.0000001
 44
0.0000000001
 40
0.0
 40
0.0
 40
0.0
 40
0.0
 40
0.2444008027
 40
1.0
 40
1.0
 40
1.0
 40
1.0
 10
52.8808813887
 20
46.226411105
 30
0.0
 10
52.7905109013
 20
47.9826856795
 30
0.0
 10
52.5206404499
 20
55.1736777462
 30
0.0
 10
52.6405692661
 20
62.3780089666
 30
0.0
 10
52.9255900497
 20
67.8074844648
 30
0.0
  0
SPLINE
  5
3EE
100
AcDbEntity
  8
0
100
AcDbSpline
 62
7
  6
BYLAYER
 70
0
 71
3
 72
9
 73
5
 74
0
 42
0.0000001
 43
0.0000001
 44
0.0000000001
 40
0.0
 40
0.0
 40
0.0
 40
0.0
 40
0.2414466277
 40
1.0
 40
1.0
 40
1.0
 40
1.0
 10
22.4616228589
 20
80.4216510004
 30
0.0
 10
22.4929593493
 20
80.5855898947
 30
0.0
 10
22.6084270366
 20
81.2672837698
 30
0.0
 10
22.6688863157
 20
81.9578893266
 30
0.0
 10
22.6885812292
 20
82.4818913103
 30
0.0
  0
SPLINE
  5
3EF
100
AcDbEntity
  8
0
100
AcDbSpline
 62
7
  6
BYLAYER
 70
0
 71
3
 72
9
 73
5
 74
0
 42
0.0000001
 43
0.0000001
 44
0.0000000001
 40
0.0
 40
0.0
 40
0.0
 40
0.0
 40
0.2437570571
 40
1.0
 40
1.0
 40
1.0
 40
1.0
 10
22.6885812292
 20
82.4818913103
 30
0.0
 10
22.6945706408
 20
82.6412453262
 30
0.0
 10
22.7092145937
 20
83.2953408401
 30
0.0
 10
22.6851423118
 20
83.9501471331
 30
0.0
 10
22.6479805992
 20
84.4434856756
 30
0.0
  0
SPLINE
  5
3F0
100
AcDbEntity
  8
0
100
AcDbSpline
 62
7
  6
BYLAYER
 70
0
 71
3
 72
11
 73
7
 74
0
 42
0.0000001
 43
0.0000001
 44
0.0000000001
 40
0.0
 40
0.0
 40
0.0
 40
0.0
 40
0.2457269413
 40
0.5058674584
 40
0.7628717616
 40
1.0
 40
1.0
 40
1.0
 40
1.0
 10
22.6479805992
 20
84.4434856756
 30
0.0
 10
22.6355154688
 20
84.6090249328
 30
0.0
 10
22.5655672865
 20
84.9470797216
 30
0.0
 10
22.3597554115
 20
85.4229989309
 30
0.0
 10
22.0686464015
 20
85.8451210574
 30
0.0
 10
21.8215438157
 20
86.0755620154
 30
0.0
 10
21.6898427045
 20
86.1667676879
 30
0.0
  0
SPLINE
  5
3F1
100
AcDbEntity
  8
0
100
AcDbSpline
 62
7
  6
BYLAYER
 70
0
 71
3
 72
9
 73
5
 74
0
 42
0.0000001
 43
0.0000001
 44
0.0000000001
 40
0.0
 40
0.0
 40
0.0
 40
0.0
 40
0.2598982989
 40
1.0
 40
1.0
 40
1.0
 40
1.0
 10
21.6898427045
 20
86.1667676879
 30
0.0
 10
21.4896464904
 20
86.3054075989
 30
0.0
 10
20.7073786643
 20
86.8210678529
 30
0.0
 10
19.8751362525
 20
87.2630033738
 30
0.0
 10
19.2363688597
 20
87.5329030179
 30
0.0
  0
SPLINE
  5
3F2
100
AcDbEntity
  8
0
100
AcDbSpline
 62
7
  6
BYLAYER
 70
0
 71
3
 72
11
 73
7
 74
0
 42
0.0000001
 43
0.0000001
 44
0.0000000001
 40
0.0
 40
0.0
 40
0.0
 40
0.0
 40
0.2785768624
 40
0.5342062759
 40
0.7716259559
 40
1.0
 40
1.0
 40
1.0
 40
1.0
 10
55.7766795106
 20
66.4864592068
 30
0.0
 10
55.7142331431
 20
66.5154029814
 30
0.0
 10
55.5894581132
 20
66.5611168945
 30
0.0
 10
55.3992501389
 20
66.5889667434
 30
0.0
 10
55.2199162407
 20
66.5708899462
 30
0.0
 10
55.1113646475
 20
66.5274710819
 30
0.0
 10
55.0624939465
 20
66.4992688792
 30
0.0
  0
SPLINE
  5
3F3
100
AcDbEntity
  8
0
100
AcDbSpline
 62
7
  6
BYLAYER
 70
0
 71
3
 72
9
 73
5
 74
0
 42
0.0000001
 43
0.0000001
 44
0.0000000001
 40
0.0
 40
0.0
 40
0.0
 40
0.0
 40
0.2412562656
 40
1.0
 40
1.0
 40
1.0
 40
1.0
 10
58.9559367632
 20
59.3459578952
 30
0.0
 10
58.9854291983
 20
59.4963111879
 30
0.0
 10
59.0941335546
 20
60.122150328
 30
0.0
 10
59.1502931761
 20
60.7567067101
 30
0.0
 10
59.1680038756
 20
61.2382488026
 30
0.0
  0
SPLINE
  5
3F4
100
AcDbEntity
  8
0
100
AcDbSpline
 62
7
  6
BYLAYER
 70
0
 71
3
 72
9
 73
5
 74
0
 42
0.0000001
 43
0.0000001
 44
0.0000000001
 40
0.0
 40
0.0
 40
0.0
 40
0.0
 40
0.2423139676
 40
1.0
 40
1.0
 40
1.0
 40
1.0
 10
59.1680038756
 20
61.2382488026
 30
0.0
 10
59.1746781838
 20
61.4197187847
 30
0.0
 10
59.187656316
 20
62.1691302145
 30
0.0
 10
59.1441823245
 20
62.9191697089
 30
0.0
 10
59.084578992
 20
63.4838508048
 30
0.0
  0
SPLINE
  5
3F5
100
AcDbEntity
  8
0
100
AcDbSpline
 62
7
  6
BYLAYER
 70
0
 71
3
 72
11
 73
7
 74
0
 42
0.0000001
 43
0.0000001
 44
0.0000000001
 40
0.0
 40
0.0
 40
0.0
 40
0.0
 40
0.2466638856
 40
0.5058815114
 40
0.7619792866
 40
1.0
 40
1.0
 40
1.0
 40
1.0
 10
59.084578992
 20
63.4838508048
 30
0.0
 10
59.0690259138
 20
63.6315033455
 30
0.0
 10
59.0009178223
 20
63.9310138666
 30
0.0
 10
58.8149572916
 20
64.3530061956
 30
0.0
 10
58.5570813883
 20
64.7290879082
 30
0.0
 10
58.3406445518
 20
64.9375825841
 30
0.0
 10
58.2251826717
 20
65.0223999906
 30
0.0
  0
SPLINE
  5
3F6
100
AcDbEntity
  8
0
100
AcDbSpline
 62
7
  6
BYLAYER
 70
0
 71
3
 72
9
 73
5
 74
0
 42
0.0000001
 43
0.0000001
 44
0.0000000001
 40
0.0
 40
0.0
 40
0.0
 40
0.0
 40
0.2596112973
 40
1.0
 40
1.0
 40
1.0
 40
1.0
 10
58.2251826717
 20
65.0223999906
 30
0.0
 10
58.0260399876
 20
65.1686886703
 30
0.0
 10
57.2466995885
 20
65.7150557825
 30
0.0
 10
56.4160466321
 20
66.1901137406
 30
0.0
 10
55.7766795106
 20
66.4864592068
 30
0.0
  0
SPLINE
  5
3F7
100
AcDbEntity
  8
0
100
AcDbSpline
 62
7
  6
BYLAYER
 70
0
 71
3
 72
11
 73
7
 74
0
 42
0.0000001
 43
0.0000001
 44
0.0000000001
 40
0.0
 40
0.0
 40
0.0
 40
0.0
 40
0.2440247164
 40
0.5049003732
 40
0.7631099714
 40
1.0
 40
1.0
 40
1.0
 40
1.0
 10
58.9582957636
 20
47.561627739
 30
0.0
 10
58.9323801421
 20
47.7143558773
 30
0.0
 10
58.8388596503
 20
48.0239654137
 30
0.0
 10
58.6131241672
 20
48.4554402996
 30
0.0
 10
58.3158625696
 20
48.8353441347
 30
0.0
 10
58.075088396
 20
49.0425250023
 30
0.0
 10
57.9485382542
 20
49.1237642918
 30
0.0
  0
SPLINE
  5
3F8
100
AcDbEntity
  8
0
100
AcDbSpline
 62
7
  6
BYLAYER
 70
0
 71
3
 72
11
 73
7
 74
0
 42
0.0000001
 43
0.0000001
 44
0.0000000001
 40
0.0
 40
0.0
 40
0.0
 40
0.0
 40
0.2926953031
 40
0.5533408714
 40
0.785407151
 40
1.0
 40
1.0
 40
1.0
 40
1.0
 10
55.6161464684
 20
50.4715223697
 30
0.0
 10
55.5503874898
 20
50.5094888116
 30
0.0
 10
55.4202647482
 20
50.5721384827
 30
0.0
 10
55.2208916165
 20
50.6221523721
 30
0.0
 10
55.0348982882
 20
50.6190392606
 30
0.0
 10
54.923224999
 20
50.5792416267
 30
0.0
 10
54.8749924446
 20
50.5514418496
 30
0.0
  0
SPLINE
  5
3F9
100
AcDbEntity
  8
0
100
AcDbSpline
 62
7
  6
BYLAYER
 70
0
 71
3
 72
9
 73
5
 74
0
 42
0.0000001
 43
0.0000001
 44
0.0000000001
 40
0.0
 40
0.0
 40
0.0
 40
0.0
 40
0.5146792749
 40
1.0
 40
1.0
 40
1.0
 40
1.0
 10
85.7136304367
 20
98.7848263598
 30
0.0
 10
86.6585887743
 20
99.641937334
 30
0.0
 10
88.5728579191
 20
101.2236221766
 30
0.0
 10
90.643961292
 20
102.596557423
 30
0.0
 10
91.6857841507
 20
103.1980586222
 30
0.0
  0
SPLINE
  5
3FA
100
AcDbEntity
  8
0
100
AcDbSpline
 62
7
  6
BYLAYER
 70
0
 71
3
 72
11
 73
7
 74
0
 42
0.0000001
 43
0.0000001
 44
0.0000000001
 40
0.0
 40
0.0
 40
0.0
 40
0.0
 40
0.2806842402
 40
0.5398822669
 40
0.7785651681
 40
1.0
 40
1.0
 40
1.0
 40
1.0
 10
98.2972543322
 20
107.0151968222
 30
0.0
 10
98.4623700827
 20
107.1105265768
 30
0.0
 10
98.79141526
 20
107.2752287804
 30
0.0
 10
99.2953528624
 20
107.4425324039
 30
0.0
 10
99.7810057379
 20
107.5161528458
 30
0.0
 10
100.0960465476
 20
107.5003058271
 30
0.0
 10
100.2443262347
 20
107.4750617611
 30
0.0
  0
SPLINE
  5
3FB
100
AcDbEntity
  8
0
100
AcDbSpline
 62
7
  6
BYLAYER
 70
0
 71
3
 72
11
 73
7
 74
0
 42
0.0000001
 43
0.0000001
 44
0.0000000001
 40
0.0
 40
0.0
 40
0.0
 40
0.0
 40
0.2227167841
 40
0.4580172391
 40
0.7155897772
 40
1.0
 40
1.0
 40
1.0
 40
1.0
 10
64.2725845809
 20
34.4274353653
 30
0.0
 10
64.1994889634
 20
34.4696388398
 30
0.0
 10
64.0619281287
 20
34.5804844349
 30
0.0
 10
63.9065512514
 20
34.8065456351
 30
0.0
 10
63.8027081398
 20
35.0847381151
 30
0.0
 10
63.770239467
 20
35.2888486617
 30
0.0
 10
63.7616399134
 20
35.396289813
 30
0.0
  0
SPLINE
  5
3FC
100
AcDbEntity
  8
0
100
AcDbSpline
 62
7
  6
BYLAYER
 70
0
 71
3
 72
9
 73
5
 74
0
 42
0.0000001
 43
0.0000001
 44
0.0000000001
 40
0.0
 40
0.0
 40
0.0
 40
0.0
 40
0.238755043
 40
1.0
 40
1.0
 40
1.0
 40
1.0
 10
59.088494858
 20
43.6301518577
 30
0.0
 10
59.1091955894
 20
43.7836024762
 30
0.0
 10
59.1800814107
 20
44.4284269695
 30
0.0
 10
59.1901644353
 20
45.0792796398
 30
0.0
 10
59.1710146899
 20
45.5726008316
 30
0.0
  0
SPLINE
  5
3FD
100
AcDbEntity
  8
0
100
AcDbSpline
 62
7
  6
BYLAYER
 70
0
 71
3
 72
9
 73
5
 74
0
 42
0.0000001
 43
0.0000001
 44
0.0000000001
 40
0.0
 40
0.0
 40
0.0
 40
0.0
 40
0.2414799309
 40
1.0
 40
1.0
 40
1.0
 40
1.0
 10
59.1710146899
 20
45.5726008316
 30
0.0
 10
59.1647665582
 20
45.7335604538
 30
0.0
 10
59.126856272
 20
46.399626361
 30
0.0
 10
59.0431162208
 20
47.0628119162
 30
0.0
 10
58.9582957636
 20
47.561627739
 30
0.0
  0
SPLINE
  5
3FE
100
AcDbEntity
  8
0
100
AcDbSpline
 62
7
  6
BYLAYER
 70
0
 71
3
 72
11
 73
7
 74
0
 42
0.0000001
 43
0.0000001
 44
0.0000000001
 40
0.0
 40
0.0
 40
0.0
 40
0.0
 40
0.2889173705
 40
0.5482268124
 40
0.7819051304
 40
1.0
 40
1.0
 40
1.0
 40
1.0
 10
19.0597794415
 20
71.5764872555
 30
0.0
 10
18.9990509849
 20
71.6076140968
 30
0.0
 10
18.8787677463
 20
71.6577112392
 30
0.0
 10
18.6962425859
 20
71.6941578562
 30
0.0
 10
18.5264308359
 20
71.6858235494
 30
0.0
 10
18.4244133072
 20
71.6477945996
 30
0.0
 10
18.3797972139
 20
71.6220459549
 30
0.0
  0
SPLINE
  5
3FF
100
AcDbEntity
  8
0
100
AcDbSpline
 62
7
  6
BYLAYER
 70
0
 71
3
 72
11
 73
7
 74
0
 42
0.0000001
 43
0.0000001
 44
0.0000000001
 40
0.0
 40
0.0
 40
0.0
 40
0.0
 40
0.2328392984
 40
0.4719401592
 40
0.7259910899
 40
1.0
 40
1.0
 40
1.0
 40
1.0
 10
54.1515677902
 20
65.9733471114
 30
0.0
 10
54.2026200766
 20
66.0028092902
 30
0.0
 10
54.3148083489
 20
66.0487174857
 30
0.0
 10
54.4993525628
 20
66.070311244
 30
0.0
 10
54.6935801027
 20
66.0448747785
 30
0.0
 10
54.820432894
 20
65.9996629335
 30
0.0
 10
54.8834949334
 20
65.9707700817
 30
0.0
  0
SPLINE
  5
400
100
AcDbEntity
  8
0
100
AcDbSpline
 62
7
  6
BYLAYER
 70
0
 71
3
 72
9
 73
5
 74
0
 42
0.0000001
 43
0.0000001
 44
0.0000000001
 40
0.0
 40
0.0
 40
0.0
 40
0.0
 40
0.2411900306
 40
1.0
 40
1.0
 40
1.0
 40
1.0
 10
22.6518452234
 20
64.7363230578
 30
0.0
 10
22.6646256198
 20
64.8750218795
 30
0.0
 10
22.707120407
 20
65.4510327534
 30
0.0
 10
22.7090566875
 20
66.0297716712
 30
0.0
 10
22.6916739905
 20
66.4676368827
 30
0.0
  0
SPLINE
  5
401
100
AcDbEntity
  8
0
100
AcDbSpline
 62
7
  6
BYLAYER
 70
0
 71
3
 72
9
 73
5
 74
0
 42
0.0000001
 43
0.0000001
 44
0.0000000001
 40
0.0
 40
0.0
 40
0.0
 40
0.0
 40
0.2416270171
 40
1.0
 40
1.0
 40
1.0
 40
1.0
 10
22.6916739905
 20
66.4676368827
 30
0.0
 10
22.6847343981
 20
66.6424432478
 30
0.0
 10
22.6434276954
 20
67.3653758634
 30
0.0
 10
22.5541501617
 20
68.0853036334
 30
0.0
 10
22.4639557523
 20
68.6269262935
 30
0.0
  0
SPLINE
  5
402
100
AcDbEntity
  8
0
100
AcDbSpline
 62
7
  6
BYLAYER
 70
0
 71
3
 72
11
 73
7
 74
0
 42
0.0000001
 43
0.0000001
 44
0.0000000001
 40
0.0
 40
0.0
 40
0.0
 40
0.0
 40
0.2877702192
 40
0.5449599819
 40
0.7781478549
 40
1.0
 40
1.0
 40
1.0
 40
1.0
 10
21.703952865
 20
64.1887086925
 30
0.0
 10
21.7013654606
 20
64.1324245856
 30
0.0
 10
21.688260052
 20
64.0258686034
 30
0.0
 10
21.6392500724
 20
63.8802323379
 30
0.0
 10
21.561642223
 20
63.7622068951
 30
0.0
 10
21.4911084267
 20
63.7049909005
 30
0.0
 10
21.4534855787
 20
63.6832811571
 30
0.0
  0
SPLINE
  5
403
100
AcDbEntity
  8
0
100
AcDbSpline
 62
7
  6
BYLAYER
 70
0
 71
3
 72
9
 73
5
 74
0
 42
0.0000001
 43
0.0000001
 44
0.0000000001
 40
0.0
 40
0.0
 40
0.0
 40
0.0
 40
0.2601481747
 40
1.0
 40
1.0
 40
1.0
 40
1.0
 10
21.6729191948
 20
65.8793881754
 30
0.0
 10
21.6840992692
 20
65.7331310186
 30
0.0
 10
21.7195158944
 20
65.1704031949
 30
0.0
 10
21.7231249591
 20
64.6054313495
 30
0.0
 10
21.703952865
 20
64.1887086925
 30
0.0
  0
SPLINE
  5
404
100
AcDbEntity
  8
0
100
AcDbSpline
 62
7
  6
BYLAYER
 70
0
 71
3
 72
11
 73
7
 74
0
 42
0.0000001
 43
0.0000001
 44
0.0000000001
 40
0.0
 40
0.0
 40
0.0
 40
0.0
 40
0.2456240952
 40
0.5083445716
 40
0.76666161
 40
1.0
 40
1.0
 40
1.0
 40
1.0
 10
22.4639557523
 20
68.6269262935
 30
0.0
 10
22.4373214516
 20
68.7868931469
 30
0.0
 10
22.3386035862
 20
69.1111688087
 30
0.0
 10
22.0976017513
 20
69.5594610544
 30
0.0
 10
21.7823363796
 20
69.9488288159
 30
0.0
 10
21.5255332264
 20
70.1540000075
 30
0.0
 10
21.3921158966
 20
70.2310295455
 30
0.0
  0
SPLINE
  5
405
100
AcDbEntity
  8
0
100
AcDbSpline
 62
7
  6
BYLAYER
 70
0
 71
3
 72
9
 73
5
 74
0
 42
0.0000001
 43
0.0000001
 44
0.0000000001
 40
0.0
 40
0.0
 40
0.0
 40
0.0
 40
0.259205192
 40
1.0
 40
1.0
 40
1.0
 40
1.0
 10
21.3821853048
 20
68.0027155608
 30
0.0
 10
21.4172359788
 20
67.8208365556
 30
0.0
 10
21.5432881267
 20
67.1174558646
 30
0.0
 10
21.6325715997
 20
66.4072133319
 30
0.0
 10
21.6729191948
 20
65.8793881754
 30
0.0
  0
SPLINE
  5
406
100
AcDbEntity
  8
0
100
AcDbSpline
 62
7
  6
BYLAYER
 70
0
 71
3
 72
11
 73
7
 74
0
 42
0.0000001
 43
0.0000001
 44
0.0000000001
 40
0.0
 40
0.0
 40
0.0
 40
0.0
 40
0.2340647976
 40
0.492996255
 40
0.7556984575
 40
1.0
 40
1.0
 40
1.0
 40
1.0
 10
20.2869981584
 20
69.5935761867
 30
0.0
 10
20.4207551337
 20
69.5163532899
 30
0.0
 10
20.6782364051
 20
69.3112414488
 30
0.0
 10
20.9980962301
 20
68.9252134063
 30
0.0
 10
21.2458957517
 20
68.481705181
 30
0.0
 10
21.3516846283
 20
68.1610069361
 30
0.0
 10
21.3821853048
 20
68.0027155608
 30
0.0
  0
SPLINE
  5
407
100
AcDbEntity
  8
0
100
AcDbSpline
 62
7
  6
BYLAYER
 70
0
 71
3
 72
11
 73
7
 74
0
 42
0.0000001
 43
0.0000001
 44
0.0000000001
 40
0.0
 40
0.0
 40
0.0
 40
0.0
 40
0.2152799358
 40
0.4479741276
 40
0.7083329788
 40
1.0
 40
1.0
 40
1.0
 40
1.0
 10
17.2823958271
 20
70.9884459838
 30
0.0
 10
17.3259688752
 20
71.0135804552
 30
0.0
 10
17.4263014302
 20
71.0503756479
 30
0.0
 10
17.5937091123
 20
71.0573824966
 30
0.0
 10
17.7746095765
 20
71.0196080483
 30
0.0
 10
17.894084677
 20
70.9690459974
 30
0.0
 10
17.9546965618
 20
70.9378883097
 30
0.0
  0
SPLINE
  5
408
100
AcDbEntity
  8
0
100
AcDbSpline
 62
7
  6
BYLAYER
 70
0
 71
3
 72
11
 73
7
 74
0
 42
0.0000001
 43
0.0000001
 44
0.0000000001
 40
0.0
 40
0.0
 40
0.0
 40
0.0
 40
0.227777695
 40
0.4660466239
 40
0.7222664577
 40
1.0
 40
1.0
 40
1.0
 40
1.0
 10
22.1488421199
 20
79.9243153061
 30
0.0
 10
22.1886417278
 20
79.9472567931
 30
0.0
 10
22.264132482
 20
80.0052827783
 30
0.0
 10
22.3549725629
 20
80.1207858992
 30
0.0
 10
22.422830087
 20
80.2621135176
 30
0.0
 10
22.4511085116
 20
80.3666333562
 30
0.0
 10
22.4616228589
 20
80.4216510004
 30
0.0
  0
SPLINE
  5
409
100
AcDbEntity
  8
0
100
AcDbSpline
 62
7
  6
BYLAYER
 70
0
 71
3
 72
9
 73
5
 74
0
 42
0.0000001
 43
0.0000001
 44
0.0000000001
 40
0.0
 40
0.0
 40
0.0
 40
0.0
 40
0.254273405
 40
1.0
 40
1.0
 40
1.0
 40
1.0
 10
43.4625308449
 20
128.5168188912
 30
0.0
 10
43.6348155695
 20
128.6354401056
 30
0.0
 10
44.3167525736
 20
129.0955417415
 30
0.0
 10
45.0163738411
 20
129.5295529237
 30
0.0
 10
45.5476466485
 20
129.8362714119
 30
0.0
  0
SPLINE
  5
40A
100
AcDbEntity
  8
0
100
AcDbSpline
 62
7
  6
BYLAYER
 70
0
 71
3
 72
9
 73
5
 74
0
 42
0.0000001
 43
0.0000001
 44
0.0000000001
 40
0.0
 40
0.0
 40
0.0
 40
0.0
 40
0.262971779
 40
1.0
 40
1.0
 40
1.0
 40
1.0
 10
58.1469751534
 20
44.9813025194
 30
0.0
 10
58.1593671249
 20
44.815398211
 30
0.0
 10
58.1955506205
 20
44.1838287771
 30
0.0
 10
58.1854053908
 20
43.5489790814
 30
0.0
 10
58.1442827595
 20
43.0845224819
 30
0.0
  0
SPLINE
  5
40B
100
AcDbEntity
  8
0
100
AcDbSpline
 62
7
  6
BYLAYER
 70
0
 71
3
 72
9
 73
5
 74
0
 42
0.0000001
 43
0.0000001
 44
0.0000000001
 40
0.0
 40
0.0
 40
0.0
 40
0.0
 40
0.2593206133
 40
1.0
 40
1.0
 40
1.0
 40
1.0
 10
57.8769253624
 20
46.93839429
 30
0.0
 10
57.9098205287
 20
46.7707620044
 30
0.0
 10
58.0279172636
 20
46.1226825099
 30
0.0
 10
58.1106313488
 20
45.4678751157
 30
0.0
 10
58.1469751534
 20
44.9813025194
 30
0.0
  0
SPLINE
  5
40C
100
AcDbEntity
  8
0
100
AcDbSpline
 62
7
  6
BYLAYER
 70
0
 71
3
 72
11
 73
7
 74
0
 42
0.0000001
 43
0.0000001
 44
0.0000000001
 40
0.0
 40
0.0
 40
0.0
 40
0.0
 40
0.2374278439
 40
0.4963358527
 40
0.757198205
 40
1.0
 40
1.0
 40
1.0
 40
1.0
 10
56.8441447153
 20
48.4855628891
 30
0.0
 10
56.9709107955
 20
48.4044011588
 30
0.0
 10
57.2132858101
 20
48.1988271543
 30
0.0
 10
57.514431635
 20
47.8219470062
 30
0.0
 10
57.7469990747
 20
47.3954945634
 30
0.0
 10
57.8472845778
 20
47.0894423927
 30
0.0
 10
57.8769253624
 20
46.93839429
 30
0.0
  0
SPLINE
  5
40D
100
AcDbEntity
  8
0
100
AcDbSpline
 62
7
  6
BYLAYER
 70
0
 71
3
 72
11
 73
7
 74
0
 42
0.0000001
 43
0.0000001
 44
0.0000000001
 40
0.0
 40
0.0
 40
0.0
 40
0.0
 40
0.2764984857
 40
0.5326458379
 40
0.7715867826
 40
1.0
 40
1.0
 40
1.0
 40
1.0
 10
57.8770433724
 20
58.7230560861
 30
0.0
 10
57.864838822
 20
58.6676537445
 30
0.0
 10
57.8333097562
 20
58.5624143705
 30
0.0
 10
57.7612305591
 20
58.4203678058
 30
0.0
 10
57.6671578381
 20
58.3039880264
 30
0.0
 10
57.5899752772
 20
58.2451519835
 30
0.0
 10
57.549381086
 20
58.2217336499
 30
0.0
  0
SPLINE
  5
40E
100
AcDbEntity
  8
0
100
AcDbSpline
 62
7
  6
BYLAYER
 70
0
 71
3
 72
9
 73
5
 74
0
 42
0.0000001
 43
0.0000001
 44
0.0000000001
 40
0.0
 40
0.0
 40
0.0
 40
0.0
 40
0.2586900216
 40
1.0
 40
1.0
 40
1.0
 40
1.0
 10
58.1468605243
 20
60.6488025943
 30
0.0
 10
58.1353518701
 20
60.4814352311
 30
0.0
 10
58.0799281507
 20
59.8353062742
 30
0.0
 10
57.9804668257
 20
59.1925450279
 30
0.0
 10
57.8770433724
 20
58.7230560861
 30
0.0
  0
SPLINE
  5
40F
100
AcDbEntity
  8
0
100
AcDbSpline
 62
7
  6
BYLAYER
 70
0
 71
3
 72
9
 73
5
 74
0
 42
0.0000001
 43
0.0000001
 44
0.0000000001
 40
0.0
 40
0.0
 40
0.0
 40
0.0
 40
0.2572266593
 40
1.0
 40
1.0
 40
1.0
 40
1.0
 10
58.1444646381
 20
62.9411620722
 30
0.0
 10
58.1573443992
 20
62.7449507615
 30
0.0
 10
58.1958260666
 20
61.9814759669
 30
0.0
 10
58.1858123191
 20
61.2152684065
 30
0.0
 10
58.1468605243
 20
60.6488025943
 30
0.0
  0
SPLINE
  5
410
100
AcDbEntity
  8
0
100
AcDbSpline
 62
7
  6
BYLAYER
 70
0
 71
3
 72
11
 73
7
 74
0
 42
0.0000001
 43
0.0000001
 44
0.0000000001
 40
0.0
 40
0.0
 40
0.0
 40
0.0
 40
0.2367948001
 40
0.4918436162
 40
0.7512128905
 40
1.0
 40
1.0
 40
1.0
 40
1.0
 10
57.3297377233
 20
64.5054152005
 30
0.0
 10
57.4444340446
 20
64.4200933677
 30
0.0
 10
57.6578763507
 20
64.2086840954
 30
0.0
 10
57.905956393
 20
63.8256628618
 30
0.0
 10
58.0780221793
 20
63.3953213426
 30
0.0
 10
58.1346269331
 20
63.0910304571
 30
0.0
 10
58.1444646381
 20
62.9411620722
 30
0.0
  0
SPLINE
  5
411
100
AcDbEntity
  8
0
100
AcDbSpline
 62
7
  6
BYLAYER
 70
0
 71
3
 72
9
 73
5
 74
0
 42
0.0000001
 43
0.0000001
 44
0.0000000001
 40
0.0
 40
0.0
 40
0.0
 40
0.0
 40
0.2411346268
 40
1.0
 40
1.0
 40
1.0
 40
1.0
 10
54.8834949334
 20
65.9707700817
 30
0.0
 10
55.092088708
 20
65.8751996079
 30
0.0
 10
55.9455102957
 20
65.4536329133
 30
0.0
 10
56.7503816532
 20
64.9363943391
 30
0.0
 10
57.3297377233
 20
64.5054152005
 30
0.0
  0
SPLINE
  5
412
100
AcDbEntity
  8
0
100
AcDbSpline
 62
7
  6
BYLAYER
 70
0
 71
3
 72
9
 73
5
 74
0
 42
0.0000001
 43
0.0000001
 44
0.0000000001
 40
0.0
 40
0.0
 40
0.0
 40
0.0
 40
0.2655218914
 40
1.0
 40
1.0
 40
1.0
 40
1.0
 10
52.5754817531
 20
45.9034849635
 30
0.0
 10
52.5906918005
 20
45.8954451751
 30
0.0
 10
52.6488366913
 20
45.8668769556
 30
0.0
 10
52.710606588
 20
45.8452783693
 30
0.0
 10
52.7570977316
 20
45.8351123613
 30
0.0
  0
SPLINE
  5
413
100
AcDbEntity
  8
0
100
AcDbSpline
 62
7
  6
BYLAYER
 70
0
 71
3
 72
9
 73
5
 74
0
 42
0.0000001
 43
0.0000001
 44
0.0000000001
 40
0.0
 40
0.0
 40
0.0
 40
0.0
 40
0.2706545677
 40
1.0
 40
1.0
 40
1.0
 40
1.0
 10
52.7570977316
 20
45.8351123613
 30
0.0
 10
52.7752591096
 20
45.831141095
 30
0.0
 10
52.8428948089
 20
45.8196532428
 30
0.0
 10
52.9138848952
 20
45.8226165828
 30
0.0
 10
52.9620441546
 20
45.8364137872
 30
0.0
  0
SPLINE
  5
414
100
AcDbEntity
  8
0
100
AcDbSpline
 62
7
  6
BYLAYER
 70
0
 71
3
 72
8
 73
4
 74
0
 42
0.0000001
 43
0.0000001
 44
0.0000000001
 40
0.0
 40
0.0
 40
0.0
 40
0.0
 40
1.0
 40
1.0
 40
1.0
 40
1.0
 10
52.9620441546
 20
45.8364137872
 30
0.0
 10
52.9857362022
 20
45.8432013505
 30
0.0
 10
53.0088043347
 20
45.8528851615
 30
0.0
 10
53.0301278749
 20
45.8652419722
 30
0.0
  0
SPLINE
  5
415
100
AcDbEntity
  8
0
100
AcDbSpline
 62
7
  6
BYLAYER
 70
0
 71
3
 72
11
 73
7
 74
0
 42
0.0000001
 43
0.0000001
 44
0.0000000001
 40
0.0
 40
0.0
 40
0.0
 40
0.0
 40
0.2767568971
 40
0.5330286181
 40
0.7718514927
 40
1.0
 40
1.0
 40
1.0
 40
1.0
 10
21.3823185424
 20
79.7987218359
 30
0.0
 10
21.3702633271
 20
79.7427084768
 30
0.0
 10
21.338946293
 20
79.6362905898
 30
0.0
 10
21.2668319306
 20
79.49257335
 30
0.0
 10
21.1722210614
 20
79.3749378502
 30
0.0
 10
21.0944532964
 20
79.3155314568
 30
0.0
 10
21.053536958
 20
79.2919351914
 30
0.0
  0
SPLINE
  5
416
100
AcDbEntity
  8
0
100
AcDbSpline
 62
7
  6
BYLAYER
 70
0
 71
3
 72
9
 73
5
 74
0
 42
0.0000001
 43
0.0000001
 44
0.0000000001
 40
0.0
 40
0.0
 40
0.0
 40
0.0
 40
0.2585291903
 40
1.0
 40
1.0
 40
1.0
 40
1.0
 10
21.672834554
 20
81.895506691
 30
0.0
 10
21.6600468376
 20
81.7134525504
 30
0.0
 10
21.5991977376
 20
81.0101600339
 30
0.0
 10
21.492467237
 20
80.3104249929
 30
0.0
 10
21.3823185424
 20
79.7987218359
 30
0.0
  0
SPLINE
  5
417
100
AcDbEntity
  8
0
100
AcDbSpline
 62
7
  6
BYLAYER
 70
0
 71
3
 72
9
 73
5
 74
0
 42
0.0000001
 43
0.0000001
 44
0.0000000001
 40
0.0
 40
0.0
 40
0.0
 40
0.0
 40
0.2559380931
 40
1.0
 40
1.0
 40
1.0
 40
1.0
 10
21.7040440172
 20
83.8983634246
 30
0.0
 10
21.7101275785
 20
83.7275377049
 30
0.0
 10
21.7257851366
 20
83.0598404011
 30
0.0
 10
21.7076543583
 20
82.3912237798
 30
0.0
 10
21.672834554
 20
81.895506691
 30
0.0
  0
SPLINE
  5
418
100
AcDbEntity
  8
0
100
AcDbSpline
 62
7
  6
BYLAYER
 70
0
 71
3
 72
11
 73
7
 74
0
 42
0.0000001
 43
0.0000001
 44
0.0000000001
 40
0.0
 40
0.0
 40
0.0
 40
0.0
 40
0.2358695692
 40
0.4917328125
 40
0.7520053646
 40
1.0
 40
1.0
 40
1.0
 40
1.0
 10
20.7960473135
 20
85.6507125094
 30
0.0
 10
20.9270864521
 20
85.5591000028
 30
0.0
 10
21.1711654373
 20
85.3254433282
 30
0.0
 10
21.4513366546
 20
84.8953390527
 30
0.0
 10
21.6413131309
 20
84.4097954357
 30
0.0
 10
21.6980655836
 20
84.066364042
 30
0.0
 10
21.7040440172
 20
83.8983634246
 30
0.0
  0
SPLINE
  5
419
100
AcDbEntity
  8
0
100
AcDbSpline
 62
7
  6
BYLAYER
 70
0
 71
3
 72
9
 73
5
 74
0
 42
0.0000001
 43
0.0000001
 44
0.0000000001
 40
0.0
 40
0.0
 40
0.0
 40
0.0
 40
0.2409771073
 40
1.0
 40
1.0
 40
1.0
 40
1.0
 10
18.3402422985
 20
87.0155621626
 30
0.0
 10
18.5488758164
 20
86.928851171
 30
0.0
 10
19.4038019372
 20
86.5430713715
 30
0.0
 10
20.2128052844
 20
86.058470564
 30
0.0
 10
20.7960473135
 20
85.6507125094
 30
0.0
  0
SPLINE
  5
41A
100
AcDbEntity
  8
0
100
AcDbSpline
 62
7
  6
BYLAYER
 70
0
 71
3
 72
11
 73
7
 74
0
 42
0.0000001
 43
0.0000001
 44
0.0000000001
 40
0.0
 40
0.0
 40
0.0
 40
0.0
 40
0.211858769
 40
0.4431774018
 40
0.7048677644
 40
1.0
 40
1.0
 40
1.0
 40
1.0
 10
53.7782211002
 20
49.9182335567
 30
0.0
 10
53.8253407631
 20
49.9454036665
 30
0.0
 10
53.9353210587
 20
49.983923152
 30
0.0
 10
54.118752901
 20
49.9851520769
 30
0.0
 10
54.3164209971
 20
49.9346429006
 30
0.0
 10
54.446015179
 20
49.8723046604
 30
0.0
 10
54.5116353643
 20
49.8344196948
 30
0.0
  0
SPLINE
  5
41B
100
AcDbEntity
  8
0
100
AcDbSpline
 62
7
  6
BYLAYER
 70
0
 71
3
 72
11
 73
7
 74
0
 42
0.0000001
 43
0.0000001
 44
0.0000000001
 40
0.0
 40
0.0
 40
0.0
 40
0.0
 40
0.2240730235
 40
0.4591877659
 40
0.7160047209
 40
1.0
 40
1.0
 40
1.0
 40
1.0
 10
22.3691159548
 20
64.2119160699
 30
0.0
 10
22.4090986318
 20
64.2349878425
 30
0.0
 10
22.4843565239
 20
64.2949246929
 30
0.0
 10
22.5699393855
 20
64.4171312135
 30
0.0
 10
22.6276517945
 20
64.5675655343
 30
0.0
 10
22.6464789725
 20
64.6780630241
 30
0.0
 10
22.6518452234
 20
64.7363230578
 30
0.0
  0
SPLINE
  5
41C
100
AcDbEntity
  8
0
100
AcDbSpline
 62
7
  6
BYLAYER
 70
0
 71
3
 72
11
 73
7
 74
0
 42
0.0000001
 43
0.0000001
 44
0.0000000001
 40
0.0
 40
0.0
 40
0.0
 40
0.0
 40
0.2280703654
 40
0.466454604
 40
0.7225292239
 40
1.0
 40
1.0
 40
1.0
 40
1.0
 10
58.6440459638
 20
58.8537161722
 30
0.0
 10
58.6835450587
 20
58.8765122348
 30
0.0
 10
58.75848216
 20
58.9340342136
 30
0.0
 10
58.8488408112
 20
59.0483591636
 30
0.0
 10
58.9167625503
 20
59.1880880962
 30
0.0
 10
58.9452838251
 20
59.2915067691
 30
0.0
 10
58.9559367632
 20
59.3459578952
 30
0.0
  0
SPLINE
  5
41D
100
AcDbEntity
  8
0
100
AcDbSpline
 62
7
  6
BYLAYER
 70
0
 71
3
 72
9
 73
5
 74
0
 42
0.0000001
 43
0.0000001
 44
0.0000000001
 40
0.0
 40
0.0
 40
0.0
 40
0.0
 40
0.4865153136
 40
1.0
 40
1.0
 40
1.0
 40
1.0
 10
24.3123296614
 20
85.0021287121
 30
0.0
 10
24.2811525379
 20
84.9840690684
 30
0.0
 10
24.2222340463
 20
84.937350514
 30
0.0
 10
24.1783052174
 20
84.8766637652
 30
0.0
 10
24.1594781581
 20
84.8436241084
 30
0.0
  0
SPLINE
  5
41E
100
AcDbEntity
  8
0
100
AcDbSpline
 62
7
  6
BYLAYER
 70
0
 71
3
 72
9
 73
5
 74
0
 42
0.0000001
 43
0.0000001
 44
0.0000000001
 40
0.0
 40
0.0
 40
0.0
 40
0.0
 40
0.2310720868
 40
1.0
 40
1.0
 40
1.0
 40
1.0
 10
24.1594781581
 20
84.8436241084
 30
0.0
 10
24.1469892474
 20
84.8217072855
 30
0.0
 10
24.0998533765
 20
84.7229264352
 30
0.0
 10
24.0793734142
 20
84.6127767585
 30
0.0
 10
24.0751589476
 20
84.5289412769
 30
0.0
  0
ENDSEC
  0
SECTION
  2
OBJECTS
  0
DICTIONARY
  5
C
100
AcDbDictionary
280
0
281
1
  3
ACAD_GROUP
350
D
  3
ACAD_MLINESTYLE
350
17
  3
ACAD_LAYOUT
350
1A
  3
ACAD_PLOTSETTINGS
350
19
  3
ACAD_PLOTSTYLENAME
350
E
  0
DICTIONARY
  5
D
102
{ACAD_REACTORS
330
C
102
}
100
AcDbDictionary
280
0
281
1
  0
ACDBDICTIONARYWDFLT
  5
E
102
{ACAD_REACTORS
330
C
102
}
100
AcDbDictionary
281
1
  3
Normal
350
F
100
AcDbDictionaryWithDefault
340
F
  0
DICTIONARY
  5
17
102
{ACAD_REACTORS
330
C
102
}
100
AcDbDictionary
280
0
281
1
  3
Standard
350
18
  0
DICTIONARY
  5
19
102
{ACAD_REACTORS
330
C
102
}
100
AcDbDictionary
281
1
  0
DICTIONARY
  5
1A
102
{ACAD_REACTORS
330
C
102
}
100
AcDbDictionary
281
1
  3
Model
350
41F
  3
Layout1
350
420
  0
ACDBPLACEHOLDER
  5
F
102
{ACAD_REACTORS
330
E
102
}
  0
MLINESTYLE
  5
18
102
{ACAD_REACTORS
330
17
102
}
100
AcDbMlineStyle
  2
STANDARD
 70
0
  3

 62
256
 51
90.0
 52
90.0
 71
2
 49
0.5
 62
256
  6
BYLAYER
 49
-0.5
 62
256
  6
BYLAYER
  0
LAYOUT
  5
41F
102
{ACAD_REACTORS
330
1A
102
}
100
AcDbPlotSettings
  1

  2
none_device
  4

  6

 40
0.0
 41
0.0
 42
0.0
 43
0.0
 44
210.0
 45
297.0
 46
0.0
 47
0.0
 48
0.0
 49
0.0
140
0.0
141
0.0
142
1.0
143
1.0
 70
1024
 72
1
 73
0
 74
0
  7

 75
0
147
1.0
148
0.0
149
0.0
100
AcDbLayout
  1
Model
 70
0
 71
0
 10
0.0
 20
0.0
 11
210.0
 21
297.0
 12
0.0
 22
0.0
 32
0.0
 14
0.0
 24
0.0
 34
0.0
 15
0.0
 25
0.0
 35
0.0
146
0.0
 13
0.0
 23
0.0
 33
0.0
 16
1.0
 26
0.0
 36
0.0
 17
0.0
 27
1.0
 37
0.0
 76
0
330
210
345
0
346
0
  0
LAYOUT
  5
420
102
{ACAD_REACTORS
330
1A
102
}
100
AcDbPlotSettings
  1

  2
none_device
  4

  6

 40
0.0
 41
0.0
 42
0.0
 43
0.0
 44
210.0
 45
297.0
 46
0.0
 47
0.0
 48
0.0
 49
0.0
140
0.0
141
0.0
142
1.0
143
1.0
 70
0
 72
1
 73
0
 74
0
  7

 75
0
147
1.0
148
0.0
149
0.0
100
AcDbLayout
  1
Layout1
 70
0
 71
1
 10
0.0
 20
0.0
 11
210.0
 21
297.0
 12
0.0
 22
0.0
 32
0.0
 14
0.0
 24
0.0
 34
0.0
 15
0.0
 25
0.0
 35
0.0
146
0.0
 13
0.0
 23
0.0
 33
0.0
 16
1.0
 26
0.0
 36
0.0
 17
0.0
 27
1.0
 37
0.0
 76
0
330
211
345
0
346
0
  0
ENDSEC
  0
EOF
