999
DXF file: C:\Users\sesa63760\Dev\_Creo\CAD\MCADID0005234_3D-CAD\drw0001_5.dxf
999
Pro/ENGINEER 2019471 by Parametric Technology Corporation
  0
SECTION
  2
HEADER
  9
$ACADVER
  1
AC1024
  9
$DWGCODEPAGE
  3
ANSI_1252
  9
$EXTMAX
 10
92.7113444546
 20
131.1203300143
 30
0.0
  9
$EXTMIN
 10
0.0
 20
0.0
 30
0.0
  9
$LIMMIN
 10
0.0
 20
0.0
  9
$LIMMAX
 10
92.7113444546
 20
131.1203300143
  9
$VIEWCTR
 10
46.3556722273
 20
65.5601650072
  9
$VIEWSIZE
 40
131.1203300143
  9
$CLAYER
  8
0
  9
$LTSCALE
 40
8.5471029935
  9
$CELTYPE
  6
BYLAYER
  9
$DIMSCALE
 40
1.0
  9
$DIMASZ
 40
1.1037064816
  9
$DIMEXO
 40
1.0
  9
$DIMDLI
 40
5.9052711592
  9
$DIMEXE
 40
1.0
  9
$DIMCEN
 40
1.3986168535
  9
$DIMLFAC
 40
1.0
  9
$DIMBLK
  1
_FILLED
  9
$DIMALT
 70
0
  9
$DIMALTF
 40
0.0393700787
  9
$DIMTXT
 40
1.5451890742
  9
$DIMTOL
 70
1
  9
$DIMLIM
 70
0
  9
$DIMTFAC
 40
1.0
  9
$DIMTP
 40
0.01
  9
$DIMTM
 40
0.01
  9
$DIMGAP
 40
0.625
  9
$DIMDSEP
 70
46
  9
$AUNITS
 70
0
  9
$PDMODE
 70
3
  9
$PDSIZE
 40
0.3125
  9
$HANDSEED
  5
390
  9
$TILEMODE
 70
1
  9
$MEASUREMENT
 70
1
  9
$INSUNITS
 70
4
  0
ENDSEC
  0
SECTION
  2
CLASSES
  0
CLASS
  1
ACDBDICTIONARYWDFLT
  2
AcDbDictionaryWithDefault
  3
AutoCAD 2000
 90
0
 91
1
280
0
281
0
  0
CLASS
  1
ACDBPLACEHOLDER
  2
AcDbPlaceHolder
  3
AutoCAD 2000
 90
0
 91
1
280
0
281
0
  0
CLASS
  1
LAYOUT
  2
AcDbLayout
  3
AutoCAD 2000
 90
0
 91
0
280
0
281
0
  0
ENDSEC
  0
SECTION
  2
TABLES
  0
TABLE
  2
VPORT
  5
8
100
AcDbSymbolTable
 70
2
  0
VPORT
  5
1F4
100
AcDbSymbolTableRecord
100
AcDbViewportTableRecord
  2
*ACTIVE
 70
0
 10
0.0
 20
0.0
 11
1.0
 21
1.0
 12
46.3556722273
 22
65.5601650072
 13
0.0
 23
0.0
 14
1.0
 24
1.0
 15
0.0
 25
0.0
 16
0.0
 26
0.0
 36
1.0
 17
0.0
 27
0.0
 37
0.0
 40
131.1203300143
 41
0.7070707071
 42
50.0
 43
0.0
 44
0.0
 50
0.0
 51
0.0
 71
0
 72
100
 73
1
 74
1
 75
0
 76
0
 77
0
 78
0
  0
ENDTAB
  0
TABLE
  2
LTYPE
  5
5
100
AcDbSymbolTable
 70
6
  0
LTYPE
  5
14
100
AcDbSymbolTableRecord
100
AcDbLinetypeTableRecord
  2
BYBLOCK
 70
0
  3

 72
65
 73
0
 40
0.0
  0
LTYPE
  5
15
100
AcDbSymbolTableRecord
100
AcDbLinetypeTableRecord
  2
BYLAYER
 70
0
  3

 72
65
 73
0
 40
0.0
  0
LTYPE
  5
16
100
AcDbSymbolTableRecord
100
AcDbLinetypeTableRecord
  2
CONTINUOUS
 70
64
  3
Solid line
 72
65
 73
0
 40
0.0
  0
LTYPE
  5
1F5
100
AcDbSymbolTableRecord
100
AcDbLinetypeTableRecord
  2
CENTER
 70
64
  3
____ _ ____ _ ____ _ ____ _ ____ _ ____ _ ____
 72
65
 73
4
 40
0.6
 49
0.375
 74
0
 49
-0.075
 74
0
 49
0.075
 74
0
 49
-0.075
 74
0
  0
LTYPE
  5
1F6
100
AcDbSymbolTableRecord
100
AcDbLinetypeTableRecord
  2
HIDDEN
 70
64
  3
- - - - - - - - - - - - - - - - - - - -
 72
65
 73
2
 40
0.2
 49
0.1
 74
0
 49
-0.1
 74
0
  0
LTYPE
  5
1F7
100
AcDbSymbolTableRecord
100
AcDbLinetypeTableRecord
  2
PHANTOM
 70
64
  3
_____ _ _ _____ _ _ _____ _ _ _____
 72
65
 73
6
 40
0.8
 49
0.45
 74
0
 49
-0.05
 74
0
 49
0.1
 74
0
 49
-0.05
 74
0
 49
0.1
 74
0
 49
-0.05
 74
0
  0
LTYPE
  5
1F8
100
AcDbSymbolTableRecord
100
AcDbLinetypeTableRecord
  2
DOT
 70
64
  3
. . . . . . . . . . . . . . . . . . . .
 72
65
 73
2
 40
0.2
 49
0.1
 74
0
 49
-0.1
 74
0
  0
LTYPE
  5
1F9
100
AcDbSymbolTableRecord
100
AcDbLinetypeTableRecord
  2
DASHED
 70
64
  3
- - - - - - - - - - - - - - - - - - - -
 72
65
 73
2
 40
0.2
 49
0.1
 74
0
 49
-0.1
 74
0
  0
ENDTAB
  0
TABLE
  2
LAYER
  5
2
100
AcDbSymbolTable
 70
36
  0
LAYER
  5
10
100
AcDbSymbolTableRecord
100
AcDbLayerTableRecord
  2
0
 70
0
 62
7
  6
CONTINUOUS
370
-3
390
F
  0
LAYER
  5
1FA
100
AcDbSymbolTableRecord
100
AcDbLayerTableRecord
  2
DEFAULT_1
 70
0
 62
7
  6
CENTER
370
-3
390
F
  0
LAYER
  5
1FB
100
AcDbSymbolTableRecord
100
AcDbLayerTableRecord
  2
DEFAULT_2
 70
0
 62
7
  6
HIDDEN
370
-3
390
F
  0
LAYER
  5
1FC
100
AcDbSymbolTableRecord
100
AcDbLayerTableRecord
  2
DEFAULT_3
 70
0
 62
7
  6
PHANTOM
370
-3
390
F
  0
LAYER
  5
1FD
100
AcDbSymbolTableRecord
100
AcDbLayerTableRecord
  2
00_COMPONENTS
 70
0
 62
7
  6
CONTINUOUS
370
-3
390
F
  0
LAYER
  5
1FE
100
AcDbSymbolTableRecord
100
AcDbLayerTableRecord
  2
00_COMPONENTS_1
 70
0
 62
7
  6
CONTINUOUS
370
-3
390
F
  0
LAYER
  5
1FF
100
AcDbSymbolTableRecord
100
AcDbLayerTableRecord
  2
00_COMPONENTS_2
 70
0
 62
7
  6
CONTINUOUS
370
-3
390
F
  0
LAYER
  5
200
100
AcDbSymbolTableRecord
100
AcDbLayerTableRecord
  2
00_COMPONENTS_3
 70
0
 62
7
  6
CONTINUOUS
370
-3
390
F
  0
LAYER
  5
201
100
AcDbSymbolTableRecord
100
AcDbLayerTableRecord
  2
01_1_DEFAULT_DATUMS
 70
0
 62
7
  6
CONTINUOUS
370
-3
390
F
  0
LAYER
  5
202
100
AcDbSymbolTableRecord
100
AcDbLayerTableRecord
  2
01_PLANES
 70
0
 62
7
  6
CONTINUOUS
370
-3
390
F
  0
LAYER
  5
203
100
AcDbSymbolTableRecord
100
AcDbLayerTableRecord
  2
02_COORD_SYS
 70
0
 62
7
  6
CONTINUOUS
370
-3
390
F
  0
LAYER
  5
204
100
AcDbSymbolTableRecord
100
AcDbLayerTableRecord
  2
03_AXES
 70
0
 62
7
  6
CONTINUOUS
370
-3
390
F
  0
LAYER
  5
205
100
AcDbSymbolTableRecord
100
AcDbLayerTableRecord
  2
04_POINTS
 70
0
 62
7
  6
CONTINUOUS
370
-3
390
F
  0
LAYER
  5
206
100
AcDbSymbolTableRecord
100
AcDbLayerTableRecord
  2
05_CURVES
 70
0
 62
7
  6
CONTINUOUS
370
-3
390
F
  0
LAYER
  5
207
100
AcDbSymbolTableRecord
100
AcDbLayerTableRecord
  2
06_SURFS
 70
0
 62
7
  6
CONTINUOUS
370
-3
390
F
  0
LAYER
  5
208
100
AcDbSymbolTableRecord
100
AcDbLayerTableRecord
  2
07_COSMETICS
 70
0
 62
7
  6
CONTINUOUS
370
-3
390
F
  0
LAYER
  5
209
100
AcDbSymbolTableRecord
100
AcDbLayerTableRecord
  2
10_NOTES
 70
0
 62
7
  6
CONTINUOUS
370
-3
390
F
  0
LAYER
  5
20A
100
AcDbSymbolTableRecord
100
AcDbLayerTableRecord
  2
11_NOTES_PUB
 70
0
 62
7
  6
CONTINUOUS
370
-3
390
F
  0
LAYER
  5
20B
100
AcDbSymbolTableRecord
100
AcDbLayerTableRecord
  2
13_REF_GTOL
 70
0
 62
7
  6
CONTINUOUS
370
-3
390
F
  0
LAYER
  5
20C
100
AcDbSymbolTableRecord
100
AcDbLayerTableRecord
  2
16_MISC
 70
0
 62
7
  6
CONTINUOUS
370
-3
390
F
  0
LAYER
  5
20D
100
AcDbSymbolTableRecord
100
AcDbLayerTableRecord
  2
17_NO_PRINT
 70
0
 62
7
  6
CONTINUOUS
370
-3
390
F
  0
LAYER
  5
20E
100
AcDbSymbolTableRecord
100
AcDbLayerTableRecord
  2
18_DATUM_CAMS_JOINTS
 70
0
 62
7
  6
CONTINUOUS
370
-3
390
F
  0
LAYER
  5
20F
100
AcDbSymbolTableRecord
100
AcDbLayerTableRecord
  2
19_DATUM_FUNCTIONAL
 70
0
 62
7
  6
CONTINUOUS
370
-3
390
F
  0
LAYER
  5
210
100
AcDbSymbolTableRecord
100
AcDbLayerTableRecord
  2
20_DATUM_KINEMATIC_SCHEME
 70
0
 62
7
  6
CONTINUOUS
370
-3
390
F
  0
LAYER
  5
211
100
AcDbSymbolTableRecord
100
AcDbLayerTableRecord
  2
AXE
 70
0
 62
7
  6
CONTINUOUS
370
-3
390
F
  0
LAYER
  5
212
100
AcDbSymbolTableRecord
100
AcDbLayerTableRecord
  2
INTFCLR_60057
 70
0
 62
7
  6
CONTINUOUS
370
-3
390
F
  0
LAYER
  5
213
100
AcDbSymbolTableRecord
100
AcDbLayerTableRecord
  2
INTFCLR_90054
 70
0
 62
7
  6
CONTINUOUS
370
-3
390
F
  0
LAYER
  5
214
100
AcDbSymbolTableRecord
100
AcDbLayerTableRecord
  2
INTF_BLANK
 70
0
 62
7
  6
CONTINUOUS
370
-3
390
F
  0
LAYER
  5
215
100
AcDbSymbolTableRecord
100
AcDbLayerTableRecord
  2
SHELL33
 70
0
 62
7
  6
CONTINUOUS
370
-3
390
F
  0
LAYER
  5
216
100
AcDbSymbolTableRecord
100
AcDbLayerTableRecord
  2
SHELL34
 70
0
 62
7
  6
CONTINUOUS
370
-3
390
F
  0
LAYER
  5
217
100
AcDbSymbolTableRecord
100
AcDbLayerTableRecord
  2
SHELL980
 70
0
 62
7
  6
CONTINUOUS
370
-3
390
F
  0
LAYER
  5
218
100
AcDbSymbolTableRecord
100
AcDbLayerTableRecord
  2
SURF
 70
0
 62
7
  6
CONTINUOUS
370
-3
390
F
  0
LAYER
  5
219
100
AcDbSymbolTableRecord
100
AcDbLayerTableRecord
  2
_BLACK_HOLE
 70
0
 62
7
  6
CONTINUOUS
370
-3
390
F
  0
LAYER
  5
21A
100
AcDbSymbolTableRecord
100
AcDbLayerTableRecord
  2
black
 70
0
 62
7
  6
CONTINUOUS
370
-3
390
F
  0
ENDTAB
  0
TABLE
  2
STYLE
  5
3
100
AcDbSymbolTable
 70
1
  0
STYLE
  5
11
100
AcDbSymbolTableRecord
100
AcDbTextStyleTableRecord
  2
STANDARD
 70
0
 40
0.0
 41
1.0
 50
0.0
 71
0
 42
0.2
  3
ARIAL.TTF
  4

  0
STYLE
  5
21B
100
AcDbSymbolTableRecord
100
AcDbTextStyleTableRecord
  2
TEXTSTYLE_1
 70
0
 40
0.0
 41
0.8
 50
0.0
 71
0
 42
0.2
  3
gdt
  4

  0
ENDTAB
  0
TABLE
  2
VIEW
  5
6
100
AcDbSymbolTable
 70
0
  0
ENDTAB
  0
TABLE
  2
UCS
  5
7
100
AcDbSymbolTable
 70
0
  0
ENDTAB
  0
TABLE
  2
APPID
  5
9
100
AcDbSymbolTable
 70
1
  0
APPID
  5
21C
100
AcDbSymbolTableRecord
100
AcDbRegAppTableRecord
  2
ACAD
 70
0
  0
ENDTAB
  0
TABLE
  2
BLOCK_RECORD
  5
1
100
AcDbSymbolTable
 70
0
  0
BLOCK_RECORD
  5
21D
100
AcDbSymbolTableRecord
100
AcDbBlockTableRecord
  2
*Model_Space
  0
BLOCK_RECORD
  5
21E
100
AcDbSymbolTableRecord
100
AcDbBlockTableRecord
  2
*Paper_Space
  0
BLOCK_RECORD
  5
21F
100
AcDbSymbolTableRecord
100
AcDbBlockTableRecord
  2
_FILLED
  0
ENDTAB
  0
TABLE
  2
DIMSTYLE
  5
A
100
AcDbSymbolTable
 70
1
100
AcDbDimStyleTable
 71
0
  0
DIMSTYLE
105
220
100
AcDbSymbolTableRecord
100
AcDbDimStyleTableRecord
  2
STANDARD
 70
0
  3

  4

 40
1.0
 41
1.1037064816
 42
1.0
 43
0.38
 44
1.0
 45
0.0
 46
0.0
 47
0.01
 48
0.01
140
1.5451890742
141
0.09
142
0.0
143
25.4
144
1.0
145
0.0
146
1.0
147
0.625
 71
1
 72
0
 73
0
 74
0
 75
0
 76
0
 77
1
 78
8
 79
2
170
0
171
1
172
0
173
0
174
0
175
0
176
0
177
0
178
0
270
2
179
2
271
2
272
2
273
2
274
2
275
0
280
0
281
0
282
0
283
1
284
8
285
0
286
0
287
3
288
0
340
11
278
46
341
21F
342
21F
343
21F
344
21F
  0
ENDTAB
  0
ENDSEC
  0
SECTION
  2
BLOCKS
  0
BLOCK
  5
20
100
AcDbEntity
  8
0
100
AcDbBlockBegin
  2
*Model_Space
 70
0
 10
0.0
 20
0.0
 30
0.0
  3
*Model_Space
  1

  0
ENDBLK
  5
21
100
AcDbEntity
  8
0
100
AcDbBlockEnd
  0
BLOCK
  5
1C
100
AcDbEntity
  8
0
100
AcDbBlockBegin
  2
*Paper_Space
 70
0
 10
0.0
 20
0.0
 30
0.0
  3
*Paper_Space
  1

  0
ENDBLK
  5
1D
100
AcDbEntity
  8
0
100
AcDbBlockEnd
  0
BLOCK
  5
221
100
AcDbEntity
  8
0
100
AcDbBlockBegin
  2
_FILLED
 70
64
 10
0.0
 20
0.0
  3
_FILLED
  1

  0
SOLID
  5
222
100
AcDbEntity
  8
0
  6
BYBLOCK
 62
0
100
AcDbTrace
 10
0.0
 20
0.0
 11
-1.0
 21
0.25
 12
-1.0
 22
-0.25
 13
-1.0
 23
-0.25
  0
ENDBLK
  5
223
100
AcDbEntity
  8
0
  6
BYBLOCK
 62
0
100
AcDbBlockEnd
  0
ENDSEC
  0
SECTION
  2
ENTITIES
  0
LINE
  5
224
100
AcDbEntity
  8
00_COMPONENTS_1
100
AcDbLine
 62
7
  6
BYLAYER
 10
28.2395922274
 20
-11.4274149988
 11
67.0395922274
 21
-11.4274149988
  0
LINE
  5
225
100
AcDbEntity
  8
0
100
AcDbLine
 62
7
  6
BYLAYER
 10
59.940847077
 20
11.9471294548
 11
59.8895922274
 21
11.9418189323
  0
LINE
  5
226
100
AcDbEntity
  8
0
100
AcDbLine
 62
7
  6
BYLAYER
 10
35.3383373778
 20
11.9471294548
 11
35.3895922274
 21
11.9418189323
  0
LINE
  5
227
100
AcDbEntity
  8
0
100
AcDbLine
 62
7
  6
BYLAYER
 10
37.8487947308
 20
11.476806366
 11
57.4301855574
 21
11.4767719546
  0
LINE
  5
228
100
AcDbEntity
  8
0
100
AcDbLine
 62
7
  6
BYLAYER
 10
37.6395922274
 20
11.7234543884
 11
57.6395922274
 21
11.7234543884
  0
LINE
  5
229
100
AcDbEntity
  8
0
100
AcDbLine
 62
7
  6
BYLAYER
 10
59.8809070665
 20
11.9418189323
 11
35.4117156717
 21
11.9418189323
  0
LINE
  5
22A
100
AcDbEntity
  8
0
100
AcDbLine
 62
7
  6
BYLAYER
 10
59.9408924718
 20
11.9471389637
 11
47.6395922274
 21
11.9471294135
  0
LINE
  5
22B
100
AcDbEntity
  8
0
100
AcDbLine
 62
7
  6
BYLAYER
 10
47.5106789241
 20
11.9471531549
 11
35.3384065792
 21
11.9471149822
  0
LINE
  5
22C
100
AcDbEntity
  8
0
100
AcDbLine
 62
7
  6
BYLAYER
 10
29.3787327249
 20
13.5189236116
 11
65.9005134294
 21
13.518943325
  0
LINE
  5
22D
100
AcDbEntity
  8
0
100
AcDbLine
 62
7
  6
BYLAYER
 10
27.6547437426
 20
15.9003292506
 11
27.9386090142
 21
15.9003292513
  0
LINE
  5
22E
100
AcDbEntity
  8
0
100
AcDbLine
 62
7
  6
BYLAYER
 10
27.9940249793
 20
15.9003290756
 11
44.0923924046
 21
15.9003292513
  0
LINE
  5
22F
100
AcDbEntity
  8
0
100
AcDbLine
 62
7
  6
BYLAYER
 10
45.2351670502
 20
15.9003290726
 11
47.0616662482
 21
15.9003292514
  0
LINE
  5
230
100
AcDbEntity
  8
0
100
AcDbLine
 62
7
  6
BYLAYER
 10
48.2175182067
 20
15.9003290675
 11
50.0440174046
 21
15.9003292513
  0
LINE
  5
231
100
AcDbEntity
  8
0
100
AcDbLine
 62
7
  6
BYLAYER
 10
51.1867920502
 20
15.9003290726
 11
67.2851594756
 21
15.9003292513
  0
LINE
  5
232
100
AcDbEntity
  8
0
100
AcDbLine
 62
7
  6
BYLAYER
 10
67.3405754406
 20
15.9003290708
 11
67.6244407123
 21
15.9003292506
  0
LINE
  5
233
100
AcDbEntity
  8
0
100
AcDbLine
 62
7
  6
BYLAYER
 10
67.6244407123
 20
16.8725850012
 11
27.6547437426
 21
16.8725850012
  0
LINE
  5
234
100
AcDbEntity
  8
0
100
AcDbLine
 62
7
  6
BYLAYER
 10
29.6088586133
 20
18.3668770483
 11
65.6703258415
 21
18.3668770483
  0
LINE
  5
235
100
AcDbEntity
  8
0
100
AcDbLine
 62
7
  6
BYLAYER
 10
63.0960143561
 20
18.5921001197
 11
32.1831700988
 21
18.5921001197
  0
LINE
  5
236
100
AcDbEntity
  8
0
100
AcDbLine
 62
7
  6
BYLAYER
 10
32.6395922274
 20
19.0901974687
 11
62.6395922274
 21
19.0901974687
  0
LINE
  5
237
100
AcDbEntity
  8
0
100
AcDbLine
 62
7
  6
BYLAYER
 10
28.2917226017
 20
14.2164724874
 11
28.2905808453
 21
14.2177744857
  0
LINE
  5
238
100
AcDbEntity
  8
0
100
AcDbLine
 62
7
  6
BYLAYER
 10
31.3582891605
 20
112.8946718754
 11
37.4289422984
 21
118.9653250132
  0
LINE
  5
239
100
AcDbEntity
  8
0
100
AcDbLine
 62
7
  6
BYLAYER
 10
36.0908841363
 20
115.8312156269
 11
33.5584519102
 21
113.2987834008
  0
LINE
  5
23A
100
AcDbEntity
  8
0
100
AcDbLine
 62
7
  6
BYLAYER
 10
32.1831700988
 20
18.5921001197
 11
29.6088586133
 21
18.3668770483
  0
LINE
  5
23B
100
AcDbEntity
  8
0
100
AcDbLine
 62
7
  6
BYLAYER
 10
63.0960143561
 20
18.5921001197
 11
65.6703258415
 21
18.3668770483
  0
LINE
  5
23C
100
AcDbEntity
  8
0
100
AcDbLine
 62
7
  6
BYLAYER
 10
41.4296425095
 20
118.9653250132
 11
37.1932086298
 21
114.7288911335
  0
LINE
  5
23D
100
AcDbEntity
  8
0
100
AcDbLine
 62
7
  6
BYLAYER
 10
34.6607764037
 20
112.1964589073
 11
33.3586392661
 21
110.8943217698
  0
LINE
  5
23E
100
AcDbEntity
  8
0
100
AcDbLine
 62
7
  6
BYLAYER
 10
26.7937662224
 20
103.501226814
 11
27.1475922274
 21
103.855052819
  0
LINE
  5
23F
100
AcDbEntity
  8
0
100
AcDbLine
 62
7
  6
BYLAYER
 10
27.0477662224
 20
103.6270475584
 11
33.8368398499
 21
110.4161211859
  0
LINE
  5
240
100
AcDbEntity
  8
0
100
AcDbLine
 62
7
  6
BYLAYER
 10
32.1934529798
 20
106.9766830916
 11
29.6610207536
 21
104.4442508654
  0
LINE
  5
241
100
AcDbEntity
  8
0
100
AcDbLine
 62
7
  6
BYLAYER
 10
36.0370025996
 20
110.8202327114
 11
38.5694348258
 21
113.3526649375
  0
LINE
  5
242
100
AcDbEntity
  8
0
100
AcDbLine
 62
7
  6
BYLAYER
 10
37.3810005405
 20
110.8710737708
 11
36.7588301458
 21
110.2489033762
  0
LINE
  5
243
100
AcDbEntity
  8
0
100
AcDbLine
 62
7
  6
BYLAYER
 10
28.4272970587
 20
14.401580151
 11
28.4703218393
 21
14.3205345797
  0
LINE
  5
244
100
AcDbEntity
  8
0
100
AcDbLine
 62
7
  6
BYLAYER
 10
37.1146333341
 20
109.7426019769
 11
39.6470655603
 21
112.275034203
  0
LINE
  5
245
100
AcDbEntity
  8
0
100
AcDbLine
 62
7
  6
BYLAYER
 10
35.8371899555
 20
108.4157710803
 11
33.2957774733
 21
105.8743585981
  0
LINE
  5
246
100
AcDbEntity
  8
0
100
AcDbLine
 62
7
  6
BYLAYER
 10
30.7633452471
 20
103.3419263719
 11
28.349616328
 21
100.9281974528
  0
LINE
  5
247
100
AcDbEntity
  8
0
100
AcDbLine
 62
7
  6
BYLAYER
 10
38.1922640687
 20
108.6649712423
 11
40.7246962948
 21
111.1974034685
  0
LINE
  5
248
100
AcDbEntity
  8
0
100
AcDbLine
 62
7
  6
BYLAYER
 10
32.1395714431
 20
101.965700176
 11
34.6720036692
 21
104.4981324021
  0
LINE
  5
249
100
AcDbEntity
  8
0
100
AcDbLine
 62
7
  6
BYLAYER
 10
41.1737091009
 20
110.7483906624
 11
38.6412768747
 21
108.2159584363
  0
LINE
  5
24A
100
AcDbEntity
  8
0
100
AcDbLine
 62
7
  6
BYLAYER
 10
38.8208819971
 20
108.0363533139
 11
41.3533142233
 21
110.56878554
  0
LINE
  5
24B
100
AcDbEntity
  8
0
100
AcDbLine
 62
7
  6
BYLAYER
 10
42.6195303364
 20
111.4757914082
 11
41.5329193457
 21
110.3891804176
  0
LINE
  5
24C
100
AcDbEntity
  8
0
100
AcDbLine
 62
7
  6
BYLAYER
 10
39.0004871196
 20
107.8567481914
 11
37.9138761289
 21
106.7701372008
  0
LINE
  5
24D
100
AcDbEntity
  8
0
100
AcDbLine
 62
7
  6
BYLAYER
 10
33.4835693839
 20
102.0165412355
 11
32.8613989893
 21
101.3943708408
  0
LINE
  5
24E
100
AcDbEntity
  8
0
100
AcDbLine
 62
7
  6
BYLAYER
 10
42.4219647017
 20
110.5598052839
 11
38.8298622533
 21
106.9677028354
  0
LINE
  5
24F
100
AcDbEntity
  8
0
100
AcDbLine
 62
7
  6
BYLAYER
 10
33.2172021776
 20
100.8880694415
 11
35.7496344037
 21
103.4205016676
  0
LINE
  5
250
100
AcDbEntity
  8
0
100
AcDbLine
 62
7
  6
BYLAYER
 10
56.9699796178
 20
108.6919120107
 11
57.0490638088
 21
108.717114665
  0
LINE
  5
251
100
AcDbEntity
  8
0
100
AcDbLine
 62
7
  6
BYLAYER
 10
62.6395922274
 20
27.7065595974
 11
32.6395922274
 21
27.7065595974
  0
LINE
  5
252
100
AcDbEntity
  8
0
100
AcDbLine
 62
7
  6
BYLAYER
 10
62.1394039867
 20
28.5725850012
 11
33.1397804682
 21
28.5725850012
  0
LINE
  5
253
100
AcDbEntity
  8
0
100
AcDbLine
 62
7
  6
BYLAYER
 10
34.2948329121
 20
99.810438707
 11
36.8272651383
 21
102.3428709331
  0
LINE
  5
254
100
AcDbEntity
  8
0
100
AcDbLine
 62
7
  6
BYLAYER
 10
39.7997299143
 20
104.8842834154
 11
44.5053841218
 21
109.5899376228
  0
LINE
  5
255
100
AcDbEntity
  8
0
100
AcDbLine
 62
7
  6
BYLAYER
 10
37.2762779443
 20
101.893858127
 11
34.7438457182
 21
99.3614259009
  0
LINE
  5
256
100
AcDbEntity
  8
0
100
AcDbLine
 62
7
  6
BYLAYER
 10
34.9234508406
 20
99.1818207785
 11
37.4558830667
 21
101.7142530046
  0
LINE
  5
257
100
AcDbEntity
  8
0
100
AcDbLine
 62
7
  6
BYLAYER
 10
38.7220991798
 20
102.6212588728
 11
37.6354881892
 21
101.5346478822
  0
LINE
  5
258
100
AcDbEntity
  8
0
100
AcDbLine
 62
7
  6
BYLAYER
 10
35.103055963
 20
99.0022156561
 11
34.0164449724
 21
97.9156046654
  0
LINE
  5
259
100
AcDbEntity
  8
0
100
AcDbLine
 62
7
  6
BYLAYER
 10
38.5245335451
 20
101.7052727485
 11
34.9324310967
 21
98.1131703001
  0
LINE
  5
25A
100
AcDbEntity
  8
00_COMPONENTS
100
AcDbLine
 62
7
  6
BYLAYER
 10
31.8935922234
 20
36.9943850132
 11
31.6395922234
 21
37.2483850132
  0
LINE
  5
25B
100
AcDbEntity
  8
0
100
AcDbLine
 62
7
  6
BYLAYER
 10
35.9022987578
 20
96.02975088
 11
40.6079529652
 21
100.7354050874
  0
LINE
  5
25C
100
AcDbEntity
  8
0
100
AcDbLine
 62
7
  6
BYLAYER
 10
52.5696541185
 20
111.4757914082
 11
50.6838003331
 21
109.5899376228
  0
LINE
  5
25D
100
AcDbEntity
  8
0
100
AcDbLine
 62
7
  6
BYLAYER
 10
50.7915634065
 20
109.4821745493
 11
52.677417192
 21
111.3680283348
  0
LINE
  5
25E
100
AcDbEntity
  8
0
100
AcDbLine
 62
7
  6
BYLAYER
 10
53.126429998
 20
110.9190155287
 11
51.2405762126
 21
109.0331617433
  0
LINE
  5
25F
100
AcDbEntity
  8
0
100
AcDbLine
 62
7
  6
BYLAYER
 10
53.6562651091
 20
110.3891804176
 11
59.0983003185
 21
115.8312156269
  0
LINE
  5
260
100
AcDbEntity
  8
0
100
AcDbLine
 62
7
  6
BYLAYER
 10
54.0424161224
 20
110.7214498941
 11
53.8628109999
 21
110.5418447716
  0
LINE
  5
261
100
AcDbEntity
  8
0
100
AcDbLine
 62
7
  6
BYLAYER
 10
53.3239956327
 20
110.0030294044
 11
51.7973520921
 21
108.4763858638
  0
LINE
  5
262
100
AcDbEntity
  8
0
100
AcDbLine
 62
7
  6
BYLAYER
 10
56.0484202939
 20
112.6308373913
 11
56.6949987346
 21
113.277415832
  0
LINE
  5
263
100
AcDbEntity
  8
0
100
AcDbLine
 62
7
  6
BYLAYER
 10
60.8674107744
 20
99.8373794753
 11
60.9464949654
 21
99.8625821296
  0
LINE
  5
264
100
AcDbEntity
  8
00_COMPONENTS
100
AcDbLine
 62
7
  6
BYLAYER
 10
31.8936009337
 20
36.9943850132
 11
63.3855835212
 21
36.9943850132
  0
LINE
  5
265
100
AcDbEntity
  8
00_COMPONENTS
100
AcDbLine
 62
7
  6
BYLAYER
 10
31.6395922234
 20
37.2483850132
 11
63.6395922314
 21
37.2483850132
  0
LINE
  5
266
100
AcDbEntity
  8
00_COMPONENTS
100
AcDbLine
 62
7
  6
BYLAYER
 10
31.2458922234
 20
43.3684878142
 11
30.1770922274
 21
43.9855597796
  0
LINE
  5
267
100
AcDbEntity
  8
0
100
AcDbLine
 62
7
  6
BYLAYER
 10
57.3171691293
 20
112.6552454374
 11
56.6705906885
 21
112.0086669967
  0
LINE
  5
268
100
AcDbEntity
  8
0
100
AcDbLine
 62
7
  6
BYLAYER
 10
54.2759027815
 20
105.9978351744
 11
55.8025463221
 21
107.524478715
  0
LINE
  5
269
100
AcDbEntity
  8
0
100
AcDbLine
 62
7
  6
BYLAYER
 10
56.3413616893
 20
108.0632940822
 11
56.5209668118
 21
108.2428992046
  0
LINE
  5
26A
100
AcDbEntity
  8
0
100
AcDbLine
 62
7
  6
BYLAYER
 10
56.1886973353
 20
107.8567481914
 11
61.6307325447
 21
113.2987834008
  0
LWPOLYLINE
  5
26B
100
AcDbEntity
  8
0
100
AcDbPolyline
 62
7
  6
BYLAYER
 90
8
 70
0
 10
27.9940270622
 20
15.9003290722
 10
28.0020312735
 20
15.6942997977
 10
28.0452042681
 20
15.3803246954
 10
28.1125477747
 20
15.1113262632
 10
28.1930310129
 20
14.8812743309
 10
28.2779557353
 20
14.686574212
 10
28.3592283974
 20
14.525862776
 10
28.4272970587
 20
14.401580151
  0
LINE
  5
26C
100
AcDbEntity
  8
0
100
AcDbLine
 62
7
  6
BYLAYER
 10
26.6395922274
 20
68.3273250132
 11
26.6395922274
 21
94.3273250132
  0
LINE
  5
26D
100
AcDbEntity
  8
0
100
AcDbLine
 62
7
  6
BYLAYER
 10
26.7937662224
 20
102.104226814
 11
26.7937662224
 21
103.501226814
  0
LINE
  5
26E
100
AcDbEntity
  8
0
100
AcDbLine
 62
7
  6
BYLAYER
 10
27.0477662224
 20
102.2300475584
 11
27.0477662224
 21
103.6270475584
  0
LINE
  5
26F
100
AcDbEntity
  8
0
100
AcDbLine
 62
7
  6
BYLAYER
 10
27.1475922274
 20
94.3273250132
 11
27.1475922274
 21
102.1302215534
  0
LINE
  5
270
100
AcDbEntity
  8
0
100
AcDbLine
 62
7
  6
BYLAYER
 10
27.1475922274
 20
103.7268735634
 11
27.1475922274
 21
118.8395042688
  0
LINE
  5
271
100
AcDbEntity
  8
0
100
AcDbLine
 62
7
  6
BYLAYER
 10
27.4015922274
 20
118.9653250132
 11
27.4015922274
 21
103.9808735634
  0
LINE
  5
272
100
AcDbEntity
  8
0
100
AcDbLine
 62
7
  6
BYLAYER
 10
27.4015922274
 20
101.8762215534
 11
27.4015922274
 21
94.3273250132
  0
LINE
  5
273
100
AcDbEntity
  8
00_COMPONENTS_1
100
AcDbLine
 62
7
  6
BYLAYER
 10
27.6395922274
 20
14.3497009783
 11
27.6395922274
 21
16.8725850012
  0
LINE
  5
274
100
AcDbEntity
  8
0
100
AcDbLine
 62
7
  6
BYLAYER
 10
27.6547437426
 20
15.9003292506
 11
27.6547437426
 21
16.8725850012
  0
LINE
  5
275
100
AcDbEntity
  8
0
100
AcDbLine
 62
7
  6
BYLAYER
 10
27.7640996724
 20
16.8725850012
 11
27.7640996724
 21
15.9003292506
  0
LINE
  5
276
100
AcDbEntity
  8
00_COMPONENTS
100
AcDbLine
 62
7
  6
BYLAYER
 10
27.7958422274
 20
51.5485850132
 11
27.7958422274
 21
53.0725850132
  0
LINE
  5
277
100
AcDbEntity
  8
0
100
AcDbLine
 62
7
  6
BYLAYER
 10
27.7958422274
 20
59.4733850132
 11
27.7958422274
 21
61.0608850132
  0
LINE
  5
278
100
AcDbEntity
  8
00_COMPONENTS_1
100
AcDbLine
 62
7
  6
BYLAYER
 10
27.8658722941
 20
14.3498150895
 11
27.8658722941
 21
16.8725850012
  0
LINE
  5
279
100
AcDbEntity
  8
0
100
AcDbLine
 62
7
  6
BYLAYER
 10
27.9386090142
 20
16.8725850012
 11
27.9386090142
 21
15.9003292513
  0
LINE
  5
27A
100
AcDbEntity
  8
0
100
AcDbLine
 62
7
  6
BYLAYER
 10
27.9940249793
 20
16.8725850012
 11
27.9940249793
 21
15.9003290756
  0
LINE
  5
27B
100
AcDbEntity
  8
0
100
AcDbLine
 62
7
  6
BYLAYER
 10
27.9976051081
 20
15.9003292506
 11
27.9976051081
 21
16.8725850012
  0
LINE
  5
27C
100
AcDbEntity
  8
0
100
AcDbLine
 62
7
  6
BYLAYER
 10
28.1395922274
 20
64.3269850132
 11
28.1395922274
 21
63.0608850132
  0
LINE
  5
27D
100
AcDbEntity
  8
0
100
AcDbLine
 62
7
  6
BYLAYER
 10
54.832678661
 20
105.4410592949
 11
56.7185324464
 21
107.3269130803
  0
LINE
  5
27E
100
AcDbEntity
  8
0
100
AcDbLine
 62
7
  6
BYLAYER
 10
57.1675452525
 20
106.8779002742
 11
55.2816914671
 21
104.9920464888
  0
LINE
  5
27F
100
AcDbEntity
  8
0
100
AcDbLine
 62
7
  6
BYLAYER
 10
55.3894545405
 20
104.8842834154
 11
57.2753083259
 21
106.7701372008
  0
LINE
  5
280
100
AcDbEntity
  8
0
100
AcDbLine
 62
7
  6
BYLAYER
 10
63.8308952943
 20
112.8946718753
 11
59.3519944993
 21
108.4157710804
  0
LINE
  5
281
100
AcDbEntity
  8
0
100
AcDbLine
 62
7
  6
BYLAYER
 10
56.467085275
 20
102.6212588728
 11
54.5812314896
 21
100.7354050874
  0
LINE
  5
282
100
AcDbEntity
  8
0
100
AcDbLine
 62
7
  6
BYLAYER
 10
54.6889945631
 20
100.627642014
 11
56.5748483485
 21
102.5134957994
  0
LINE
  5
283
100
AcDbEntity
  8
00_COMPONENTS
100
AcDbLine
 62
7
  6
BYLAYER
 10
63.6395922314
 20
42.6865794112
 11
31.6395922234
 21
42.6865794112
  0
LINE
  5
284
100
AcDbEntity
  8
00_COMPONENTS
100
AcDbLine
 62
7
  6
BYLAYER
 10
31.2458922234
 20
43.3684878142
 11
64.0332922314
 21
43.3684878142
  0
LINE
  5
285
100
AcDbEntity
  8
0
100
AcDbLine
 62
7
  6
BYLAYER
 10
28.7789922274
 20
68.3273250132
 11
28.7789922274
 21
64.3273250132
  0
LINE
  5
286
100
AcDbEntity
  8
00_COMPONENTS
100
AcDbLine
 62
7
  6
BYLAYER
 10
28.9705922274
 20
50.2785850132
 11
28.9705922274
 21
51.5485850132
  0
LINE
  5
287
100
AcDbEntity
  8
0
100
AcDbLine
 62
7
  6
BYLAYER
 10
29.6395922274
 20
63.0608850132
 11
29.6395922274
 21
61.0608850132
  0
LINE
  5
288
100
AcDbEntity
  8
00_COMPONENTS
100
AcDbLine
 62
7
  6
BYLAYER
 10
30.1770922274
 20
43.9854513102
 11
30.1770922274
 21
50.2785850132
  0
LINE
  5
289
100
AcDbEntity
  8
00_COMPONENTS
100
AcDbLine
 62
7
  6
BYLAYER
 10
31.6395922234
 20
37.2483850132
 11
31.6395922234
 21
42.6865794112
  0
LINE
  5
28A
100
AcDbEntity
  8
0
100
AcDbLine
 62
7
  6
BYLAYER
 10
57.0238611545
 20
102.0644829933
 11
55.1380073691
 21
100.1786292079
  0
LINE
  5
28B
100
AcDbEntity
  8
0
100
AcDbLine
 62
7
  6
BYLAYER
 10
57.5536962657
 20
101.5346478822
 11
62.9957314751
 21
106.9766830916
  0
LINE
  5
28C
100
AcDbEntity
  8
0
100
AcDbLine
 62
7
  6
BYLAYER
 10
57.9398472789
 20
101.8669173587
 11
57.7602421565
 21
101.6873122363
  0
LINE
  5
28D
100
AcDbEntity
  8
0
100
AcDbLine
 62
7
  6
BYLAYER
 10
57.2214267892
 20
101.148496869
 11
55.6947832486
 21
99.6218533284
  0
LINE
  5
28E
100
AcDbEntity
  8
0
100
AcDbLine
 62
7
  6
BYLAYER
 10
59.9458514504
 20
103.7763048559
 11
60.5924298911
 21
104.4228832967
  0
LINE
  5
28F
100
AcDbEntity
  8
0
100
AcDbLine
 62
7
  6
BYLAYER
 10
61.2146002858
 20
103.800712902
 11
60.5680218451
 21
103.1541344613
  0
LINE
  5
290
100
AcDbEntity
  8
00_COMPONENTS
100
AcDbLine
 62
7
  6
BYLAYER
 10
28.9705964116
 20
50.2785850132
 11
66.0545922274
 21
50.2785850132
  0
LINE
  5
291
100
AcDbEntity
  8
0
100
AcDbLine
 62
7
  6
BYLAYER
 10
32.6395922274
 20
27.7065595974
 11
32.6395922274
 21
19.0901974687
  0
LINE
  5
292
100
AcDbEntity
  8
0
100
AcDbLine
 62
7
  6
BYLAYER
 10
32.6535922274
 20
53.0725850132
 11
32.6535922274
 21
59.4733850132
  0
LINE
  5
293
100
AcDbEntity
  8
00_COMPONENTS
100
AcDbLine
 62
7
  6
BYLAYER
 10
35.1395922275
 20
28.5725850012
 11
35.1395922275
 21
36.9943850132
  0
LINE
  5
294
100
AcDbEntity
  8
0
100
AcDbLine
 62
7
  6
BYLAYER
 10
35.1495962306
 20
68.3273250132
 11
35.1495962306
 21
94.3273250132
  0
LINE
  5
295
100
AcDbEntity
  8
0
100
AcDbLine
 62
7
  6
BYLAYER
 10
35.3829922274
 20
64.3273250132
 11
35.3829922274
 21
68.3273250132
  0
LINE
  5
296
100
AcDbEntity
  8
0
100
AcDbLine
 62
7
  6
BYLAYER
 10
58.173333938
 20
97.143302639
 11
59.6999774786
 21
98.6699461796
  0
LINE
  5
297
100
AcDbEntity
  8
0
100
AcDbLine
 62
7
  6
BYLAYER
 10
60.2387928459
 20
99.2087615468
 11
60.4183979683
 21
99.3883666693
  0
LINE
  5
298
100
AcDbEntity
  8
0
100
AcDbLine
 62
7
  6
BYLAYER
 10
60.0861284918
 20
99.0022156561
 11
65.5281637012
 21
104.4442508654
  0
LINE
  5
299
100
AcDbEntity
  8
0
100
AcDbLine
 62
7
  6
BYLAYER
 10
58.7301098176
 20
96.5865267595
 11
60.615963603
 21
98.4723805449
  0
LINE
  5
29A
100
AcDbEntity
  8
0
100
AcDbLine
 62
7
  6
BYLAYER
 10
61.064976409
 20
98.0233677389
 11
59.1791226236
 21
96.1375139534
  0
LINE
  5
29B
100
AcDbEntity
  8
0
100
AcDbLine
 62
7
  6
BYLAYER
 10
59.2868856971
 20
96.02975088
 11
61.1727394825
 21
97.9156046654
  0
LINE
  5
29C
100
AcDbEntity
  8
0
100
AcDbLine
 62
7
  6
BYLAYER
 10
68.1414182324
 20
102.2300475584
 11
60.3645164316
 21
94.4531457576
  0
LINE
  5
29D
100
AcDbEntity
  8
00_COMPONENTS
100
AcDbLine
 62
7
  6
BYLAYER
 10
27.7959878178
 20
51.5485850132
 11
67.4831966371
 21
51.5485850132
  0
LINE
  5
29E
100
AcDbEntity
  8
00_COMPONENTS
100
AcDbLine
 62
7
  6
BYLAYER
 10
27.7959878178
 20
53.0725850132
 11
67.4831966371
 21
53.0725850132
  0
LINE
  5
29F
100
AcDbEntity
  8
0
100
AcDbLine
 62
7
  6
BYLAYER
 10
37.6395922274
 20
68.3273250132
 11
37.6395922274
 21
64.3269850132
  0
LINE
  5
2A0
100
AcDbEntity
  8
0
100
AcDbLine
 62
7
  6
BYLAYER
 10
37.6395922274
 20
11.9418189323
 11
37.6395922274
 21
11.7234543884
  0
LINE
  5
2A1
100
AcDbEntity
  8
00_COMPONENTS
100
AcDbLine
 62
7
  6
BYLAYER
 10
40.4063878945
 20
50.2785850132
 11
40.4063878945
 21
44.8162362189
  0
LINE
  5
2A2
100
AcDbEntity
  8
00_COMPONENTS_1
100
AcDbLine
 62
7
  6
BYLAYER
 10
41.3295922274
 20
-11.4274149988
 11
41.3295922274
 21
11.9418189323
  0
LINE
  5
2A3
100
AcDbEntity
  8
00_COMPONENTS
100
AcDbLine
 62
7
  6
BYLAYER
 10
42.0833422274
 20
53.0725850132
 11
42.0833422274
 21
51.5485850132
  0
LINE
  5
2A4
100
AcDbEntity
  8
0
100
AcDbLine
 62
7
  6
BYLAYER
 10
42.5595922274
 20
86.3273250132
 11
42.5595922274
 21
94.3273250132
  0
LINE
  5
2A5
100
AcDbEntity
  8
0
100
AcDbLine
 62
7
  6
BYLAYER
 10
43.1945922274
 20
72.3273250132
 11
43.1945922274
 21
68.3273250132
  0
LINE
  5
2A6
100
AcDbEntity
  8
0
100
AcDbLine
 62
7
  6
BYLAYER
 10
43.1945922274
 20
82.3273250132
 11
43.1945922274
 21
86.3273250132
  0
LINE
  5
2A7
100
AcDbEntity
  8
0
100
AcDbLine
 62
7
  6
BYLAYER
 10
43.8723197388
 20
16.8725850012
 11
43.8723197388
 21
15.9003292506
  0
LINE
  5
2A8
100
AcDbEntity
  8
0
100
AcDbLine
 62
7
  6
BYLAYER
 10
44.0923924046
 20
16.8725850012
 11
44.0923924046
 21
15.9003292513
  0
LINE
  5
2A9
100
AcDbEntity
  8
0
100
AcDbLine
 62
7
  6
BYLAYER
 10
44.1020922274
 20
118.9653250132
 11
44.1020922274
 21
120.6429042688
  0
LINE
  5
2AA
100
AcDbEntity
  8
0
100
AcDbLine
 62
7
  6
BYLAYER
 10
54.5166315827
 20
111.2495468911
 11
54.4914289284
 21
111.1704627001
  0
LINE
  5
2AB
100
AcDbEntity
  8
0
100
AcDbLine
 62
7
  6
BYLAYER
 10
27.7958531869
 20
59.4733850132
 11
67.4833312679
 21
59.4733850132
  0
LINE
  5
2AC
100
AcDbEntity
  8
0
100
AcDbLine
 62
7
  6
BYLAYER
 10
67.4833312679
 20
61.0608850132
 11
27.7958531869
 21
61.0608850132
  0
LINE
  5
2AD
100
AcDbEntity
  8
0
100
AcDbLine
 62
7
  6
BYLAYER
 10
62.1395922274
 20
28.5725850012
 11
62.6395922274
 21
27.7065595974
  0
LINE
  5
2AE
100
AcDbEntity
  8
0
100
AcDbLine
 62
7
  6
BYLAYER
 10
44.3375922274
 20
68.3273250132
 11
44.3375922274
 21
64.3273250132
  0
LINE
  5
2AF
100
AcDbEntity
  8
0
100
AcDbLine
 62
7
  6
BYLAYER
 10
44.339025216
 20
72.3273250132
 11
44.339025216
 21
82.3273250132
  0
LINE
  5
2B0
100
AcDbEntity
  8
0
100
AcDbLine
 62
7
  6
BYLAYER
 10
44.3560922274
 20
118.9653250132
 11
44.3560922274
 21
120.7687250132
  0
LINE
  5
2B1
100
AcDbEntity
  8
00_COMPONENTS
100
AcDbLine
 62
7
  6
BYLAYER
 10
44.5704985501
 20
51.5485850132
 11
44.5704985501
 21
50.2785850132
  0
LINE
  5
2B2
100
AcDbEntity
  8
00_COMPONENTS_1
100
AcDbLine
 62
7
  6
BYLAYER
 10
44.6395922274
 20
10.7779224782
 11
44.6395922274
 21
-11.4274149988
  0
LINE
  5
2B3
100
AcDbEntity
  8
00_COMPONENTS_1
100
AcDbLine
 62
7
  6
BYLAYER
 10
44.6395922274
 20
14.3497009778
 11
44.6395922274
 21
16.8725850012
  0
LINE
  5
2B4
100
AcDbEntity
  8
0
100
AcDbLine
 62
7
  6
BYLAYER
 10
45.2351670502
 20
15.9003290726
 11
45.2351670502
 21
16.8725850012
  0
LINE
  5
2B5
100
AcDbEntity
  8
0
100
AcDbLine
 62
7
  6
BYLAYER
 10
45.4114100725
 20
15.9003292506
 11
45.4114100725
 21
16.8725850012
  0
LINE
  5
2B6
100
AcDbEntity
  8
0
100
AcDbLine
 62
7
  6
BYLAYER
 10
46.8612407402
 20
16.8725850012
 11
46.8612407402
 21
15.9003292506
  0
LINE
  5
2B7
100
AcDbEntity
  8
0
100
AcDbLine
 62
7
  6
BYLAYER
 10
47.0616662482
 20
16.8725850012
 11
47.0616662482
 21
15.9003292514
  0
LINE
  5
2B8
100
AcDbEntity
  8
00_COMPONENTS_1
100
AcDbLine
 62
7
  6
BYLAYER
 10
47.6395922274
 20
10.6725850012
 11
47.6395922274
 21
8.0225850012
  0
LINE
  5
2B9
100
AcDbEntity
  8
00_COMPONENTS
100
AcDbLine
 62
7
  6
BYLAYER
 10
47.6395922274
 20
0.272585
 11
47.6395922274
 21
10.6725850012
  0
LINE
  5
2BA
100
AcDbEntity
  8
00_COMPONENTS_1
100
AcDbLine
 62
7
  6
BYLAYER
 10
47.6395922274
 20
14.3511359122
 11
47.6395922274
 21
16.8725850012
  0
LINE
  5
2BB
100
AcDbEntity
  8
0
100
AcDbLine
 62
7
  6
BYLAYER
 10
47.6396024426
 20
14.3511359081
 11
47.6395987225
 21
14.2164326291
  0
LINE
  5
2BC
100
AcDbEntity
  8
0
100
AcDbLine
 62
7
  6
BYLAYER
 10
58.4140627392
 20
102.3950143557
 11
58.388860085
 21
102.3159301647
  0
LINE
  5
2BD
100
AcDbEntity
  8
0
100
AcDbLine
 62
7
  6
BYLAYER
 10
28.1395922274
 20
63.0608850132
 11
67.1395922274
 21
63.0608850132
  0
LINE
  5
2BE
100
AcDbEntity
  8
0
100
AcDbLine
 62
7
  6
BYLAYER
 10
67.1395922274
 20
64.3269850132
 11
28.1395922274
 21
64.3269850132
  0
LINE
  5
2BF
100
AcDbEntity
  8
0
100
AcDbLine
 62
7
  6
BYLAYER
 10
48.2175182067
 20
15.9003290675
 11
48.2175182067
 21
16.8725850012
  0
LINE
  5
2C0
100
AcDbEntity
  8
0
100
AcDbLine
 62
7
  6
BYLAYER
 10
48.4179437146
 20
15.9003292506
 11
48.4179437146
 21
16.8725850012
  0
LINE
  5
2C1
100
AcDbEntity
  8
0
100
AcDbLine
 62
7
  6
BYLAYER
 10
49.8677743779
 20
16.8725850012
 11
49.8677743779
 21
15.9003292506
  0
LINE
  5
2C2
100
AcDbEntity
  8
0
100
AcDbLine
 62
7
  6
BYLAYER
 10
50.0440174046
 20
16.8725850012
 11
50.0440174046
 21
15.9003292513
  0
LINE
  5
2C3
100
AcDbEntity
  8
00_COMPONENTS_1
100
AcDbLine
 62
7
  6
BYLAYER
 10
50.6395922274
 20
14.3497009786
 11
50.6395922274
 21
16.8725850012
  0
LINE
  5
2C4
100
AcDbEntity
  8
00_COMPONENTS
100
AcDbLine
 62
7
  6
BYLAYER
 10
50.7086859047
 20
50.2785850132
 11
50.7086859047
 21
51.5485850132
  0
LINE
  5
2C5
100
AcDbEntity
  8
0
100
AcDbLine
 62
7
  6
BYLAYER
 10
50.8330922274
 20
118.9653250132
 11
50.8330922274
 21
120.7687250132
  0
LINE
  5
2C6
100
AcDbEntity
  8
0
100
AcDbLine
 62
7
  6
BYLAYER
 10
50.9401592389
 20
82.3273250132
 11
50.9401592389
 21
72.3273250132
  0
LINE
  5
2C7
100
AcDbEntity
  8
0
100
AcDbLine
 62
7
  6
BYLAYER
 10
50.9415922274
 20
68.3273250132
 11
50.9415922274
 21
64.3273250132
  0
LINE
  5
2C8
100
AcDbEntity
  8
0
100
AcDbLine
 62
7
  6
BYLAYER
 10
51.1867920502
 20
15.9003290726
 11
51.1867920502
 21
16.8725850012
  0
LINE
  5
2C9
100
AcDbEntity
  8
0
100
AcDbLine
 62
7
  6
BYLAYER
 10
51.406864716
 20
15.9003292506
 11
51.406864716
 21
16.8725850012
  0
LINE
  5
2CA
100
AcDbEntity
  8
0
100
AcDbLine
 62
7
  6
BYLAYER
 10
52.0845922274
 20
72.3273250132
 11
52.0845922274
 21
68.3273250132
  0
LINE
  5
2CB
100
AcDbEntity
  8
0
100
AcDbLine
 62
7
  6
BYLAYER
 10
52.0845922274
 20
82.3273250132
 11
52.0845922274
 21
86.3273250132
  0
LINE
  5
2CC
100
AcDbEntity
  8
0
100
AcDbLine
 62
7
  6
BYLAYER
 10
26.6395922274
 20
68.3273250132
 11
68.6395922274
 21
68.3273250132
  0
LINE
  5
2CD
100
AcDbEntity
  8
0
100
AcDbLine
 62
7
  6
BYLAYER
 10
36.8003243699
 20
102.3159301647
 11
36.7751217156
 21
102.3950143557
  0
LINE
  5
2CE
100
AcDbEntity
  8
0
100
AcDbLine
 62
7
  6
BYLAYER
 10
52.7195922274
 20
86.3273250132
 11
52.7195922274
 21
94.3273250132
  0
LINE
  5
2CF
100
AcDbEntity
  8
00_COMPONENTS
100
AcDbLine
 62
7
  6
BYLAYER
 10
53.1958422274
 20
51.5485850132
 11
53.1958422274
 21
53.0725850132
  0
LINE
  5
2D0
100
AcDbEntity
  8
00_COMPONENTS_1
100
AcDbLine
 62
7
  6
BYLAYER
 10
54.7095922274
 20
-11.4274149988
 11
54.7095922274
 21
11.9418189323
  0
LINE
  5
2D1
100
AcDbEntity
  8
00_COMPONENTS
100
AcDbLine
 62
7
  6
BYLAYER
 10
54.8727965604
 20
50.2785850132
 11
54.8727965604
 21
44.8162362189
  0
LINE
  5
2D2
100
AcDbEntity
  8
0
100
AcDbLine
 62
7
  6
BYLAYER
 10
33.1395922274
 20
28.5725850012
 11
32.6395922274
 21
27.7065595974
  0
LINE
  5
2D3
100
AcDbEntity
  8
0
100
AcDbLine
 62
7
  6
BYLAYER
 10
52.0843321454
 20
72.3273250132
 11
43.1948519971
 21
72.3273250132
  0
LINE
  5
2D4
100
AcDbEntity
  8
0
100
AcDbLine
 62
7
  6
BYLAYER
 10
40.6977555264
 20
111.1704627001
 11
40.6725528722
 21
111.2495468911
  0
LINE
  5
2D5
100
AcDbEntity
  8
0
100
AcDbLine
 62
7
  6
BYLAYER
 10
57.6395922274
 20
11.9418189323
 11
57.6395922274
 21
11.7234543884
  0
LINE
  5
2D6
100
AcDbEntity
  8
0
100
AcDbLine
 62
7
  6
BYLAYER
 10
57.6395922274
 20
64.3269850132
 11
57.6395922274
 21
68.3273250132
  0
LINE
  5
2D7
100
AcDbEntity
  8
0
100
AcDbLine
 62
7
  6
BYLAYER
 10
59.8961922274
 20
64.3269850132
 11
59.8961922274
 21
68.3273250132
  0
LINE
  5
2D8
100
AcDbEntity
  8
0
100
AcDbLine
 62
7
  6
BYLAYER
 10
27.1475922274
 20
101.750400809
 11
26.7937662224
 21
102.104226814
  0
LINE
  5
2D9
100
AcDbEntity
  8
0
100
AcDbLine
 62
7
  6
BYLAYER
 10
34.8246680233
 20
94.4531457576
 11
27.0477662224
 21
102.2300475584
  0
LINE
  5
2DA
100
AcDbEntity
  8
0
100
AcDbLine
 62
7
  6
BYLAYER
 10
60.1295882242
 20
94.3273250132
 11
60.1295882242
 21
68.3273250132
  0
LINE
  5
2DB
100
AcDbEntity
  8
00_COMPONENTS
100
AcDbLine
 62
7
  6
BYLAYER
 10
60.1395922274
 20
28.5725850012
 11
60.1395922274
 21
36.9943850132
  0
LINE
  5
2DC
100
AcDbEntity
  8
0
100
AcDbLine
 62
7
  6
BYLAYER
 10
62.6255922274
 20
53.0725850132
 11
62.6255922274
 21
59.4733850132
  0
LINE
  5
2DD
100
AcDbEntity
  8
0
100
AcDbLine
 62
7
  6
BYLAYER
 10
62.6395922274
 20
27.7065595974
 11
62.6395922274
 21
19.0901974687
  0
LINE
  5
2DE
100
AcDbEntity
  8
00_COMPONENTS
100
AcDbLine
 62
7
  6
BYLAYER
 10
63.6395922314
 20
37.2483850132
 11
63.6395922314
 21
42.6865794112
  0
LINE
  5
2DF
100
AcDbEntity
  8
0
100
AcDbLine
 62
7
  6
BYLAYER
 10
34.0164449724
 20
97.9156046654
 11
35.9022987578
 21
96.02975088
  0
LINE
  5
2E0
100
AcDbEntity
  8
0
100
AcDbLine
 62
7
  6
BYLAYER
 10
36.0100618312
 20
96.1375139534
 11
34.1242080458
 21
98.0233677389
  0
LINE
  5
2E1
100
AcDbEntity
  8
0
100
AcDbLine
 62
7
  6
BYLAYER
 10
34.5732208519
 20
98.4723805449
 11
36.4590746373
 21
96.5865267595
  0
LINE
  5
2E2
100
AcDbEntity
  8
0
100
AcDbLine
 62
7
  6
BYLAYER
 10
35.103055963
 20
99.0022156561
 11
29.6610207536
 21
104.4442508654
  0
LINE
  5
2E3
100
AcDbEntity
  8
0
100
AcDbLine
 62
7
  6
BYLAYER
 10
34.7707864865
 20
99.3883666693
 11
34.950391609
 21
99.2087615468
  0
LINE
  5
2E4
100
AcDbEntity
  8
0
100
AcDbLine
 62
7
  6
BYLAYER
 10
35.4892069762
 20
98.6699461796
 11
37.0158505168
 21
97.143302639
  0
LINE
  5
2E5
100
AcDbEntity
  8
0
100
AcDbLine
 62
7
  6
BYLAYER
 10
32.8613989893
 20
101.3943708408
 11
32.2148205486
 21
102.0409492815
  0
LINE
  5
2E6
100
AcDbEntity
  8
0
100
AcDbLine
 62
7
  6
BYLAYER
 10
32.8369909432
 20
102.6631196762
 11
33.4835693839
 21
102.0165412354
  0
LINE
  5
2E7
100
AcDbEntity
  8
00_COMPONENTS
100
AcDbLine
 62
7
  6
BYLAYER
 10
65.1020922274
 20
50.2785850132
 11
65.1020922274
 21
43.9854513102
  0
LINE
  5
2E8
100
AcDbEntity
  8
0
100
AcDbLine
 62
7
  6
BYLAYER
 10
65.6395922274
 20
61.0608850132
 11
65.6395922274
 21
63.0608850132
  0
LINE
  5
2E9
100
AcDbEntity
  8
00_COMPONENTS
100
AcDbLine
 62
7
  6
BYLAYER
 10
66.0545922274
 20
51.5485850132
 11
66.0545922274
 21
50.2785850132
  0
LINE
  5
2EA
100
AcDbEntity
  8
0
100
AcDbLine
 62
7
  6
BYLAYER
 10
66.5001922274
 20
68.3273250132
 11
66.5001922274
 21
64.3269850132
  0
LINE
  5
2EB
100
AcDbEntity
  8
0
100
AcDbLine
 62
7
  6
BYLAYER
 10
67.1395922274
 20
63.0608850132
 11
67.1395922274
 21
64.3269850132
  0
LINE
  5
2EC
100
AcDbEntity
  8
0
100
AcDbLine
 62
7
  6
BYLAYER
 10
67.2815793468
 20
16.8725850012
 11
67.2815793468
 21
15.9003292506
  0
LINE
  5
2ED
100
AcDbEntity
  8
0
100
AcDbLine
 62
7
  6
BYLAYER
 10
67.2851594756
 20
15.9003292513
 11
67.2851594756
 21
16.8725850012
  0
LINE
  5
2EE
100
AcDbEntity
  8
0
100
AcDbLine
 62
7
  6
BYLAYER
 10
67.3405754406
 20
15.9003290708
 11
67.3405754406
 21
16.8725850012
  0
LINE
  5
2EF
100
AcDbEntity
  8
00_COMPONENTS_1
100
AcDbLine
 62
7
  6
BYLAYER
 10
67.4133121607
 20
14.3495453647
 11
67.4133121607
 21
16.8725850012
  0
LINE
  5
2F0
100
AcDbEntity
  8
00_COMPONENTS
100
AcDbLine
 62
7
  6
BYLAYER
 10
67.4833422274
 20
51.5485850132
 11
67.4833422274
 21
53.0725850132
  0
LINE
  5
2F1
100
AcDbEntity
  8
0
100
AcDbLine
 62
7
  6
BYLAYER
 10
67.4833422274
 20
59.4733850132
 11
67.4833422274
 21
61.0608850132
  0
LINE
  5
2F2
100
AcDbEntity
  8
0
100
AcDbLine
 62
7
  6
BYLAYER
 10
67.5150847819
 20
15.9003292506
 11
67.5150847819
 21
16.8725850012
  0
LINE
  5
2F3
100
AcDbEntity
  8
0
100
AcDbLine
 62
7
  6
BYLAYER
 10
67.6244407123
 20
16.8725850012
 11
67.6244407123
 21
15.9003292506
  0
LINE
  5
2F4
100
AcDbEntity
  8
00_COMPONENTS_1
100
AcDbLine
 62
7
  6
BYLAYER
 10
67.6395922274
 20
14.3497009783
 11
67.6395922274
 21
16.8725850012
  0
LINE
  5
2F5
100
AcDbEntity
  8
0
100
AcDbLine
 62
7
  6
BYLAYER
 10
67.7875922274
 20
94.3273250132
 11
67.7875922274
 21
101.8762215534
  0
LINE
  5
2F6
100
AcDbEntity
  8
0
100
AcDbLine
 62
7
  6
BYLAYER
 10
67.7875922274
 20
103.9808735634
 11
67.7875922274
 21
118.9653250132
  0
LINE
  5
2F7
100
AcDbEntity
  8
0
100
AcDbLine
 62
7
  6
BYLAYER
 10
43.1948523095
 20
82.3273250132
 11
52.0843324578
 21
82.3273250132
  0
LINE
  5
2F8
100
AcDbEntity
  8
0
100
AcDbLine
 62
7
  6
BYLAYER
 10
39.4944012062
 20
99.6218533284
 11
37.9677576656
 21
101.148496869
  0
LINE
  5
2F9
100
AcDbEntity
  8
0
100
AcDbLine
 62
7
  6
BYLAYER
 10
37.4289422984
 20
101.6873122363
 11
37.249337176
 21
101.8669173587
  0
LINE
  5
2FA
100
AcDbEntity
  8
0
100
AcDbLine
 62
7
  6
BYLAYER
 10
37.6354881892
 20
101.5346478822
 11
32.1934529798
 21
106.9766830916
  0
LINE
  5
2FB
100
AcDbEntity
  8
0
100
AcDbLine
 62
7
  6
BYLAYER
 10
40.0511770857
 20
100.1786292079
 11
38.1653233003
 21
102.0644829933
  0
LINE
  5
2FC
100
AcDbEntity
  8
0
100
AcDbLine
 62
7
  6
BYLAYER
 10
38.6143361064
 20
102.5134957994
 11
40.5001898918
 21
100.627642014
  0
LINE
  5
2FD
100
AcDbEntity
  8
0
100
AcDbLine
 62
7
  6
BYLAYER
 10
40.6079529652
 20
100.7354050874
 11
38.7220991798
 21
102.6212588728
  0
LINE
  5
2FE
100
AcDbEntity
  8
0
100
AcDbLine
 62
7
  6
BYLAYER
 10
68.1414182324
 20
103.6270475584
 11
68.1414182324
 21
102.2300475584
  0
LINE
  5
2FF
100
AcDbEntity
  8
0
100
AcDbLine
 62
7
  6
BYLAYER
 10
68.6395922274
 20
94.3273250132
 11
68.6395922274
 21
68.3273250132
  0
LINE
  5
300
100
AcDbEntity
  8
0
100
AcDbLine
 62
7
  6
BYLAYER
 10
42.5595922274
 20
86.3273250132
 11
43.2165626051
 21
86.3273250132
  0
LINE
  5
301
100
AcDbEntity
  8
0
100
AcDbLine
 62
7
  6
BYLAYER
 10
52.0626218498
 20
86.3273250132
 11
52.7195922274
 21
86.3273250132
  0
LINE
  5
302
100
AcDbEntity
  8
0
100
AcDbLine
 62
7
  6
BYLAYER
 10
35.8371899555
 20
108.4157710804
 11
31.3582891605
 21
112.8946718754
  0
LINE
  5
303
100
AcDbEntity
  8
0
100
AcDbLine
 62
7
  6
BYLAYER
 10
37.9138761289
 20
106.7701372008
 11
39.7997299143
 21
104.8842834154
  0
LINE
  5
304
100
AcDbEntity
  8
0
100
AcDbLine
 62
7
  6
BYLAYER
 10
39.9074929878
 20
104.9920464888
 11
38.0216392024
 21
106.8779002742
  0
LINE
  5
305
100
AcDbEntity
  8
0
100
AcDbLine
 62
7
  6
BYLAYER
 10
38.4706520084
 20
107.3269130803
 11
40.3565057938
 21
105.4410592949
  0
LINE
  5
306
100
AcDbEntity
  8
0
100
AcDbLine
 62
7
  6
BYLAYER
 10
39.0004871196
 20
107.8567481914
 11
33.5584519102
 21
113.2987834008
  0
LINE
  5
307
100
AcDbEntity
  8
0
100
AcDbLine
 62
7
  6
BYLAYER
 10
38.6682176431
 20
108.2428992046
 11
38.8478227655
 21
108.0632940822
  0
LINE
  5
308
100
AcDbEntity
  8
0
100
AcDbLine
 62
7
  6
BYLAYER
 10
39.3866381328
 20
107.524478715
 11
40.9132816734
 21
105.9978351744
  0
LINE
  5
309
100
AcDbEntity
  8
0
100
AcDbLine
 62
7
  6
BYLAYER
 10
36.7588301458
 20
110.2489033762
 11
36.1122517051
 21
110.8954818169
  0
LINE
  5
30A
100
AcDbEntity
  8
00_COMPONENTS
100
AcDbLine
 62
7
  6
BYLAYER
 10
64.0332922314
 20
43.3684878142
 11
65.1020922274
 21
43.9855597796
  0
LINE
  5
30B
100
AcDbEntity
  8
0
100
AcDbLine
 62
7
  6
BYLAYER
 10
42.5595922274
 20
92.8273250132
 11
52.7195922274
 21
92.8273250132
  0
LINE
  5
30C
100
AcDbEntity
  8
0
100
AcDbLine
 62
7
  6
BYLAYER
 10
36.7344220998
 20
111.5176522115
 11
37.3810005405
 21
110.8710737708
  0
LINE
  5
30D
100
AcDbEntity
  8
0
100
AcDbLine
 62
7
  6
BYLAYER
 10
43.3918323628
 20
108.4763858638
 11
41.8651888222
 21
110.0030294044
  0
LINE
  5
30E
100
AcDbEntity
  8
0
100
AcDbLine
 62
7
  6
BYLAYER
 10
41.3263734549
 20
110.5418447716
 11
41.1467683325
 21
110.7214498941
  0
LINE
  5
30F
100
AcDbEntity
  8
0
100
AcDbLine
 62
7
  6
BYLAYER
 10
41.5329193457
 20
110.3891804176
 11
36.0908841363
 21
115.8312156269
  0
LINE
  5
310
100
AcDbEntity
  8
0
100
AcDbLine
 62
7
  6
BYLAYER
 10
43.9486082423
 20
109.0331617433
 11
42.0627544568
 21
110.9190155287
  0
LINE
  5
311
100
AcDbEntity
  8
00_COMPONENTS
100
AcDbLine
 62
7
  6
BYLAYER
 10
63.3855922314
 20
36.9943850132
 11
63.6395922314
 21
37.2483850132
  0
LINE
  5
312
100
AcDbEntity
  8
0
100
AcDbLine
 62
7
  6
BYLAYER
 10
26.6395922274
 20
94.3273250132
 11
68.6395922274
 21
94.3273250132
  0
LINE
  5
313
100
AcDbEntity
  8
0
100
AcDbLine
 62
7
  6
BYLAYER
 10
60.3645164316
 20
94.4531457576
 11
34.8246680233
 21
94.4531457576
  0
LINE
  5
314
100
AcDbEntity
  8
0
100
AcDbLine
 62
7
  6
BYLAYER
 10
34.2426894895
 20
99.8625821296
 11
34.3217736805
 21
99.8373794753
  0
LINE
  5
315
100
AcDbEntity
  8
0
100
AcDbLine
 62
7
  6
BYLAYER
 10
42.5117672629
 20
111.3680283348
 11
44.3976210483
 21
109.4821745493
  0
LINE
  5
316
100
AcDbEntity
  8
0
100
AcDbLine
 62
7
  6
BYLAYER
 10
44.5053841218
 20
109.5899376228
 11
42.6195303364
 21
111.4757914082
  0
LINE
  5
317
100
AcDbEntity
  8
0
100
AcDbLine
 62
7
  6
BYLAYER
 10
54.5812314896
 20
100.7354050874
 11
59.2868856971
 21
96.02975088
  0
LINE
  5
318
100
AcDbEntity
  8
0
100
AcDbLine
 62
7
  6
BYLAYER
 10
60.2567533581
 20
98.1131703001
 11
56.6646509097
 21
101.7052727485
  0
LINE
  5
319
100
AcDbEntity
  8
0
100
AcDbLine
 62
7
  6
BYLAYER
 10
61.1727394825
 20
97.9156046654
 11
60.0861284918
 21
99.0022156561
  0
LINE
  5
31A
100
AcDbEntity
  8
0
100
AcDbLine
 62
7
  6
BYLAYER
 10
57.5536962657
 20
101.5346478822
 11
56.467085275
 21
102.6212588728
  0
LINE
  5
31B
100
AcDbEntity
  8
0
100
AcDbLine
 62
7
  6
BYLAYER
 10
57.7333013881
 20
101.7142530046
 11
60.2657336143
 21
99.1818207785
  0
LINE
  5
31C
100
AcDbEntity
  8
0
100
AcDbLine
 62
7
  6
BYLAYER
 10
60.4453387367
 20
99.3614259009
 11
57.9129065105
 21
101.893858127
  0
LINE
  5
31D
100
AcDbEntity
  8
0
100
AcDbLine
 62
7
  6
BYLAYER
 10
50.6838003331
 20
109.5899376228
 11
55.3894545405
 21
104.8842834154
  0
LINE
  5
31E
100
AcDbEntity
  8
0
100
AcDbLine
 62
7
  6
BYLAYER
 10
58.3619193166
 20
102.3428709331
 11
60.8943515427
 21
99.810438707
  0
LINE
  5
31F
100
AcDbEntity
  8
0
100
AcDbLine
 62
7
  6
BYLAYER
 10
59.4395500511
 20
103.4205016676
 11
61.9719822773
 21
100.8880694415
  0
LINE
  5
320
100
AcDbEntity
  8
0
100
AcDbLine
 62
7
  6
BYLAYER
 10
56.3593222016
 20
106.9677028354
 11
52.7672197532
 21
110.5598052839
  0
LINE
  5
321
100
AcDbEntity
  8
0
100
AcDbLine
 62
7
  6
BYLAYER
 10
60.5680218451
 20
103.1541344613
 11
59.9458514504
 21
103.7763048559
  0
LINE
  5
322
100
AcDbEntity
  8
0
100
AcDbLine
 62
7
  6
BYLAYER
 10
57.2753083259
 20
106.7701372008
 11
56.1886973353
 21
107.8567481914
  0
LINE
  5
323
100
AcDbEntity
  8
0
100
AcDbLine
 62
7
  6
BYLAYER
 10
53.6562651091
 20
110.3891804176
 11
52.5696541185
 21
111.4757914082
  0
LWPOLYLINE
  5
324
100
AcDbEntity
  8
0
100
AcDbPolyline
 62
7
  6
BYLAYER
 90
3
 70
0
 10
66.8067704548
 20
14.3160339968
 10
66.810127649
 20
14.3232249683
 10
66.8473898244
 20
14.3934328863
  0
LINE
  5
325
100
AcDbEntity
  8
0
100
AcDbLine
 62
7
  6
BYLAYER
 10
38.140120646
 20
108.717114665
 11
38.219204837
 21
108.6919120107
  0
LINE
  5
326
100
AcDbEntity
  8
0
100
AcDbLine
 62
7
  6
BYLAYER
 10
53.8358702316
 20
110.56878554
 11
56.3683024577
 21
108.0363533139
  0
LINE
  5
327
100
AcDbEntity
  8
0
100
AcDbLine
 62
7
  6
BYLAYER
 10
56.5479075801
 20
108.2159584363
 11
54.015475354
 21
110.7483906624
  0
LINE
  5
328
100
AcDbEntity
  8
0
100
AcDbLine
 62
7
  6
BYLAYER
 10
63.0496130118
 20
101.965700176
 11
60.5171807856
 21
104.4981324022
  0
LINE
  5
329
100
AcDbEntity
  8
0
100
AcDbLine
 62
7
  6
BYLAYER
 10
54.46448816
 20
111.1974034685
 11
56.9969203862
 21
108.6649712423
  0
LINE
  5
32A
100
AcDbEntity
  8
0
100
AcDbLine
 62
7
  6
BYLAYER
 10
66.8395681268
 20
100.9281974528
 11
64.4258392077
 21
103.3419263719
  0
LINE
  5
32B
100
AcDbEntity
  8
0
100
AcDbLine
 62
7
  6
BYLAYER
 10
61.8934069816
 20
105.8743585981
 11
59.3519944993
 21
108.4157710803
  0
LINE
  5
32C
100
AcDbEntity
  8
0
100
AcDbLine
 62
7
  6
BYLAYER
 10
55.5421188946
 20
112.275034203
 11
58.0745511207
 21
109.7426019769
  0
LINE
  5
32D
100
AcDbEntity
  8
0
100
AcDbLine
 62
7
  6
BYLAYER
 10
56.6705906885
 20
112.0086669966
 11
56.0484202939
 21
112.6308373913
  0
LWPOLYLINE
  5
32E
100
AcDbEntity
  8
0
100
AcDbPolyline
 62
7
  6
BYLAYER
 90
9
 70
0
 10
66.8473898244
 20
14.3934328863
 10
66.9092593728
 20
14.5059603196
 10
66.9842342078
 20
14.6513631492
 10
67.0239837636
 20
14.735410028
 10
67.1035096664
 20
14.9260651951
 10
67.177612421
 20
15.1483973951
 10
67.2388826718
 20
15.4057501096
 10
67.2778440663
 20
15.7033877519
 10
67.2851575098
 20
15.900329258
  0
LINE
  5
32F
100
AcDbEntity
  8
0
100
AcDbLine
 62
7
  6
BYLAYER
 10
65.5281637012
 20
104.4442508654
 11
62.9957314751
 21
106.9766830916
  0
LINE
  5
330
100
AcDbEntity
  8
0
100
AcDbLine
 62
7
  6
BYLAYER
 10
59.1521818552
 20
110.8202327114
 11
56.6197496291
 21
113.3526649375
  0
LINE
  5
331
100
AcDbEntity
  8
0
100
AcDbLine
 62
7
  6
BYLAYER
 10
61.3523446049
 20
110.4161211859
 11
68.1414182324
 21
103.6270475584
  0
LINE
  5
332
100
AcDbEntity
  8
0
100
AcDbLine
 62
7
  6
BYLAYER
 10
61.8305451887
 20
110.8943217698
 11
60.5284080512
 21
112.1964589073
  0
LINE
  5
333
100
AcDbEntity
  8
0
100
AcDbLine
 62
7
  6
BYLAYER
 10
57.995975825
 20
114.7288911335
 11
53.7595419453
 21
118.9653250132
  0
LINE
  5
334
100
AcDbEntity
  8
0
100
AcDbLine
 62
7
  6
BYLAYER
 10
61.6307325447
 20
113.2987834008
 11
59.0983003185
 21
115.8312156269
  0
LINE
  5
335
100
AcDbEntity
  8
0
100
AcDbLine
 62
7
  6
BYLAYER
 10
57.7602421565
 20
118.9653250132
 11
63.8308952943
 21
112.8946718753
  0
LINE
  5
336
100
AcDbEntity
  8
0
100
AcDbLine
 62
7
  6
BYLAYER
 10
66.9874719101
 20
14.2164827109
 11
66.9885951812
 21
14.217764854
  0
LINE
  5
337
100
AcDbEntity
  8
0
100
AcDbLine
 62
7
  6
BYLAYER
 10
27.1475922274
 20
118.8395042688
 11
27.4015922274
 21
118.8395042688
  0
LINE
  5
338
100
AcDbEntity
  8
0
100
AcDbLine
 62
7
  6
BYLAYER
 10
27.4015922274
 20
118.9653250132
 11
67.7875922274
 21
118.9653250132
  0
LINE
  5
339
100
AcDbEntity
  8
0
100
AcDbLine
 62
7
  6
BYLAYER
 10
44.3560922274
 20
120.6429042688
 11
44.1020922274
 21
120.6429042688
  0
LINE
  5
33A
100
AcDbEntity
  8
0
100
AcDbLine
 62
7
  6
BYLAYER
 10
50.8330922274
 20
120.7687250132
 11
44.3560922274
 21
120.7687250132
  0
ARC
  5
33B
100
AcDbEntity
  8
0
100
AcDbCircle
 62
7
  6
BYLAYER
 10
47.6395922274
 20
70.6725850012
 40
60.0
100
AcDbArc
 50
281.8307236671
 51
287.7189318732
  0
ARC
  5
33C
100
AcDbEntity
  8
0
100
AcDbCircle
 62
7
  6
BYLAYER
 10
47.6395922274
 20
70.6725850012
 40
60.0
100
AcDbArc
 50
252.2810681511
 51
258.1692763853
  0
ARC
  5
33D
100
AcDbEntity
  8
0
100
AcDbCircle
 62
7
  6
BYLAYER
 10
47.6395922274
 20
70.6725850012
 40
60.0
100
AcDbArc
 50
260.608481821
 51
279.3915182707
  0
ARC
  5
33E
100
AcDbEntity
  8
00_COMPONENTS_1
100
AcDbCircle
 62
7
  6
BYLAYER
 10
47.6395922274
 20
70.6725850012
 40
59.7
100
AcDbArc
 50
281.8307711484
 51
287.7191045963
  0
ARC
  5
33F
100
AcDbEntity
  8
00_COMPONENTS_1
100
AcDbCircle
 62
7
  6
BYLAYER
 10
47.6395922274
 20
70.6725850012
 40
59.7
100
AcDbArc
 50
252.2809577739
 51
258.1692573487
  0
ARC
  5
340
100
AcDbEntity
  8
00_COMPONENTS_1
100
AcDbCircle
 62
7
  6
BYLAYER
 10
47.6395922274
 20
70.6725850012
 40
59.7
100
AcDbArc
 50
260.6085724761
 51
279.3913071301
  0
ARC
  5
341
100
AcDbEntity
  8
00_COMPONENTS_1
100
AcDbCircle
 62
7
  6
BYLAYER
 10
48.7031791736
 20
69.7685950911
 40
58.1914304047
100
AcDbArc
 50
278.6610844853
 51
278.9452740493
  0
ARC
  5
342
100
AcDbEntity
  8
00_COMPONENTS_1
100
AcDbCircle
 62
7
  6
BYLAYER
 10
49.0186135849
 20
69.7690040078
 40
57.7792469218
100
AcDbArc
 50
275.0461736475
 51
279.0082876427
  0
ARC
  5
343
100
AcDbEntity
  8
0
100
AcDbCircle
 62
7
  6
BYLAYER
 10
30.230872462
 20
15.9173122461
 40
2.5793802444
100
AcDbArc
 50
217.854235174
 51
219.8039063175
  0
ARC
  5
344
100
AcDbEntity
  8
0
100
AcDbCircle
 62
7
  6
BYLAYER
 10
65.0530054539
 20
15.913541115
 40
2.5733601939
100
AcDbArc
 50
319.733010781
 51
322.146193805
  0
ARC
  5
345
100
AcDbEntity
  8
0
100
AcDbCircle
 62
7
  6
BYLAYER
 10
30.2213026004
 20
15.9095934265
 40
2.5670874291
100
AcDbArc
 50
217.8336207413
 51
221.2271520185
  0
ARC
  5
346
100
AcDbEntity
  8
0
100
AcDbCircle
 62
7
  6
BYLAYER
 10
65.0599436021
 20
15.9077948036
 40
2.5643516468
100
AcDbArc
 50
318.7725551661
 51
319.7328542503
  0
ARC
  5
347
100
AcDbEntity
  8
0
100
AcDbCircle
 62
7
  6
BYLAYER
 10
30.2192408526
 20
15.9077948036
 40
2.5643516467
100
AcDbArc
 50
220.2671457497
 51
221.227444834
  0
ARC
  5
348
100
AcDbEntity
  8
0
100
AcDbCircle
 62
7
  6
BYLAYER
 10
30.2154676706
 20
15.9046293069
 40
2.5594265353
100
AcDbArc
 50
219.806548414
 51
220.2676697506
  0
ARC
  5
349
100
AcDbEntity
  8
0
100
AcDbCircle
 62
7
  6
BYLAYER
 10
65.0858436166
 20
15.885482582
 40
2.5301671756
100
AcDbArc
 50
318.766184551
 51
319.7385732837
  0
ARC
  5
34A
100
AcDbEntity
  8
0
100
AcDbCircle
 62
7
  6
BYLAYER
 10
30.1395922274
 20
15.9003292506
 40
2.5
100
AcDbArc
 50
222.3414263818
 51
252.2810681265
  0
ARC
  5
34B
100
AcDbEntity
  8
0
100
AcDbCircle
 62
7
  6
BYLAYER
 10
65.1395922274
 20
15.9003292506
 40
2.5
100
AcDbArc
 50
287.7189318735
 51
317.6585736182
  0
ARC
  5
34C
100
AcDbEntity
  8
00_COMPONENTS_1
100
AcDbCircle
 62
7
  6
BYLAYER
 10
56.4294616087
 20
13.1367829134
 40
1.5551119085
100
AcDbArc
 50
241.2952715901
 51
242.913326194
  0
ARC
  5
34D
100
AcDbEntity
  8
0
100
AcDbCircle
 62
7
  6
BYLAYER
 10
29.7395922274
 20
16.8725850012
 40
1.5
100
AcDbArc
 50
95.0
 51
180.0
  0
ARC
  5
34E
100
AcDbEntity
  8
0
100
AcDbCircle
 62
7
  6
BYLAYER
 10
65.5395922274
 20
16.8725850012
 40
1.5
100
AcDbArc
 50
0.0
 51
85.0
  0
ARC
  5
34F
100
AcDbEntity
  8
00_COMPONENTS
100
AcDbCircle
 62
7
  6
BYLAYER
 10
64.4269922314
 20
42.6865794112
 40
0.7874
100
AcDbArc
 50
120.0
 51
180.0
  0
ARC
  5
350
100
AcDbEntity
  8
00_COMPONENTS
100
AcDbCircle
 62
7
  6
BYLAYER
 10
30.8521922234
 20
42.6865794112
 40
0.7874
100
AcDbArc
 50
0.0
 51
60.0
  0
ARC
  5
351
100
AcDbEntity
  8
0
100
AcDbCircle
 62
7
  6
BYLAYER
 10
32.1395922274
 20
19.0901974687
 40
0.5
100
AcDbArc
 50
275.0
 51
360.0
  0
ARC
  5
352
100
AcDbEntity
  8
0
100
AcDbCircle
 62
7
  6
BYLAYER
 10
63.1395922274
 20
19.0901974687
 40
0.5
100
AcDbArc
 50
180.0
 51
265.0
  0
ARC
  5
353
100
AcDbEntity
  8
0
100
AcDbCircle
 62
7
  6
BYLAYER
 10
57.3895922274
 20
11.7234543884
 40
0.25
100
AcDbArc
 50
279.3915183979
 51
360.0
  0
ARC
  5
354
100
AcDbEntity
  8
0
100
AcDbCircle
 62
7
  6
BYLAYER
 10
37.8895922274
 20
11.7234543884
 40
0.25
100
AcDbArc
 50
180.0
 51
260.6084816021
  0
SPLINE
  5
355
100
AcDbEntity
  8
0
100
AcDbSpline
 62
7
  6
BYLAYER
 70
0
 71
3
 72
15
 73
11
 74
0
 42
0.0000001
 43
0.0000001
 44
0.0000000001
 40
0.0
 40
0.0
 40
0.0
 40
0.0
 40
0.1806320625
 40
0.3464946727
 40
0.4957801866
 40
0.6275965908
 40
0.7418144707
 40
0.8395036947
 40
0.9237203449
 40
1.0
 40
1.0
 40
1.0
 40
1.0
 10
61.121596993
 20
112.7896478491
 30
0.0
 10
61.2127892361
 20
112.7325080732
 30
0.0
 10
61.3908085721
 20
112.6276985699
 30
0.0
 10
61.6549306721
 20
112.4949190792
 30
0.0
 10
61.9019918518
 20
112.3946313457
 30
0.0
 10
62.1284851117
 20
112.3282494288
 30
0.0
 10
62.3315692742
 20
112.296588075
 30
0.0
 10
62.5092129913
 20
112.3005968546
 30
0.0
 10
62.6594861049
 20
112.3418069181
 30
0.0
 10
62.7404558918
 20
112.3969293768
 30
0.0
 10
62.77259039
 20
112.429063875
 30
0.0
  0
SPLINE
  5
356
100
AcDbEntity
  8
0
100
AcDbSpline
 62
7
  6
BYLAYER
 70
0
 71
3
 72
15
 73
11
 74
0
 42
0.0000001
 43
0.0000001
 44
0.0000000001
 40
0.0
 40
0.0
 40
0.0
 40
0.0
 40
0.0762796551
 40
0.1604963053
 40
0.2581855293
 40
0.3724034092
 40
0.5042198134
 40
0.6535053273
 40
0.8193679375
 40
1.0
 40
1.0
 40
1.0
 40
1.0
 10
58.2285807927
 20
116.9730734722
 30
0.0
 10
58.1964462945
 20
116.940938974
 30
0.0
 10
58.1413238358
 20
116.8599691872
 30
0.0
 10
58.1001137724
 20
116.7096960736
 30
0.0
 10
58.0961049927
 20
116.5320523565
 30
0.0
 10
58.1277663466
 20
116.328968194
 30
0.0
 10
58.1941482634
 20
116.1024749341
 30
0.0
 10
58.2944359969
 20
115.8554137544
 30
0.0
 10
58.4272154876
 20
115.5912916544
 30
0.0
 10
58.532024991
 20
115.4132723184
 30
0.0
 10
58.5891647669
 20
115.3220800753
 30
0.0
  0
SPLINE
  5
357
100
AcDbEntity
  8
0
100
AcDbSpline
 62
7
  6
BYLAYER
 70
0
 71
3
 72
15
 73
11
 74
0
 42
0.0000001
 43
0.0000001
 44
0.0000000001
 40
0.0
 40
0.0
 40
0.0
 40
0.0
 40
0.0762796551
 40
0.1604963053
 40
0.2581855293
 40
0.3724034092
 40
0.5042198134
 40
0.6535053273
 40
0.8193679375
 40
1.0
 40
1.0
 40
1.0
 40
1.0
 10
62.1260119492
 20
108.1185409369
 30
0.0
 10
62.093877451
 20
108.0864064387
 30
0.0
 10
62.0387549924
 20
108.0054366518
 30
0.0
 10
61.9975449289
 20
107.8551635382
 30
0.0
 10
61.9935361492
 20
107.6775198211
 30
0.0
 10
62.0251975031
 20
107.4744356586
 30
0.0
 10
62.09157942
 20
107.2479423987
 30
0.0
 10
62.1918671534
 20
107.000881219
 30
0.0
 10
62.3246466442
 20
106.736759119
 30
0.0
 10
62.4294561475
 20
106.558739783
 30
0.0
 10
62.4865959234
 20
106.4675475399
 30
0.0
  0
SPLINE
  5
358
100
AcDbEntity
  8
0
100
AcDbSpline
 62
7
  6
BYLAYER
 70
0
 71
3
 72
15
 73
11
 74
0
 42
0.0000001
 43
0.0000001
 44
0.0000000001
 40
0.0
 40
0.0
 40
0.0
 40
0.0
 40
0.1806320625
 40
0.3464946727
 40
0.4957801866
 40
0.6275965908
 40
0.7418144707
 40
0.8395036947
 40
0.9237203449
 40
1.0
 40
1.0
 40
1.0
 40
1.0
 10
36.600019688
 20
115.3220800753
 30
0.0
 10
36.6571594639
 20
115.4132723184
 30
0.0
 10
36.7619689672
 20
115.5912916544
 30
0.0
 10
36.894748458
 20
115.8554137544
 30
0.0
 10
36.9950361914
 20
116.1024749341
 30
0.0
 10
37.0614181083
 20
116.328968194
 30
0.0
 10
37.0930794622
 20
116.5320523565
 30
0.0
 10
37.0890706825
 20
116.7096960736
 30
0.0
 10
37.047860619
 20
116.8599691872
 30
0.0
 10
36.9927381604
 20
116.940938974
 30
0.0
 10
36.9606036622
 20
116.9730734722
 30
0.0
  0
SPLINE
  5
359
100
AcDbEntity
  8
0
100
AcDbSpline
 62
7
  6
BYLAYER
 70
0
 71
3
 72
15
 73
11
 74
0
 42
0.0000001
 43
0.0000001
 44
0.0000000001
 40
0.0
 40
0.0
 40
0.0
 40
0.0
 40
0.1806320625
 40
0.3464946727
 40
0.4957801866
 40
0.6275965908
 40
0.7418144707
 40
0.8395036947
 40
0.9237203449
 40
1.0
 40
1.0
 40
1.0
 40
1.0
 10
65.0190281496
 20
103.9351153138
 30
0.0
 10
65.1102203926
 20
103.8779755379
 30
0.0
 10
65.2882397286
 20
103.7731660346
 30
0.0
 10
65.5523618287
 20
103.6403865438
 30
0.0
 10
65.7994230084
 20
103.5400988103
 30
0.0
 10
66.0259162682
 20
103.4737168935
 30
0.0
 10
66.2290004307
 20
103.4420555396
 30
0.0
 10
66.4066441479
 20
103.4460643193
 30
0.0
 10
66.5569172615
 20
103.4872743827
 30
0.0
 10
66.6378870483
 20
103.5423968414
 30
0.0
 10
66.6700215465
 20
103.5745313396
 30
0.0
  0
SPLINE
  5
35A
100
AcDbEntity
  8
0
100
AcDbSpline
 62
7
  6
BYLAYER
 70
0
 71
3
 72
15
 73
11
 74
0
 42
0.0000001
 43
0.0000001
 44
0.0000000001
 40
0.0
 40
0.0
 40
0.0
 40
0.0
 40
0.0762796551
 40
0.1604963053
 40
0.2581855293
 40
0.3724034092
 40
0.5042198134
 40
0.6535053273
 40
0.8193679375
 40
1.0
 40
1.0
 40
1.0
 40
1.0
 10
28.5191629084
 20
103.5745313396
 30
0.0
 10
28.5512974066
 20
103.5423968414
 30
0.0
 10
28.6322671934
 20
103.4872743827
 30
0.0
 10
28.782540307
 20
103.4460643193
 30
0.0
 10
28.9601840241
 20
103.4420555396
 30
0.0
 10
29.1632681866
 20
103.4737168935
 30
0.0
 10
29.3897614465
 20
103.5400988103
 30
0.0
 10
29.6368226262
 20
103.6403865438
 30
0.0
 10
29.9009447262
 20
103.7731660346
 30
0.0
 10
30.0789640622
 20
103.8779755379
 30
0.0
 10
30.1701563053
 20
103.9351153138
 30
0.0
  0
SPLINE
  5
35B
100
AcDbEntity
  8
0
100
AcDbSpline
 62
7
  6
BYLAYER
 70
0
 71
3
 72
15
 73
11
 74
0
 42
0.0000001
 43
0.0000001
 44
0.0000000001
 40
0.0
 40
0.0
 40
0.0
 40
0.0
 40
0.1806320625
 40
0.3464946727
 40
0.4957801866
 40
0.6275965908
 40
0.7418144707
 40
0.8395036947
 40
0.9237203449
 40
1.0
 40
1.0
 40
1.0
 40
1.0
 10
32.7025885314
 20
106.4675475399
 30
0.0
 10
32.7597283073
 20
106.558739783
 30
0.0
 10
32.8645378107
 20
106.736759119
 30
0.0
 10
32.9973173014
 20
107.000881219
 30
0.0
 10
33.0976050349
 20
107.2479423987
 30
0.0
 10
33.1639869517
 20
107.4744356586
 30
0.0
 10
33.1956483056
 20
107.6775198211
 30
0.0
 10
33.1916395259
 20
107.8551635382
 30
0.0
 10
33.1504294625
 20
108.0054366518
 30
0.0
 10
33.0953070038
 20
108.0864064387
 30
0.0
 10
33.0631725056
 20
108.1185409369
 30
0.0
  0
SPLINE
  5
35C
100
AcDbEntity
  8
0
100
AcDbSpline
 62
7
  6
BYLAYER
 70
0
 71
3
 72
15
 73
11
 74
0
 42
0.0000001
 43
0.0000001
 44
0.0000000001
 40
0.0
 40
0.0
 40
0.0
 40
0.0
 40
0.0762796551
 40
0.1604963053
 40
0.2581855293
 40
0.3724034092
 40
0.5042198134
 40
0.6535053273
 40
0.8193679375
 40
1.0
 40
1.0
 40
1.0
 40
1.0
 10
32.4165940649
 20
112.429063875
 30
0.0
 10
32.4487285631
 20
112.3969293768
 30
0.0
 10
32.5296983499
 20
112.3418069181
 30
0.0
 10
32.6799714635
 20
112.3005968547
 30
0.0
 10
32.8576151807
 20
112.296588075
 30
0.0
 10
33.0606993432
 20
112.3282494288
 30
0.0
 10
33.287192603
 20
112.3946313457
 30
0.0
 10
33.5342537827
 20
112.4949190792
 30
0.0
 10
33.7983758828
 20
112.6276985699
 30
0.0
 10
33.9763952188
 20
112.7325080732
 30
0.0
 10
34.0675874618
 20
112.7896478491
 30
0.0
  0
SPLINE
  5
35D
100
AcDbEntity
  8
0
100
AcDbSpline
 62
7
  6
BYLAYER
 70
0
 71
3
 72
18
 73
14
 74
0
 42
0.0000001
 43
0.0000001
 44
0.0000000001
 40
0.0
 40
0.0
 40
0.0
 40
0.0
 40
0.1795168994
 40
0.3489938731
 40
0.5042411201
 40
0.64186259
 40
0.7594150747
 40
0.8103820775
 40
0.8562134772
 40
0.8972569928
 40
0.9341645394
 40
0.9679497607
 40
1.0
 40
1.0
 40
1.0
 40
1.0
 10
29.583272745
 20
106.1625540809
 30
0.0
 10
29.4668510007
 20
106.0290199094
 30
0.0
 10
29.2481263009
 20
105.7626342915
 30
0.0
 10
28.9579213449
 20
105.3579395321
 30
0.0
 10
28.7203633093
 20
104.9677372417
 30
0.0
 10
28.5421131204
 20
104.6033680962
 30
0.0
 10
28.4422345962
 20
104.3169045716
 30
0.0
 10
28.4000425297
 20
104.1092940643
 30
0.0
 10
28.387423088
 20
103.9735228607
 30
0.0
 10
28.3924461701
 20
103.851023025
 30
0.0
 10
28.4154170932
 20
103.7425081291
 30
0.0
 10
28.4566542095
 20
103.6489933862
 30
0.0
 10
28.4967976069
 20
103.5968966411
 30
0.0
 10
28.5191629084
 20
103.5745313396
 30
0.0
  0
SPLINE
  5
35E
100
AcDbEntity
  8
0
100
AcDbSpline
 62
7
  6
BYLAYER
 70
0
 71
3
 72
18
 73
14
 74
0
 42
0.0000001
 43
0.0000001
 44
0.0000000001
 40
0.0
 40
0.0
 40
0.0
 40
0.0
 40
0.0320502393
 40
0.0658354606
 40
0.1027430072
 40
0.1437865228
 40
0.1896179225
 40
0.2405849253
 40
0.35813741
 40
0.4957588799
 40
0.6510061269
 40
0.8204831006
 40
1.0
 40
1.0
 40
1.0
 40
1.0
 10
36.9606036622
 20
116.9730734722
 30
0.0
 10
36.9382383607
 20
116.9954387737
 30
0.0
 10
36.8861416155
 20
117.0355821711
 30
0.0
 10
36.7926268726
 20
117.0768192874
 30
0.0
 10
36.6841119767
 20
117.0997902105
 30
0.0
 10
36.5616121411
 20
117.1048132926
 30
0.0
 10
36.4258409374
 20
117.0921938509
 30
0.0
 10
36.2182304302
 20
117.0500017844
 30
0.0
 10
35.9317669056
 20
116.9501232602
 30
0.0
 10
35.5673977601
 20
116.7718730713
 30
0.0
 10
35.1771954697
 20
116.5343150357
 30
0.0
 10
34.7725007102
 20
116.2441100797
 30
0.0
 10
34.5061150923
 20
116.0253853798
 30
0.0
 10
34.3725809208
 20
115.9089636356
 30
0.0
  0
SPLINE
  5
35F
100
AcDbEntity
  8
0
100
AcDbSpline
 62
7
  6
BYLAYER
 70
0
 71
3
 72
18
 73
14
 74
0
 42
0.0000001
 43
0.0000001
 44
0.0000000001
 40
0.0
 40
0.0
 40
0.0
 40
0.0
 40
0.1795168994
 40
0.3489938731
 40
0.5042411201
 40
0.64186259
 40
0.7594150747
 40
0.8103820775
 40
0.8562134772
 40
0.8972569928
 40
0.9341645394
 40
0.9679497607
 40
1.0
 40
1.0
 40
1.0
 40
1.0
 10
60.816603534
 20
115.9089636356
 30
0.0
 10
60.6830693625
 20
116.0253853798
 30
0.0
 10
60.4166837446
 20
116.2441100797
 30
0.0
 10
60.0119889852
 20
116.5343150357
 30
0.0
 10
59.6217866947
 20
116.7718730713
 30
0.0
 10
59.2574175492
 20
116.9501232602
 30
0.0
 10
58.9709540247
 20
117.0500017844
 30
0.0
 10
58.7633435174
 20
117.0921938509
 30
0.0
 10
58.6275723138
 20
117.1048132926
 30
0.0
 10
58.5050724781
 20
117.0997902105
 30
0.0
 10
58.3965575822
 20
117.0768192874
 30
0.0
 10
58.3030428393
 20
117.0355821711
 30
0.0
 10
58.2509460942
 20
116.9954387737
 30
0.0
 10
58.2285807927
 20
116.9730734722
 30
0.0
  0
SPLINE
  5
360
100
AcDbEntity
  8
0
100
AcDbSpline
 62
7
  6
BYLAYER
 70
0
 71
3
 72
18
 73
14
 74
0
 42
0.0000001
 43
0.0000001
 44
0.0000000001
 40
0.0
 40
0.0
 40
0.0
 40
0.0
 40
0.0320502393
 40
0.0658354606
 40
0.1027430072
 40
0.1437865228
 40
0.1896179225
 40
0.2405849253
 40
0.35813741
 40
0.4957588799
 40
0.6510061269
 40
0.8204831006
 40
1.0
 40
1.0
 40
1.0
 40
1.0
 10
62.77259039
 20
112.429063875
 30
0.0
 10
62.7949556914
 20
112.4514291765
 30
0.0
 10
62.8350990888
 20
112.5035259216
 30
0.0
 10
62.8763362051
 20
112.5970406645
 30
0.0
 10
62.8993071282
 20
112.7055555604
 30
0.0
 10
62.9043302103
 20
112.8280553961
 30
0.0
 10
62.8917107686
 20
112.9638265997
 30
0.0
 10
62.8495187021
 20
113.171437107
 30
0.0
 10
62.7496401779
 20
113.4579006315
 30
0.0
 10
62.571389989
 20
113.822269777
 30
0.0
 10
62.3338319534
 20
114.2124720675
 30
0.0
 10
62.0436269974
 20
114.6171668269
 30
0.0
 10
61.8249022976
 20
114.8835524448
 30
0.0
 10
61.7084805534
 20
115.0170866163
 30
0.0
  0
SPLINE
  5
361
100
AcDbEntity
  8
0
100
AcDbSpline
 62
7
  6
BYLAYER
 70
0
 71
3
 72
18
 73
14
 74
0
 42
0.0000001
 43
0.0000001
 44
0.0000000001
 40
0.0
 40
0.0
 40
0.0
 40
0.0
 40
0.0320502393
 40
0.0658354606
 40
0.1027430072
 40
0.1437865228
 40
0.1896179225
 40
0.2405849253
 40
0.35813741
 40
0.4957588799
 40
0.6510061269
 40
0.8204831006
 40
1.0
 40
1.0
 40
1.0
 40
1.0
 10
33.0631725056
 20
108.1185409369
 30
0.0
 10
33.0408072041
 20
108.1409062383
 30
0.0
 10
32.988710459
 20
108.1810496357
 30
0.0
 10
32.8951957161
 20
108.222286752
 30
0.0
 10
32.7866808202
 20
108.2452576751
 30
0.0
 10
32.6641809845
 20
108.2502807572
 30
0.0
 10
32.5284097809
 20
108.2376613155
 30
0.0
 10
32.3207992736
 20
108.195469249
 30
0.0
 10
32.0343357491
 20
108.0955907248
 30
0.0
 10
31.6699666036
 20
107.9173405359
 30
0.0
 10
31.2797643131
 20
107.6797825003
 30
0.0
 10
30.8750695537
 20
107.3895775444
 30
0.0
 10
30.6086839358
 20
107.1708528445
 30
0.0
 10
30.4751497643
 20
107.0544311003
 30
0.0
  0
SPLINE
  5
362
100
AcDbEntity
  8
0
100
AcDbSpline
 62
7
  6
BYLAYER
 70
0
 71
3
 72
18
 73
14
 74
0
 42
0.0000001
 43
0.0000001
 44
0.0000000001
 40
0.0
 40
0.0
 40
0.0
 40
0.0
 40
0.1795168994
 40
0.3489938731
 40
0.5042411201
 40
0.64186259
 40
0.7594150747
 40
0.8103820775
 40
0.8562134772
 40
0.8972569928
 40
0.9341645394
 40
0.9679497607
 40
1.0
 40
1.0
 40
1.0
 40
1.0
 10
33.4807039015
 20
115.0170866163
 30
0.0
 10
33.3642821573
 20
114.8835524448
 30
0.0
 10
33.1455574574
 20
114.6171668269
 30
0.0
 10
32.8553525015
 20
114.2124720675
 30
0.0
 10
32.6177944659
 20
113.822269777
 30
0.0
 10
32.4395442769
 20
113.4579006315
 30
0.0
 10
32.3396657527
 20
113.171437107
 30
0.0
 10
32.2974736862
 20
112.9638265997
 30
0.0
 10
32.2848542446
 20
112.8280553961
 30
0.0
 10
32.2898773266
 20
112.7055555604
 30
0.0
 10
32.3128482498
 20
112.5970406645
 30
0.0
 10
32.354085366
 20
112.5035259216
 30
0.0
 10
32.3942287634
 20
112.4514291765
 30
0.0
 10
32.4165940649
 20
112.429063875
 30
0.0
  0
SPLINE
  5
363
100
AcDbEntity
  8
0
100
AcDbSpline
 62
7
  6
BYLAYER
 70
0
 71
3
 72
18
 73
14
 74
0
 42
0.0000001
 43
0.0000001
 44
0.0000000001
 40
0.0
 40
0.0
 40
0.0
 40
0.0
 40
0.0320502393
 40
0.0658354606
 40
0.1027430072
 40
0.1437865228
 40
0.1896179225
 40
0.2405849253
 40
0.35813741
 40
0.4957588799
 40
0.6510061269
 40
0.8204831006
 40
1.0
 40
1.0
 40
1.0
 40
1.0
 10
66.6700215465
 20
103.5745313396
 30
0.0
 10
66.692386848
 20
103.5968966411
 30
0.0
 10
66.7325302454
 20
103.6489933862
 30
0.0
 10
66.7737673616
 20
103.7425081291
 30
0.0
 10
66.7967382848
 20
103.851023025
 30
0.0
 10
66.8017613668
 20
103.9735228607
 30
0.0
 10
66.7891419252
 20
104.1092940643
 30
0.0
 10
66.7469498586
 20
104.3169045716
 30
0.0
 10
66.6470713345
 20
104.6033680962
 30
0.0
 10
66.4688211455
 20
104.9677372417
 30
0.0
 10
66.2312631099
 20
105.3579395321
 30
0.0
 10
65.941058154
 20
105.7626342915
 30
0.0
 10
65.7223334541
 20
106.0290199094
 30
0.0
 10
65.6059117099
 20
106.1625540809
 30
0.0
  0
SPLINE
  5
364
100
AcDbEntity
  8
0
100
AcDbSpline
 62
7
  6
BYLAYER
 70
0
 71
3
 72
18
 73
14
 74
0
 42
0.0000001
 43
0.0000001
 44
0.0000000001
 40
0.0
 40
0.0
 40
0.0
 40
0.0
 40
0.1795168994
 40
0.3489938731
 40
0.5042411201
 40
0.64186259
 40
0.7594150747
 40
0.8103820775
 40
0.8562134772
 40
0.8972569928
 40
0.9341645394
 40
0.9679497607
 40
1.0
 40
1.0
 40
1.0
 40
1.0
 10
64.7140346906
 20
107.0544311003
 30
0.0
 10
64.5805005191
 20
107.1708528445
 30
0.0
 10
64.3141149012
 20
107.3895775444
 30
0.0
 10
63.9094201417
 20
107.6797825003
 30
0.0
 10
63.5192178513
 20
107.9173405359
 30
0.0
 10
63.1548487058
 20
108.0955907248
 30
0.0
 10
62.8683851812
 20
108.195469249
 30
0.0
 10
62.660774674
 20
108.2376613155
 30
0.0
 10
62.5250034703
 20
108.2502807572
 30
0.0
 10
62.4025036347
 20
108.2452576751
 30
0.0
 10
62.2939887388
 20
108.222286752
 30
0.0
 10
62.2004739959
 20
108.1810496357
 30
0.0
 10
62.1483772507
 20
108.1409062384
 30
0.0
 10
62.1260119492
 20
108.1185409369
 30
0.0
  0
SPLINE
  5
365
100
AcDbEntity
  8
0
100
AcDbSpline
 62
7
  6
BYLAYER
 70
0
 71
3
 72
10
 73
6
 74
0
 42
0.0000001
 43
0.0000001
 44
0.0000000001
 40
0.0
 40
0.0
 40
0.0
 40
0.0
 40
0.2754570668
 40
0.5489375985
 40
1.0
 40
1.0
 40
1.0
 40
1.0
 10
67.6244407123
 20
15.9003292506
 30
0.0
 10
67.6244412689
 20
15.7359571264
 30
0.0
 10
67.5921029284
 20
15.4073686835
 30
0.0
 10
67.4197264196
 20
14.8332504204
 30
0.0
 10
67.1906157279
 20
14.4557004956
 30
0.0
 10
67.0166441316
 20
14.250320096
 30
0.0
  0
SPLINE
  5
366
100
AcDbEntity
  8
0
100
AcDbSpline
 62
7
  6
BYLAYER
 70
0
 71
3
 72
11
 73
7
 74
0
 42
0.0000001
 43
0.0000001
 44
0.0000000001
 40
0.0
 40
0.0
 40
0.0
 40
0.0
 40
0.2193274692
 40
0.4741269781
 40
0.736409707
 40
1.0
 40
1.0
 40
1.0
 40
1.0
 10
28.1938292015
 20
14.3350174564
 30
0.0
 10
28.118308041
 20
14.4322533081
 30
0.0
 10
27.9699487462
 20
14.6544665725
 30
0.0
 10
27.7954625208
 20
15.0313372052
 30
0.0
 10
27.6808592071
 20
15.456512138
 30
0.0
 10
27.6547432161
 20
15.7523635646
 30
0.0
 10
27.6547437426
 20
15.9003292506
 30
0.0
  0
SPLINE
  5
367
100
AcDbEntity
  8
0
100
AcDbSpline
 62
7
  6
BYLAYER
 70
0
 71
3
 72
16
 73
12
 74
0
 42
0.0000001
 43
0.0000001
 44
0.0000000001
 40
0.0
 40
0.0
 40
0.0
 40
0.0
 40
0.0659362508
 40
0.1300927047
 40
0.1915829976
 40
0.2510517473
 40
0.3674722162
 40
0.4863631832
 40
0.6097418633
 40
0.7372831111
 40
1.0
 40
1.0
 40
1.0
 40
1.0
 10
47.6395922274
 20
14.2164234509
 30
0.0
 10
47.5941918124
 20
14.2158151892
 30
0.0
 10
47.5042621068
 20
14.2258673982
 30
0.0
 10
47.3780554819
 20
14.2670125489
 30
0.0
 10
47.2666613696
 20
14.3309026348
 30
0.0
 10
47.1434741636
 20
14.4398413122
 30
0.0
 10
47.0306437245
 20
14.6127691209
 30
0.0
 10
46.9496092039
 20
14.8474614389
 30
0.0
 10
46.9023030093
 20
15.0982265668
 30
0.0
 10
46.8672928678
 20
15.4504188353
 30
0.0
 10
46.8615896703
 20
15.719419601
 30
0.0
 10
46.8612407403
 20
15.9003292506
 30
0.0
  0
LINE
  5
368
100
AcDbEntity
  8
0
100
AcDbLine
 62
7
  6
BYLAYER
 10
47.6395922274
 20
11.9471081279
 11
47.5106789241
 21
11.9471531549
  0
SPLINE
  5
369
100
AcDbEntity
  8
0
100
AcDbSpline
 62
7
  6
BYLAYER
 70
0
 71
3
 72
11
 73
7
 74
0
 42
0.0000001
 43
0.0000001
 44
0.0000000001
 40
0.0
 40
0.0
 40
0.0
 40
0.0
 40
0.1418773652
 40
0.3662115468
 40
0.657935575
 40
1.0
 40
1.0
 40
1.0
 40
1.0
 10
28.4534177478
 20
14.3524409759
 30
0.0
 10
28.4462689276
 20
14.3553204984
 30
0.0
 10
28.4303564351
 20
14.3679829505
 30
0.0
 10
28.4051086037
 20
14.3930268312
 30
0.0
 10
28.3748294266
 20
14.428640815
 30
0.0
 10
28.3539889183
 20
14.4560309282
 30
0.0
 10
28.3430836997
 20
14.4710756637
 30
0.0
  0
SPLINE
  5
36A
100
AcDbEntity
  8
0
100
AcDbSpline
 62
7
  6
BYLAYER
 70
0
 71
3
 72
14
 73
10
 74
0
 42
0.0000001
 43
0.0000001
 44
0.0000000001
 40
0.0
 40
0.0
 40
0.0
 40
0.0
 40
0.1114152604
 40
0.2335172282
 40
0.4869795681
 40
0.6150685006
 40
0.7433444836
 40
0.8716590456
 40
1.0
 40
1.0
 40
1.0
 40
1.0
 10
28.3430836997
 20
14.4710756637
 30
0.0
 10
28.3102335227
 20
14.516395454
 30
0.0
 10
28.2474903121
 20
14.6158572053
 30
0.0
 10
28.1368824458
 20
14.83434019
 30
0.0
 10
28.0518871761
 20
15.0740356649
 30
0.0
 10
27.9930084168
 20
15.3234252331
 30
0.0
 10
27.9612922123
 20
15.5142307493
 30
0.0
 10
27.9429395699
 20
15.7068956547
 30
0.0
 10
27.9391910141
 20
15.8358552979
 30
0.0
 10
27.9386090142
 20
15.9003292516
 30
0.0
  0
SPLINE
  5
36B
100
AcDbEntity
  8
0
100
AcDbSpline
 62
7
  6
BYLAYER
 70
0
 71
3
 72
27
 73
23
 74
0
 42
0.0000001
 43
0.0000001
 44
0.0000000001
 40
0.0
 40
0.0
 40
0.0
 40
0.0
 40
0.1295044494
 40
0.1934487118
 40
0.2564811065
 40
0.3185020621
 40
0.3799014298
 40
0.4108930068
 40
0.4424198714
 40
0.4745983262
 40
0.5069239646
 40
0.5383336634
 40
0.5682714205
 40
0.5971840368
 40
0.6258367567
 40
0.6547479646
 40
0.6841576195
 40
0.7445759409
 40
0.8068939768
 40
0.8705610083
 40
0.9350775316
 40
1.0
 40
1.0
 40
1.0
 40
1.0
 10
51.1867920502
 20
15.9003292528
 30
0.0
 10
51.1862217213
 20
15.7444365528
 30
0.0
 10
51.1802244592
 20
15.511359898
 30
0.0
 10
51.1493869518
 20
15.2040063203
 30
0.0
 10
51.1103040353
 20
14.9795405609
 30
0.0
 10
51.0466542075
 20
14.763680501
 30
0.0
 10
50.9606727901
 20
14.5964391572
 30
0.0
 10
50.8632389604
 20
14.4824953872
 30
0.0
 10
50.7728678538
 20
14.4115396398
 30
0.0
 10
50.6664979589
 20
14.3630836399
 30
0.0
 10
50.5507560753
 20
14.3453016799
 30
0.0
 10
50.4374220999
 20
14.3622289076
 30
0.0
 10
50.3384944556
 20
14.4110168355
 30
0.0
 10
50.2598656694
 20
14.4828210308
 30
0.0
 10
50.2003575348
 20
14.5690310958
 30
0.0
 10
50.1559629422
 20
14.6642381312
 30
0.0
 10
50.111863525
 20
14.8004641342
 30
0.0
 10
50.0786653867
 20
14.9812040024
 30
0.0
 10
50.0583417028
 20
15.2047564878
 30
0.0
 10
50.0486927207
 20
15.433932899
 30
0.0
 10
50.0446897467
 20
15.6663602708
 30
0.0
 10
50.0441035147
 20
15.822177493
 30
0.0
 10
50.0440174046
 20
15.9003292516
 30
0.0
  0
SPLINE
  5
36C
100
AcDbEntity
  8
0
100
AcDbSpline
 62
7
  6
BYLAYER
 70
0
 71
3
 72
14
 73
10
 74
0
 42
0.0000001
 43
0.0000001
 44
0.0000000001
 40
0.0
 40
0.0
 40
0.0
 40
0.0
 40
0.128209361
 40
0.256393102
 40
0.3845387134
 40
0.5125024241
 40
0.765801299
 40
0.8880039961
 40
1.0
 40
1.0
 40
1.0
 40
1.0
 10
67.3405754406
 20
15.9003292528
 30
0.0
 10
67.3400082664
 20
15.8362159191
 30
0.0
 10
67.3363022008
 20
15.7079770934
 30
0.0
 10
67.318140433
 20
15.5163827795
 30
0.0
 10
67.286788641
 20
15.3266121033
 30
0.0
 10
67.2285666383
 20
15.0784883827
 30
0.0
 10
67.1445064857
 20
14.8398182293
 30
0.0
 10
67.0349792737
 20
14.6217578784
 30
0.0
 10
66.9727587714
 20
14.5222101242
 30
0.0
 10
66.94014112
 20
14.4766803852
 30
0.0
  0
SPLINE
  5
36D
100
AcDbEntity
  8
0
100
AcDbSpline
 62
7
  6
BYLAYER
 70
0
 71
3
 72
11
 73
7
 74
0
 42
0.0000001
 43
0.0000001
 44
0.0000000001
 40
0.0
 40
0.0
 40
0.0
 40
0.0
 40
0.3425280639
 40
0.6349728851
 40
0.8595048527
 40
1.0
 40
1.0
 40
1.0
 40
1.0
 10
66.94014112
 20
14.4766803852
 30
0.0
 10
66.9288313648
 20
14.4608935281
 30
0.0
 10
66.9071894809
 20
14.4321418551
 30
0.0
 10
66.8757014832
 20
14.3947561916
 30
0.0
 10
66.8494881334
 20
14.3685502966
 30
0.0
 10
66.832968191
 20
14.3552745892
 30
0.0
 10
66.8255544767
 20
14.3523614708
 30
0.0
  0
SPLINE
  5
36E
100
AcDbEntity
  8
0
100
AcDbSpline
 62
7
  6
BYLAYER
 70
0
 71
3
 72
12
 73
8
 74
0
 42
0.0000001
 43
0.0000001
 44
0.0000000001
 40
0.0
 40
0.0
 40
0.0
 40
0.0
 40
0.259350572
 40
0.5181750882
 40
0.7725171815
 40
0.8928582684
 40
1.0
 40
1.0
 40
1.0
 40
1.0
 10
27.764099683
 20
15.9003292506
 30
0.0
 10
27.7640925737
 20
15.7522502739
 30
0.0
 10
27.7909595872
 20
15.4556613593
 30
0.0
 10
27.9107376023
 20
15.028742889
 30
0.0
 10
28.0729689972
 20
14.7026072754
 30
0.0
 10
28.2309499061
 20
14.4769683716
 30
0.0
 10
28.3158800675
 20
14.3782847063
 30
0.0
 10
28.3586269242
 20
14.334524797
 30
0.0
  0
SPLINE
  5
36F
100
AcDbEntity
  8
0
100
AcDbSpline
 62
7
  6
BYLAYER
 70
0
 71
3
 72
9
 73
5
 74
0
 42
0.0000001
 43
0.0000001
 44
0.0000000001
 40
0.0
 40
0.0
 40
0.0
 40
0.0
 40
0.2634593297
 40
1.0
 40
1.0
 40
1.0
 40
1.0
 10
28.3586269242
 20
14.334524797
 30
0.0
 10
28.3627294024
 20
14.3303250947
 30
0.0
 10
28.3784029058
 20
14.3144847916
 30
0.0
 10
28.394479471
 20
14.2990400799
 30
0.0
 10
28.4065897253
 20
14.2879616795
 30
0.0
  0
SPLINE
  5
370
100
AcDbEntity
  8
0
100
AcDbSpline
 62
7
  6
BYLAYER
 70
0
 71
3
 72
11
 73
7
 74
0
 42
0.0000001
 43
0.0000001
 44
0.0000000001
 40
0.0
 40
0.0
 40
0.0
 40
0.0
 40
0.3915957191
 40
0.6949604686
 40
0.8968022345
 40
1.0
 40
1.0
 40
1.0
 40
1.0
 10
28.4065897253
 20
14.2879616795
 30
0.0
 10
28.4193435812
 20
14.2762945155
 30
0.0
 10
28.4422945376
 20
14.2561976428
 30
0.0
 10
28.4747329312
 20
14.2322923692
 30
0.0
 10
28.4966218988
 20
14.2190850477
 30
0.0
 10
28.5119639321
 20
14.2152298482
 30
0.0
 10
28.5157434379
 20
14.2177725816
 30
0.0
  0
SPLINE
  5
371
100
AcDbEntity
  8
0
100
AcDbSpline
 62
7
  6
BYLAYER
 70
0
 71
3
 72
25
 73
21
 74
0
 42
0.0000001
 43
0.0000001
 44
0.0000000001
 40
0.0
 40
0.0
 40
0.0
 40
0.0
 40
0.0662920757
 40
0.1318958151
 40
0.1962096928
 40
0.2588635747
 40
0.32001942
 40
0.3809364023
 40
0.4440737638
 40
0.5097372059
 40
0.5419084182
 40
0.5724500751
 40
0.6013928829
 40
0.6293709826
 40
0.6850557723
 40
0.7432515193
 40
0.8045138266
 40
0.86827916
 40
0.9337236092
 40
1.0
 40
1.0
 40
1.0
 40
1.0
 10
43.8723197389
 20
15.9003292506
 30
0.0
 10
43.8722929463
 20
15.8092575869
 30
0.0
 10
43.8762526305
 20
15.6280309937
 30
0.0
 10
43.8953115869
 20
15.3590202232
 30
0.0
 10
43.931960185
 20
15.0967196952
 30
0.0
 10
43.993993042
 20
14.8451449106
 30
0.0
 10
44.0933409968
 20
14.6099376332
 30
0.0
 10
44.2477861832
 20
14.4032083501
 30
0.0
 10
44.4685320838
 20
14.2542358574
 30
0.0
 10
44.6914425322
 20
14.2070351077
 30
0.0
 10
44.8680351727
 20
14.2254239527
 30
0.0
 10
44.9883909113
 20
14.2661775439
 30
0.0
 10
45.0911264398
 20
14.330497095
 30
0.0
 10
45.2018222542
 20
14.4401788497
 30
0.0
 10
45.2965410385
 20
14.6147024227
 30
0.0
 10
45.3577520161
 20
14.8483984422
 30
0.0
 10
45.3897127478
 20
15.0984659281
 30
0.0
 10
45.4045441938
 20
15.3598030426
 30
0.0
 10
45.4104177185
 20
15.6283199256
 30
0.0
 10
45.4114374568
 20
15.809279135
 30
0.0
 10
45.4114099744
 20
15.9003292506
 30
0.0
  0
SPLINE
  5
372
100
AcDbEntity
  8
0
100
AcDbSpline
 62
7
  6
BYLAYER
 70
0
 71
3
 72
27
 73
23
 74
0
 42
0.0000001
 43
0.0000001
 44
0.0000000001
 40
0.0
 40
0.0
 40
0.0
 40
0.0
 40
0.0649221326
 40
0.1294381183
 40
0.1931048469
 40
0.2554224812
 40
0.3158404622
 40
0.3452492572
 40
0.3741599184
 40
0.4028124328
 40
0.4317248165
 40
0.4616622963
 40
0.4930725615
 40
0.5253974401
 40
0.557576142
 40
0.5891030026
 40
0.620095237
 40
0.681495844
 40
0.7435172583
 40
0.8065500585
 40
0.8704946826
 40
1.0
 40
1.0
 40
1.0
 40
1.0
 10
45.2351670502
 20
15.9003292528
 30
0.0
 10
45.235082551
 20
15.8221778977
 30
0.0
 10
45.2344959301
 20
15.6663617073
 30
0.0
 10
45.2304902587
 20
15.4339358354
 30
0.0
 10
45.2208435465
 20
15.2047608096
 30
0.0
 10
45.2005192605
 20
14.9812096956
 30
0.0
 10
45.1673245279
 20
14.8004712075
 30
0.0
 10
45.1232230537
 20
14.664247577
 30
0.0
 10
45.0788267588
 20
14.569044641
 30
0.0
 10
45.0193316505
 20
14.4828258621
 30
0.0
 10
44.9406963854
 20
14.4110307512
 30
0.0
 10
44.8417784771
 20
14.3622251811
 30
0.0
 10
44.7284416463
 20
14.3453017842
 30
0.0
 10
44.6127029502
 20
14.3630872819
 30
0.0
 10
44.5063244559
 20
14.4115252815
 30
0.0
 10
44.415959979
 20
14.4824916344
 30
0.0
 10
44.3185084757
 20
14.5964222423
 30
0.0
 10
44.2325379915
 20
14.7636755367
 30
0.0
 10
44.168879989
 20
14.9795339814
 30
0.0
 10
44.1297999852
 20
15.2040023278
 30
0.0
 10
44.098953474
 20
15.5113569647
 30
0.0
 10
44.0929736069
 20
15.7444355491
 30
0.0
 10
44.0923924046
 20
15.9003292516
 30
0.0
  0
SPLINE
  5
373
100
AcDbEntity
  8
0
100
AcDbSpline
 62
7
  6
BYLAYER
 70
0
 71
3
 72
15
 73
11
 74
0
 42
0.0000001
 43
0.0000001
 44
0.0000000001
 40
0.0
 40
0.0
 40
0.0
 40
0.0
 40
0.1370785089
 40
0.2728070147
 40
0.4057576719
 40
0.5342987589
 40
0.6573149818
 40
0.7742039898
 40
0.8869846037
 40
1.0
 40
1.0
 40
1.0
 40
1.0
 10
48.2175320113
 20
15.9003292562
 30
0.0
 10
48.2175504407
 20
15.8178166732
 30
0.0
 10
48.2159392732
 20
15.6535916554
 30
0.0
 10
48.2066120261
 20
15.4094982415
 30
0.0
 10
48.1885648556
 20
15.1709685313
 30
0.0
 10
48.1542223856
 20
14.9417736008
 30
0.0
 10
48.0962311203
 20
14.7269166739
 30
0.0
 10
47.9997017813
 20
14.5350888798
 30
0.0
 10
47.8460145939
 20
14.3886902368
 30
0.0
 10
47.7076203492
 20
14.3511551742
 30
0.0
 10
47.6395922374
 20
14.3511744936
 30
0.0
  0
SPLINE
  5
374
100
AcDbEntity
  8
0
100
AcDbSpline
 62
7
  6
BYLAYER
 70
0
 71
3
 72
15
 73
11
 74
0
 42
0.0000001
 43
0.0000001
 44
0.0000000001
 40
0.0
 40
0.0
 40
0.0
 40
0.0
 40
0.1130134624
 40
0.2258032228
 40
0.3426951884
 40
0.4657102519
 40
0.5942487629
 40
0.7271970973
 40
0.8629240466
 40
1.0
 40
1.0
 40
1.0
 40
1.0
 10
47.6395921844
 20
14.3511765243
 30
0.0
 10
47.5715653733
 20
14.3511449174
 30
0.0
 10
47.4331687132
 20
14.388702677
 30
0.0
 10
47.2794746803
 20
14.5350958548
 30
0.0
 10
47.182948615
 20
14.7269349734
 30
0.0
 10
47.124959547
 20
14.9417904686
 30
0.0
 10
47.0906182049
 20
15.1709816949
 30
0.0
 10
47.0725723997
 20
15.4095070673
 30
0.0
 10
47.0632453482
 20
15.6535961481
 30
0.0
 10
47.0616341554
 20
15.8178183705
 30
0.0
 10
47.0616526953
 20
15.9003292552
 30
0.0
  0
SPLINE
  5
375
100
AcDbEntity
  8
0
100
AcDbSpline
 62
7
  6
BYLAYER
 70
0
 71
3
 72
16
 73
12
 74
0
 42
0.0000001
 43
0.0000001
 44
0.0000000001
 40
0.0
 40
0.0
 40
0.0
 40
0.0
 40
0.1291464267
 40
0.1906076425
 40
0.2500438778
 40
0.3665865927
 40
0.4855974997
 40
0.609142741
 40
0.7368995102
 40
0.8676748604
 40
1.0
 40
1.0
 40
1.0
 40
1.0
 10
47.6395922274
 20
14.2164234512
 30
0.0
 10
47.7284646577
 20
14.2163824811
 30
0.0
 10
47.8619376842
 20
14.2440488567
 30
0.0
 10
48.0117088266
 20
14.3305225657
 30
0.0
 10
48.1351870799
 20
14.4391102543
 30
0.0
 10
48.2481632431
 20
14.6119743057
 30
0.0
 10
48.3293861772
 20
14.8467226851
 30
0.0
 10
48.3768434713
 20
15.0976408731
 30
0.0
 10
48.4028747098
 20
15.3594600858
 30
0.0
 10
48.4154535749
 20
15.6282042502
 30
0.0
 10
48.4179723171
 20
15.8092693761
 30
0.0
 10
48.4179437146
 20
15.9003292506
 30
0.0
  0
SPLINE
  5
376
100
AcDbEntity
  8
0
100
AcDbSpline
 62
7
  6
BYLAYER
 70
0
 71
3
 72
25
 73
21
 74
0
 42
0.0000001
 43
0.0000001
 44
0.0000000001
 40
0.0
 40
0.0
 40
0.0
 40
0.0
 40
0.0662763868
 40
0.1317206801
 40
0.1954860389
 40
0.2567484078
 40
0.3149443797
 40
0.3706294542
 40
0.3986075261
 40
0.4275495431
 40
0.4580913828
 40
0.4902638931
 40
0.5559263634
 40
0.6190644519
 40
0.6799810862
 40
0.7411365305
 40
0.8037903338
 40
0.8681041559
 40
0.9337079786
 40
1.0
 40
1.0
 40
1.0
 40
1.0
 10
49.8677744716
 20
15.9003292506
 30
0.0
 10
49.8677477779
 20
15.8092791017
 30
0.0
 10
49.8687664512
 20
15.6283200373
 30
0.0
 10
49.8746430193
 20
15.3598032365
 30
0.0
 10
49.8894729187
 20
15.0984662759
 30
0.0
 10
49.9214297085
 20
14.848397161
 30
0.0
 10
49.9826492956
 20
14.6147031211
 30
0.0
 10
50.0773628889
 20
14.440175811
 30
0.0
 10
50.1880617277
 20
14.3304971818
 30
0.0
 10
50.2907951145
 20
14.266178611
 30
0.0
 10
50.4111473917
 20
14.225408072
 30
0.0
 10
50.5877446101
 20
14.2070444145
 30
0.0
 10
50.8106541436
 20
14.2542353282
 30
0.0
 10
51.0313996846
 20
14.4032106368
 30
0.0
 10
51.1858485563
 20
14.609936813
 30
0.0
 10
51.2851892382
 20
14.845146526
 30
0.0
 10
51.347225301
 20
15.0967193025
 30
0.0
 10
51.3838756138
 20
15.3590199287
 30
0.0
 10
51.4029315292
 20
15.6280309336
 30
0.0
 10
51.4068923021
 20
15.8092576231
 30
0.0
 10
51.406864716
 20
15.9003292506
 30
0.0
  0
SPLINE
  5
377
100
AcDbEntity
  8
0
100
AcDbSpline
 62
7
  6
BYLAYER
 70
0
 71
3
 72
11
 73
7
 74
0
 42
0.0000001
 43
0.0000001
 44
0.0000000001
 40
0.0
 40
0.0
 40
0.0
 40
0.0
 40
0.2590787166
 40
0.5166240348
 40
0.7682825232
 40
1.0
 40
1.0
 40
1.0
 40
1.0
 10
67.2815793468
 20
15.9003292506
 30
0.0
 10
67.281574143
 20
15.7727990096
 30
0.0
 10
67.2631697011
 20
15.5181166088
 30
0.0
 10
67.1825905547
 20
15.1474432545
 30
0.0
 10
67.0582902123
 20
14.8034929739
 30
0.0
 10
66.9518221991
 20
14.5902437822
 30
0.0
 10
66.8969617255
 20
14.4902416649
 30
0.0
  0
SPLINE
  5
378
100
AcDbEntity
  8
0
100
AcDbSpline
 62
7
  6
BYLAYER
 70
0
 71
3
 72
22
 73
18
 74
0
 42
0.0000001
 43
0.0000001
 44
0.0000000001
 40
0.0
 40
0.0
 40
0.0
 40
0.0
 40
0.2139394705
 40
0.4002408373
 40
0.4800383994
 40
0.5489762709
 40
0.6056264184
 40
0.6489922084
 40
0.6785296203
 40
0.6963396902
 40
0.7138938426
 40
0.7268509927
 40
0.7433346203
 40
0.7872677682
 40
0.8454976779
 40
0.9168875755
 40
1.0
 40
1.0
 40
1.0
 40
1.0
 10
66.8969617255
 20
14.4902416649
 30
0.0
 10
66.8818630108
 20
14.4627190546
 30
0.0
 10
66.8531072815
 20
14.4115100464
 30
0.0
 10
66.8181421851
 20
14.3503601391
 30
0.0
 10
66.7942546677
 20
14.3073961139
 30
0.0
 10
66.780191291
 20
14.2807248566
 30
0.0
 10
66.7693934017
 20
14.2584353796
 30
0.0
 10
66.762648105
 20
14.2405153117
 30
0.0
 10
66.7591877221
 20
14.2278847191
 30
0.0
 10
66.7614727584
 20
14.2171269406
 30
0.0
 10
66.7697426839
 20
14.2160428733
 30
0.0
 10
66.7762847649
 20
14.2177496629
 30
0.0
 10
66.7863880447
 20
14.2217150467
 30
0.0
 10
66.801440367
 20
14.2305207006
 30
0.0
 10
66.8222776826
 20
14.2451984904
 30
0.0
 10
66.8466189177
 20
14.264763661
 30
0.0
 10
66.8636293885
 20
14.279761432
 30
0.0
 10
66.8726272587
 20
14.2879934349
 30
0.0
  0
SPLINE
  5
379
100
AcDbEntity
  8
0
100
AcDbSpline
 62
7
  6
BYLAYER
 70
0
 71
3
 72
9
 73
5
 74
0
 42
0.0000001
 43
0.0000001
 44
0.0000000001
 40
0.0
 40
0.0
 40
0.0
 40
0.0
 40
0.2358058882
 40
1.0
 40
1.0
 40
1.0
 40
1.0
 10
66.8726272587
 20
14.2879934349
 30
0.0
 10
66.8765422377
 20
14.2915751846
 30
0.0
 10
66.893022164
 20
14.3068984032
 30
0.0
 10
66.9090371561
 20
14.3227188608
 30
0.0
 10
66.9210475098
 20
14.3350259069
 30
0.0
  0
SPLINE
  5
37A
100
AcDbEntity
  8
0
100
AcDbSpline
 62
7
  6
BYLAYER
 70
0
 71
3
 72
12
 73
8
 74
0
 42
0.0000001
 43
0.0000001
 44
0.0000000001
 40
0.0
 40
0.0
 40
0.0
 40
0.0
 40
0.1072064828
 40
0.2275607647
 40
0.4818865361
 40
0.7406806974
 40
1.0
 40
1.0
 40
1.0
 40
1.0
 10
66.9210475098
 20
14.3350259069
 30
0.0
 10
66.9637813323
 20
14.3788153855
 30
0.0
 10
67.0486642705
 20
14.4775278147
 30
0.0
 10
67.2065262055
 20
14.7031555206
 30
0.0
 10
67.3685986907
 20
15.0291799247
 30
0.0
 10
67.488253561
 20
15.4558961634
 30
0.0
 10
67.5150921218
 20
15.7523284036
 30
0.0
 10
67.5150847708
 20
15.9003292506
 30
0.0
  0
SPLINE
  5
37B
100
AcDbEntity
  8
0
100
AcDbSpline
 62
7
  6
BYLAYER
 70
0
 71
3
 72
13
 73
9
 74
0
 42
0.0000001
 43
0.0000001
 44
0.0000000001
 40
0.0
 40
0.0
 40
0.0
 40
0.0
 40
0.0952732777
 40
0.1819041116
 40
0.2964111262
 40
0.4375625379
 40
0.6035032781
 40
1.0
 40
1.0
 40
1.0
 40
1.0
 10
28.5157434379
 20
14.2177725816
 30
0.0
 10
28.5197023074
 20
14.2204359853
 30
0.0
 10
28.519111041
 20
14.2322737075
 30
0.0
 10
28.5148057804
 20
14.2454967935
 30
0.0
 10
28.5082030095
 20
14.2616974962
 30
0.0
 10
28.4990186188
 20
14.2805826638
 30
0.0
 10
28.4826313898
 20
14.311841126
 30
0.0
 10
28.4688151842
 20
14.3363655815
 30
0.0
 10
28.4590420192
 20
14.3536510906
 30
0.0
  0
SPLINE
  5
37C
100
AcDbEntity
  8
0
100
AcDbSpline
 62
7
  6
BYLAYER
 70
0
 71
3
 72
9
 73
5
 74
0
 42
0.0000001
 43
0.0000001
 44
0.0000000001
 40
0.0
 40
0.0
 40
0.0
 40
0.0
 40
0.2276298742
 40
1.0
 40
1.0
 40
1.0
 40
1.0
 10
28.4590420192
 20
14.3536510906
 30
0.0
 10
28.4531608537
 20
14.3640529348
 30
0.0
 10
28.4272128096
 20
14.4096856091
 30
0.0
 10
28.4013462013
 20
14.4553685369
 30
0.0
 10
28.3818506155
 20
14.4909190304
 30
0.0
  0
SPLINE
  5
37D
100
AcDbEntity
  8
0
100
AcDbSpline
 62
7
  6
BYLAYER
 70
0
 71
3
 72
11
 73
7
 74
0
 42
0.0000001
 43
0.0000001
 44
0.0000000001
 40
0.0
 40
0.0
 40
0.0
 40
0.0
 40
0.2317685293
 40
0.4834200124
 40
0.7409448213
 40
1.0
 40
1.0
 40
1.0
 40
1.0
 10
28.3818506155
 20
14.4909190304
 30
0.0
 10
28.3270222268
 20
14.5908994211
 30
0.0
 10
28.2206489322
 20
14.8040815248
 30
0.0
 10
28.0964762433
 20
15.1478858426
 30
0.0
 10
28.0159923034
 20
15.5183500866
 30
0.0
 10
27.9976104576
 20
15.7728772235
 30
0.0
 10
27.9976051081
 20
15.9003292506
 30
0.0
  0
SPLINE
  5
37E
100
AcDbEntity
  8
00_COMPONENTS
100
AcDbSpline
 62
7
  6
BYLAYER
 70
0
 71
3
 72
10
 73
6
 74
0
 42
0.0000001
 43
0.0000001
 44
0.0000000001
 40
0.0
 40
0.0
 40
0.0
 40
0.0
 40
0.2500381947
 40
0.5000769298
 40
1.0
 40
1.0
 40
1.0
 40
1.0
 10
47.6395922274
 20
43.9855597796
 30
0.0
 10
48.2474608602
 20
43.9855597796
 30
0.0
 10
49.4635452717
 20
44.0224969002
 30
0.0
 10
51.8859822422
 20
44.2393723637
 30
0.0
 10
53.686052678
 20
44.5540341979
 30
0.0
 10
54.8727965604
 20
44.8162362189
 30
0.0
  0
SPLINE
  5
37F
100
AcDbEntity
  8
00_COMPONENTS
100
AcDbSpline
 62
7
  6
BYLAYER
 70
0
 71
3
 72
13
 73
9
 74
0
 42
0.0000001
 43
0.0000001
 44
0.0000000001
 40
0.0
 40
0.0
 40
0.0
 40
0.0
 40
0.2514377003
 40
0.3759344879
 40
0.5
 40
0.6240655121
 40
0.7485622997
 40
1.0
 40
1.0
 40
1.0
 40
1.0
 10
54.8727965604
 20
44.8162362189
 30
0.0
 10
55.7046355803
 20
44.5563200366
 30
0.0
 10
56.9746791743
 20
44.2411251281
 30
0.0
 10
58.6954657005
 20
44.022529806
 30
0.0
 10
59.9874443939
 20
43.967125591
 30
0.0
 10
61.2794230873
 20
44.022529806
 30
0.0
 10
63.0002096135
 20
44.2411251281
 30
0.0
 10
64.2702532075
 20
44.5563200366
 30
0.0
 10
65.1020922274
 20
44.8162362189
 30
0.0
  0
SPLINE
  5
380
100
AcDbEntity
  8
00_COMPONENTS
100
AcDbSpline
 62
7
  6
BYLAYER
 70
0
 71
3
 72
13
 73
9
 74
0
 42
0.0000001
 43
0.0000001
 44
0.0000000001
 40
0.0
 40
0.0
 40
0.0
 40
0.0
 40
0.2514377003
 40
0.3759344879
 40
0.5
 40
0.6240655121
 40
0.7485622997
 40
1.0
 40
1.0
 40
1.0
 40
1.0
 10
30.1770922274
 20
44.8162362189
 30
0.0
 10
31.0089312473
 20
44.5563200366
 30
0.0
 10
32.2789748414
 20
44.2411251281
 30
0.0
 10
33.9997613676
 20
44.022529806
 30
0.0
 10
35.291740061
 20
43.967125591
 30
0.0
 10
36.5837187543
 20
44.022529806
 30
0.0
 10
38.3045052805
 20
44.2411251281
 30
0.0
 10
39.5745488746
 20
44.5563200366
 30
0.0
 10
40.4063878945
 20
44.8162362189
 30
0.0
  0
SPLINE
  5
381
100
AcDbEntity
  8
00_COMPONENTS
100
AcDbSpline
 62
7
  6
BYLAYER
 70
0
 71
3
 72
11
 73
7
 74
0
 42
0.0000001
 43
0.0000001
 44
0.0000000001
 40
0.0
 40
0.0
 40
0.0
 40
0.0
 40
0.250002409
 40
0.5000015229
 40
0.7500018388
 40
1.0
 40
1.0
 40
1.0
 40
1.0
 10
40.4063878945
 20
44.8162362189
 30
0.0
 10
40.9999499537
 20
44.6850932033
 30
0.0
 10
42.1930805985
 20
44.4489791676
 30
0.0
 10
43.9983995138
 20
44.185381317
 30
0.0
 10
45.8156788118
 20
44.022407129
 30
0.0
 10
47.0317255876
 20
43.9855597796
 30
0.0
 10
47.6395922274
 20
43.9855597796
 30
0.0
  0
LINE
  5
382
100
AcDbEntity
  8
00_COMPONENTS_1
100
AcDbLine
 62
7
  6
BYLAYER
 10
47.6395922274
 20
12.2407567307
 11
59.8674781045
 21
12.2407587497
  0
SPLINE
  5
383
100
AcDbEntity
  8
00_COMPONENTS_1
100
AcDbSpline
 62
7
  6
BYLAYER
 70
0
 71
3
 72
19
 73
15
 74
0
 42
0.0000001
 43
0.0000001
 44
0.0000000001
 40
0.0
 40
0.0
 40
0.0
 40
0.0
 40
0.1234719724
 40
0.2452049587
 40
0.355222752
 40
0.447832618
 40
0.5178156845
 40
0.5606383769
 40
0.5797373185
 40
0.6143156661
 40
0.6771924815
 40
0.7648484926
 40
0.8737993361
 40
1.0
 40
1.0
 40
1.0
 40
1.0
 10
57.7514231846
 20
12.2849291253
 30
0.0
 10
57.8572129422
 20
12.3016138179
 30
0.0
 10
58.0666135131
 20
12.338585546
 30
0.0
 10
58.3685242985
 20
12.4024652938
 30
0.0
 10
58.6396180552
 20
12.4733508538
 30
0.0
 10
58.8700962741
 20
12.5400263235
 30
0.0
 10
59.0249927819
 20
12.6142290166
 30
0.0
 10
59.1453849814
 20
12.6559645646
 30
0.0
 10
59.158993808
 20
12.7573813471
 30
0.0
 10
59.0282204595
 20
12.7708667651
 30
0.0
 10
58.8853439727
 20
12.7849964861
 30
0.0
 10
58.6523424517
 20
12.7736995309
 30
0.0
 10
58.3765149242
 20
12.7481053237
 30
0.0
 10
58.1736787962
 20
12.7193664363
 30
0.0
 10
58.0655336404
 20
12.7024242088
 30
0.0
  0
SPLINE
  5
384
100
AcDbEntity
  8
00_COMPONENTS_1
100
AcDbSpline
 62
7
  6
BYLAYER
 70
0
 71
3
 72
14
 73
10
 74
0
 42
0.0000001
 43
0.0000001
 44
0.0000000001
 40
0.0
 40
0.0
 40
0.0
 40
0.0
 40
0.2185537675
 40
0.43353579
 40
0.6247252796
 40
0.7836706337
 40
0.898563834
 40
0.9671253726
 40
1.0
 40
1.0
 40
1.0
 40
1.0
 10
54.1007911859
 20
12.2137017111
 30
0.0
 10
53.992406595
 20
12.2041231517
 30
0.0
 10
53.777876023
 20
12.1807386897
 30
0.0
 10
53.4696722302
 20
12.1354565544
 30
0.0
 10
53.1948118634
 20
12.0807081856
 30
0.0
 10
52.9662113224
 20
12.0269796604
 30
0.0
 10
52.8143423129
 20
11.9629622189
 30
0.0
 10
52.7019617112
 20
11.9246658614
 30
0.0
 10
52.6946859179
 20
11.8592649714
 30
0.0
 10
52.7061809928
 20
11.8476146458
 30
0.0
  0
SPLINE
  5
385
100
AcDbEntity
  8
00_COMPONENTS_1
100
AcDbSpline
 62
7
  6
BYLAYER
 70
0
 71
3
 72
10
 73
6
 74
0
 42
0.0000001
 43
0.0000001
 44
0.0000000001
 40
0.0
 40
0.0
 40
0.0
 40
0.0
 40
0.3769587403
 40
0.7077685941
 40
1.0
 40
1.0
 40
1.0
 40
1.0
 10
52.7061809928
 20
11.8476146458
 30
0.0
 10
52.7661523186
 20
11.786506089
 30
0.0
 10
52.8840886864
 20
11.6768218693
 30
0.0
 10
53.0652077333
 20
11.5391140292
 30
0.0
 10
53.1873158214
 20
11.4668070763
 30
0.0
 10
53.2464466015
 20
11.4366526982
 30
0.0
  0
SPLINE
  5
386
100
AcDbEntity
  8
00_COMPONENTS_1
100
AcDbSpline
 62
7
  6
BYLAYER
 70
0
 71
3
 72
19
 73
15
 74
0
 42
0.0000001
 43
0.0000001
 44
0.0000000001
 40
0.0
 40
0.0
 40
0.0
 40
0.0
 40
0.0375044194
 40
0.106641351
 40
0.20030546
 40
0.309903569
 40
0.427027927
 40
0.5507211897
 40
0.6703806934
 40
0.7807914446
 40
0.8769144351
 40
0.9485778315
 40
0.988456706
 40
1.0
 40
1.0
 40
1.0
 40
1.0
 10
53.2464466015
 20
11.4366526982
 30
0.0
 10
53.275166381
 20
11.4232832909
 30
0.0
 10
53.3677609392
 20
11.4166618263
 30
0.0
 10
53.5351776399
 20
11.4128640478
 30
0.0
 10
53.7659439221
 20
11.4229677691
 30
0.0
 10
54.0356345856
 20
11.4417931415
 30
0.0
 10
54.330455601
 20
11.4696708564
 30
0.0
 10
54.6327750635
 20
11.5048539536
 30
0.0
 10
54.9294275929
 20
11.5442614997
 30
0.0
 10
55.1996905518
 20
11.5912434136
 30
0.0
 10
55.4358892129
 20
11.6256196892
 30
0.0
 10
55.5937395191
 20
11.6903013377
 30
0.0
 10
55.7134811783
 20
11.6852995735
 30
0.0
 10
55.7300385931
 20
11.7477927914
 30
0.0
 10
55.7213604287
 20
11.7522378895
 30
0.0
  0
SPLINE
  5
387
100
AcDbEntity
  8
00_COMPONENTS_1
100
AcDbSpline
 62
7
  6
BYLAYER
 70
0
 71
3
 72
27
 73
23
 74
0
 42
0.0000001
 43
0.0000001
 44
0.0000000001
 40
0.0
 40
0.0
 40
0.0
 40
0.0
 40
0.0709842948
 40
0.1196669301
 40
0.1454680466
 40
0.146749989
 40
0.1690018045
 40
0.2105840258
 40
0.266065596
 40
0.3299496884
 40
0.3971047099
 40
0.4638660121
 40
0.528364873
 40
0.5896745947
 40
0.6475790732
 40
0.7021623597
 40
0.7538903715
 40
0.8033143338
 40
0.8513190088
 40
0.8994114534
 40
0.9478821827
 40
1.0
 40
1.0
 40
1.0
 40
1.0
 10
55.6825477927
 20
11.7727841626
 30
0.0
 10
55.9519148689
 20
11.7727027244
 30
0.0
 10
56.4033875909
 20
11.7728098703
 30
0.0
 10
56.9629905582
 20
11.7727834911
 30
0.0
 10
57.2398091653
 20
11.7727813087
 30
0.0
 10
57.4385176293
 20
11.7727861362
 30
0.0
 10
56.8863558526
 20
11.7727839553
 30
0.0
 10
56.6374323886
 20
11.7727876196
 30
0.0
 10
55.9407209986
 20
11.7727534376
 30
0.0
 10
55.2618604509
 20
11.7728439989
 30
0.0
 10
54.5027650829
 20
11.7727262049
 30
0.0
 10
53.7521159785
 20
11.7728409673
 30
0.0
 10
53.020777591
 20
11.7728746616
 30
0.0
 10
52.3237798671
 20
11.7729031339
 30
0.0
 10
51.6642273005
 20
11.7729651422
 30
0.0
 10
51.0410795869
 20
11.7730035047
 30
0.0
 10
50.4501023478
 20
11.7727778829
 30
0.0
 10
49.884091827
 20
11.772353518
 30
0.0
 10
49.3318769804
 20
11.7733276778
 30
0.0
 10
48.7832792052
 20
11.7722429577
 30
0.0
 10
48.2190745644
 20
11.772915115
 30
0.0
 10
47.8373631611
 20
11.7717432282
 30
0.0
 10
47.6395922274
 20
11.7727841628
 30
0.0
  0
SPLINE
  5
388
100
AcDbEntity
  8
00_COMPONENTS_1
100
AcDbSpline
 62
7
  6
BYLAYER
 70
0
 71
3
 72
31
 73
27
 74
0
 42
0.0000001
 43
0.0000001
 44
0.0000000001
 40
0.0
 40
0.0
 40
0.0
 40
0.0
 40
0.0707164879
 40
0.1399952618
 40
0.2063824398
 40
0.268884097
 40
0.3260391244
 40
0.3765083568
 40
0.419227076
 40
0.453491417
 40
0.4786776159
 40
0.4942977545
 40
0.4999999997
 40
0.5045513246
 40
0.519455788
 40
0.5443305565
 40
0.5781982425
 40
0.6195066501
 40
0.6663787499
 40
0.7164922625
 40
0.7674669321
 40
0.8170330531
 40
0.8645918864
 40
0.9105599339
 40
0.9554514079
 40
1.0
 40
1.0
 40
1.0
 40
1.0
 10
47.6395922274
 20
13.8046951176
 30
0.0
 10
48.4961522673
 20
13.8046659508
 30
0.0
 10
50.191867288
 20
13.8047085338
 30
0.0
 10
52.6916528633
 20
13.804692434
 30
0.0
 10
55.0921171105
 20
13.8046973175
 30
0.0
 10
57.3451142119
 20
13.8046972283
 30
0.0
 10
59.407330427
 20
13.8046984421
 30
0.0
 10
61.2235832961
 20
13.8046992153
 30
0.0
 10
62.7812735526
 20
13.8046999835
 30
0.0
 10
63.9815692115
 20
13.8047005562
 30
0.0
 10
64.9784728717
 20
13.8047012596
 30
0.0
 10
65.381176896
 20
13.8047012569
 30
0.0
 10
65.9087022111
 20
13.8047016243
 30
0.0
 10
65.4403847622
 20
13.8046934552
 30
0.0
 10
65.0310405459
 20
13.8046892346
 30
0.0
 10
64.06608214
 20
13.804676731
 30
0.0
 10
62.8852578391
 20
13.804664397
 30
0.0
 10
61.3956718864
 20
13.8046530537
 30
0.0
 10
59.7242397495
 20
13.8046491659
 30
0.0
 10
57.9309628884
 20
13.804721308
 30
0.0
 10
56.106451545
 20
13.804846586
 30
0.0
 10
54.3125022658
 20
13.804476913
 30
0.0
 10
52.5792949505
 20
13.8048128657
 30
0.0
 10
50.902684614
 20
13.8048905731
 30
0.0
 10
49.2625427383
 20
13.8044422306
 30
0.0
 10
48.1791909267
 20
13.8052331591
 30
0.0
 10
47.6395922274
 20
13.8046951176
 30
0.0
  0
SPLINE
  5
389
100
AcDbEntity
  8
00_COMPONENTS_1
100
AcDbSpline
 62
7
  6
BYLAYER
 70
0
 71
3
 72
29
 73
25
 74
0
 42
0.0000001
 43
0.0000001
 44
0.0000000001
 40
0.0
 40
0.0
 40
0.0
 40
0.0
 40
0.0659248604
 40
0.1347992765
 40
0.2032190716
 40
0.267813576
 40
0.3263505865
 40
0.3775005273
 40
0.4205278471
 40
0.4548681338
 40
0.4799816062
 40
0.495165832
 40
0.5
 40
0.5054188761
 40
0.5207655343
 40
0.5457246251
 40
0.5798847915
 40
0.6225956536
 40
0.672971599
 40
0.7299784538
 40
0.7922824065
 40
0.8589641673
 40
0.9286960594
 40
1.0
 40
1.0
 40
1.0
 40
1.0
 10
47.6395922274
 20
13.8046951176
 30
0.0
 10
46.8410510296
 20
13.8036808232
 30
0.0
 10
45.2082309588
 20
13.805210929
 30
0.0
 10
42.746693209
 20
13.8045970288
 30
0.0
 10
40.3011035519
 20
13.8047362435
 30
0.0
 10
37.9813032125
 20
13.8046432965
 30
0.0
 10
35.8688219364
 20
13.8046474333
 30
0.0
 10
34.0233540443
 20
13.8046530774
 30
0.0
 10
32.4541304726
 20
13.8046648505
 30
0.0
 10
31.2460090739
 20
13.8046736251
 30
0.0
 10
30.2646214918
 20
13.8046847342
 30
0.0
 10
29.8546198209
 20
13.8046884609
 30
0.0
 10
29.3702129728
 20
13.8046986585
 30
0.0
 10
29.8809933586
 20
13.804700041
 30
0.0
 10
30.2835620106
 20
13.8046997744
 30
0.0
 10
31.269102358
 20
13.804699998
 30
0.0
 10
32.4667729393
 20
13.8046996922
 30
0.0
 10
34.0215226197
 20
13.8046992561
 30
0.0
 10
35.8349774314
 20
13.8046986398
 30
0.0
 10
37.8918693807
 20
13.8046974088
 30
0.0
 10
40.1443214876
 20
13.8046982055
 30
0.0
 10
42.5515062651
 20
13.8046906117
 30
0.0
 10
45.0675306833
 20
13.8047167963
 30
0.0
 10
46.7758940762
 20
13.8046478962
 30
0.0
 10
47.6395922274
 20
13.8046951176
 30
0.0
  0
LINE
  5
38A
100
AcDbEntity
  8
00_COMPONENTS_1
100
AcDbLine
 62
7
  6
BYLAYER
 10
47.6395922274
 20
11.7727841628
 11
37.9580632803
 21
11.772785677
  0
SPLINE
  5
38B
100
AcDbEntity
  8
00_COMPONENTS_1
100
AcDbSpline
 62
7
  6
BYLAYER
 70
0
 71
3
 72
19
 73
15
 74
0
 42
0.0000001
 43
0.0000001
 44
0.0000000001
 40
0.0
 40
0.0
 40
0.0
 40
0.0
 40
0.0804771829
 40
0.1278393764
 40
0.1484422456
 40
0.1729356707
 40
0.2249929568
 40
0.3035029786
 40
0.4057294563
 40
0.5246269938
 40
0.6533776921
 40
0.7801887642
 40
0.8977584922
 40
1.0
 40
1.0
 40
1.0
 40
1.0
 10
40.7511506503
 20
11.7727840923
 30
0.0
 10
40.8202668629
 20
11.7731622149
 30
0.0
 10
40.9329254744
 20
11.7819729563
 30
0.0
 10
41.0526249672
 20
11.7844494093
 30
0.0
 10
41.1378412621
 20
11.8433543145
 30
0.0
 10
41.0480906196
 20
11.9118861689
 30
0.0
 10
40.9369392543
 20
11.9507603635
 30
0.0
 10
40.738839831
 20
12.0130838792
 30
0.0
 10
40.4904836601
 20
12.0689151048
 30
0.0
 10
40.1942175607
 20
12.1249493506
 30
0.0
 10
39.8763998794
 20
12.1726730096
 30
0.0
 10
39.5579651297
 20
12.2098619361
 30
0.0
 10
39.2611940357
 20
12.233871032
 30
0.0
 10
39.0724146581
 20
12.2405714453
 30
0.0
 10
38.9846054735
 20
12.2407566914
 30
0.0
  0
SPLINE
  5
38C
100
AcDbEntity
  8
00_COMPONENTS_1
100
AcDbSpline
 62
7
  6
BYLAYER
 70
0
 71
3
 72
25
 73
21
 74
0
 42
0.0000001
 43
0.0000001
 44
0.0000000001
 40
0.0
 40
0.0
 40
0.0
 40
0.0
 40
0.0790840315
 40
0.1428922993
 40
0.1891325944
 40
0.217112681
 40
0.2265328151
 40
0.2362124918
 40
0.2658189988
 40
0.3144296163
 40
0.378611089
 40
0.4531806939
 40
0.5332006893
 40
0.6142855166
 40
0.6925179164
 40
0.7644315497
 40
0.8304471824
 40
0.8910277295
 40
0.9470196857
 40
1.0
 40
1.0
 40
1.0
 40
1.0
 10
38.9846054735
 20
12.2407566914
 30
0.0
 10
38.5674492488
 20
12.2406521829
 30
0.0
 10
37.8055461446
 20
12.2407976533
 30
0.0
 10
36.8361572821
 20
12.2407525338
 30
0.0
 10
36.0439596372
 20
12.2407611288
 30
0.0
 10
35.7163730737
 20
12.2407601208
 30
0.0
 10
35.3187980697
 20
12.2407607095
 30
0.0
 10
35.7339667543
 20
12.2407564261
 30
0.0
 10
36.0737904708
 20
12.2407506738
 30
0.0
 10
36.893653194
 20
12.2407410671
 30
0.0
 10
37.8538943775
 20
12.2407306802
 30
0.0
 10
39.0174220608
 20
12.2407229753
 30
0.0
 10
40.2576934086
 20
12.2406879564
 30
0.0
 10
41.5209540282
 20
12.2409312076
 30
0.0
 10
42.7404586633
 20
12.2405350237
 30
0.0
 10
43.8807273019
 20
12.2405431719
 30
0.0
 10
44.9278248234
 20
12.2409882838
 30
0.0
 10
45.8909521934
 20
12.2410489722
 30
0.0
 10
46.7853168466
 20
12.2408728824
 30
0.0
 10
47.3601291322
 20
12.2408138146
 30
0.0
 10
47.6395922274
 20
12.2407635248
 30
0.0
  0
ELLIPSE
  5
38D
100
AcDbEntity
  8
0
100
AcDbEllipse
 62
7
  6
BYLAYER
 10
47.6395922274
 20
85.8859250132
 30
0.0
 11
4.445
 21
0.0
 31
0.0
 40
1.0
 41
6.3826518267
 42
9.3253114412
  0
ENDSEC
  0
SECTION
  2
OBJECTS
  0
DICTIONARY
  5
C
100
AcDbDictionary
280
0
281
1
  3
ACAD_GROUP
350
D
  3
ACAD_MLINESTYLE
350
17
  3
ACAD_LAYOUT
350
1A
  3
ACAD_PLOTSETTINGS
350
19
  3
ACAD_PLOTSTYLENAME
350
E
  0
DICTIONARY
  5
D
102
{ACAD_REACTORS
330
C
102
}
100
AcDbDictionary
280
0
281
1
  0
ACDBDICTIONARYWDFLT
  5
E
102
{ACAD_REACTORS
330
C
102
}
100
AcDbDictionary
281
1
  3
Normal
350
F
100
AcDbDictionaryWithDefault
340
F
  0
DICTIONARY
  5
17
102
{ACAD_REACTORS
330
C
102
}
100
AcDbDictionary
280
0
281
1
  3
Standard
350
18
  0
DICTIONARY
  5
19
102
{ACAD_REACTORS
330
C
102
}
100
AcDbDictionary
281
1
  0
DICTIONARY
  5
1A
102
{ACAD_REACTORS
330
C
102
}
100
AcDbDictionary
281
1
  3
Model
350
38E
  3
Layout1
350
38F
  0
ACDBPLACEHOLDER
  5
F
102
{ACAD_REACTORS
330
E
102
}
  0
MLINESTYLE
  5
18
102
{ACAD_REACTORS
330
17
102
}
100
AcDbMlineStyle
  2
STANDARD
 70
0
  3

 62
256
 51
90.0
 52
90.0
 71
2
 49
0.5
 62
256
  6
BYLAYER
 49
-0.5
 62
256
  6
BYLAYER
  0
LAYOUT
  5
38E
102
{ACAD_REACTORS
330
1A
102
}
100
AcDbPlotSettings
  1

  2
none_device
  4

  6

 40
0.0
 41
0.0
 42
0.0
 43
0.0
 44
210.0
 45
297.0
 46
0.0
 47
0.0
 48
0.0
 49
0.0
140
0.0
141
0.0
142
1.0
143
1.0
 70
1024
 72
1
 73
0
 74
0
  7

 75
0
147
1.0
148
0.0
149
0.0
100
AcDbLayout
  1
Model
 70
0
 71
0
 10
0.0
 20
0.0
 11
210.0
 21
297.0
 12
0.0
 22
0.0
 32
0.0
 14
0.0
 24
0.0
 34
0.0
 15
0.0
 25
0.0
 35
0.0
146
0.0
 13
0.0
 23
0.0
 33
0.0
 16
1.0
 26
0.0
 36
0.0
 17
0.0
 27
1.0
 37
0.0
 76
0
330
21D
345
0
346
0
  0
LAYOUT
  5
38F
102
{ACAD_REACTORS
330
1A
102
}
100
AcDbPlotSettings
  1

  2
none_device
  4

  6

 40
0.0
 41
0.0
 42
0.0
 43
0.0
 44
210.0
 45
297.0
 46
0.0
 47
0.0
 48
0.0
 49
0.0
140
0.0
141
0.0
142
1.0
143
1.0
 70
0
 72
1
 73
0
 74
0
  7

 75
0
147
1.0
148
0.0
149
0.0
100
AcDbLayout
  1
Layout1
 70
0
 71
1
 10
0.0
 20
0.0
 11
210.0
 21
297.0
 12
0.0
 22
0.0
 32
0.0
 14
0.0
 24
0.0
 34
0.0
 15
0.0
 25
0.0
 35
0.0
146
0.0
 13
0.0
 23
0.0
 33
0.0
 16
1.0
 26
0.0
 36
0.0
 17
0.0
 27
1.0
 37
0.0
 76
0
330
21E
345
0
346
0
  0
ENDSEC
  0
EOF
