999
DXF file: C:\Users\sesa63760\Dev\_Creo\CAD\MCADPE0012176_3D-CAD\drw0001_1.dxf
999
Pro/ENGINEER 2019471 by Parametric Technology Corporation
  0
SECTION
  2
HEADER
  9
$ACADVER
  1
AC1024
  9
$DWGCODEPAGE
  3
ANSI_1252
  9
$EXTMAX
 10
112.0939762347
 20
158.5329092463
 30
0.0
  9
$EXTMIN
 10
0.0
 20
0.0
 30
0.0
  9
$LIMMIN
 10
0.0
 20
0.0
  9
$LIMMAX
 10
112.0939762347
 20
158.5329092463
  9
$VIEWCTR
 10
56.0469881174
 20
79.2664546231
  9
$VIEWSIZE
 40
158.5329092463
  9
$CLAYER
  8
0
  9
$LTSCALE
 40
10.3339970472
  9
$CELTYPE
  6
BYLAYER
  9
$DIMSCALE
 40
1.0
  9
$DIMASZ
 40
1.334452098
  9
$DIMEXO
 40
1.0
  9
$DIMDLI
 40
7.1398525053
  9
$DIMEXE
 40
1.0
  9
$DIMCEN
 40
1.6910176986
  9
$DIMLFAC
 40
1.0
  9
$DIMBLK
  1
_FILLED
  9
$DIMALT
 70
0
  9
$DIMALTF
 40
0.0393700787
  9
$DIMTXT
 40
1.8682329372
  9
$DIMTOL
 70
1
  9
$DIMLIM
 70
0
  9
$DIMTFAC
 40
1.0
  9
$DIMTP
 40
0.01
  9
$DIMTM
 40
0.01
  9
$DIMGAP
 40
0.625
  9
$DIMDSEP
 70
46
  9
$AUNITS
 70
0
  9
$PDMODE
 70
3
  9
$PDSIZE
 40
0.3125
  9
$HANDSEED
  5
296
  9
$TILEMODE
 70
1
  9
$MEASUREMENT
 70
1
  9
$INSUNITS
 70
4
  0
ENDSEC
  0
SECTION
  2
CLASSES
  0
CLASS
  1
ACDBDICTIONARYWDFLT
  2
AcDbDictionaryWithDefault
  3
AutoCAD 2000
 90
0
 91
1
280
0
281
0
  0
CLASS
  1
ACDBPLACEHOLDER
  2
AcDbPlaceHolder
  3
AutoCAD 2000
 90
0
 91
1
280
0
281
0
  0
CLASS
  1
LAYOUT
  2
AcDbLayout
  3
AutoCAD 2000
 90
0
 91
0
280
0
281
0
  0
ENDSEC
  0
SECTION
  2
TABLES
  0
TABLE
  2
VPORT
  5
8
100
AcDbSymbolTable
 70
2
  0
VPORT
  5
1F4
100
AcDbSymbolTableRecord
100
AcDbViewportTableRecord
  2
*ACTIVE
 70
0
 10
0.0
 20
0.0
 11
1.0
 21
1.0
 12
56.0469881174
 22
79.2664546231
 13
0.0
 23
0.0
 14
1.0
 24
1.0
 15
0.0
 25
0.0
 16
0.0
 26
0.0
 36
1.0
 17
0.0
 27
0.0
 37
0.0
 40
158.5329092463
 41
0.7070707071
 42
50.0
 43
0.0
 44
0.0
 50
0.0
 51
0.0
 71
0
 72
100
 73
1
 74
1
 75
0
 76
0
 77
0
 78
0
  0
ENDTAB
  0
TABLE
  2
LTYPE
  5
5
100
AcDbSymbolTable
 70
6
  0
LTYPE
  5
14
100
AcDbSymbolTableRecord
100
AcDbLinetypeTableRecord
  2
BYBLOCK
 70
0
  3

 72
65
 73
0
 40
0.0
  0
LTYPE
  5
15
100
AcDbSymbolTableRecord
100
AcDbLinetypeTableRecord
  2
BYLAYER
 70
0
  3

 72
65
 73
0
 40
0.0
  0
LTYPE
  5
16
100
AcDbSymbolTableRecord
100
AcDbLinetypeTableRecord
  2
CONTINUOUS
 70
64
  3
Solid line
 72
65
 73
0
 40
0.0
  0
LTYPE
  5
1F5
100
AcDbSymbolTableRecord
100
AcDbLinetypeTableRecord
  2
CENTER
 70
64
  3
____ _ ____ _ ____ _ ____ _ ____ _ ____ _ ____
 72
65
 73
4
 40
0.6
 49
0.375
 74
0
 49
-0.075
 74
0
 49
0.075
 74
0
 49
-0.075
 74
0
  0
LTYPE
  5
1F6
100
AcDbSymbolTableRecord
100
AcDbLinetypeTableRecord
  2
HIDDEN
 70
64
  3
- - - - - - - - - - - - - - - - - - - -
 72
65
 73
2
 40
0.2
 49
0.1
 74
0
 49
-0.1
 74
0
  0
LTYPE
  5
1F7
100
AcDbSymbolTableRecord
100
AcDbLinetypeTableRecord
  2
PHANTOM
 70
64
  3
_____ _ _ _____ _ _ _____ _ _ _____
 72
65
 73
6
 40
0.8
 49
0.45
 74
0
 49
-0.05
 74
0
 49
0.1
 74
0
 49
-0.05
 74
0
 49
0.1
 74
0
 49
-0.05
 74
0
  0
LTYPE
  5
1F8
100
AcDbSymbolTableRecord
100
AcDbLinetypeTableRecord
  2
DOT
 70
64
  3
. . . . . . . . . . . . . . . . . . . .
 72
65
 73
2
 40
0.2
 49
0.1
 74
0
 49
-0.1
 74
0
  0
LTYPE
  5
1F9
100
AcDbSymbolTableRecord
100
AcDbLinetypeTableRecord
  2
DASHED
 70
64
  3
- - - - - - - - - - - - - - - - - - - -
 72
65
 73
2
 40
0.2
 49
0.1
 74
0
 49
-0.1
 74
0
  0
ENDTAB
  0
TABLE
  2
LAYER
  5
2
100
AcDbSymbolTable
 70
36
  0
LAYER
  5
10
100
AcDbSymbolTableRecord
100
AcDbLayerTableRecord
  2
0
 70
0
 62
7
  6
CONTINUOUS
370
-3
390
F
  0
LAYER
  5
1FA
100
AcDbSymbolTableRecord
100
AcDbLayerTableRecord
  2
DEFAULT_1
 70
0
 62
7
  6
CENTER
370
-3
390
F
  0
LAYER
  5
1FB
100
AcDbSymbolTableRecord
100
AcDbLayerTableRecord
  2
DEFAULT_2
 70
0
 62
7
  6
HIDDEN
370
-3
390
F
  0
LAYER
  5
1FC
100
AcDbSymbolTableRecord
100
AcDbLayerTableRecord
  2
DEFAULT_3
 70
0
 62
7
  6
PHANTOM
370
-3
390
F
  0
LAYER
  5
1FD
100
AcDbSymbolTableRecord
100
AcDbLayerTableRecord
  2
00_COMPONENTS
 70
0
 62
7
  6
CONTINUOUS
370
-3
390
F
  0
LAYER
  5
1FE
100
AcDbSymbolTableRecord
100
AcDbLayerTableRecord
  2
01_1_DEFAULT_DATUMS
 70
0
 62
7
  6
CONTINUOUS
370
-3
390
F
  0
LAYER
  5
1FF
100
AcDbSymbolTableRecord
100
AcDbLayerTableRecord
  2
01_PLANES
 70
0
 62
7
  6
CONTINUOUS
370
-3
390
F
  0
LAYER
  5
200
100
AcDbSymbolTableRecord
100
AcDbLayerTableRecord
  2
02_COORD_SYS
 70
0
 62
7
  6
CONTINUOUS
370
-3
390
F
  0
LAYER
  5
201
100
AcDbSymbolTableRecord
100
AcDbLayerTableRecord
  2
03_AXES
 70
0
 62
7
  6
CONTINUOUS
370
-3
390
F
  0
LAYER
  5
202
100
AcDbSymbolTableRecord
100
AcDbLayerTableRecord
  2
04_POINTS
 70
0
 62
7
  6
CONTINUOUS
370
-3
390
F
  0
LAYER
  5
203
100
AcDbSymbolTableRecord
100
AcDbLayerTableRecord
  2
05_CURVES
 70
0
 62
7
  6
CONTINUOUS
370
-3
390
F
  0
LAYER
  5
204
100
AcDbSymbolTableRecord
100
AcDbLayerTableRecord
  2
06_SURFS
 70
0
 62
7
  6
CONTINUOUS
370
-3
390
F
  0
LAYER
  5
205
100
AcDbSymbolTableRecord
100
AcDbLayerTableRecord
  2
07_COSMETICS
 70
0
 62
7
  6
CONTINUOUS
370
-3
390
F
  0
LAYER
  5
206
100
AcDbSymbolTableRecord
100
AcDbLayerTableRecord
  2
10_NOTES
 70
0
 62
7
  6
CONTINUOUS
370
-3
390
F
  0
LAYER
  5
207
100
AcDbSymbolTableRecord
100
AcDbLayerTableRecord
  2
11_NOTES_PUB
 70
0
 62
7
  6
CONTINUOUS
370
-3
390
F
  0
LAYER
  5
208
100
AcDbSymbolTableRecord
100
AcDbLayerTableRecord
  2
13_REF_GTOL
 70
0
 62
7
  6
CONTINUOUS
370
-3
390
F
  0
LAYER
  5
209
100
AcDbSymbolTableRecord
100
AcDbLayerTableRecord
  2
16_MISC
 70
0
 62
7
  6
CONTINUOUS
370
-3
390
F
  0
LAYER
  5
20A
100
AcDbSymbolTableRecord
100
AcDbLayerTableRecord
  2
17_NO_PRINT
 70
0
 62
7
  6
CONTINUOUS
370
-3
390
F
  0
LAYER
  5
20B
100
AcDbSymbolTableRecord
100
AcDbLayerTableRecord
  2
18_DATUM_CAMS_JOINTS
 70
0
 62
7
  6
CONTINUOUS
370
-3
390
F
  0
LAYER
  5
20C
100
AcDbSymbolTableRecord
100
AcDbLayerTableRecord
  2
19_DATUM_FUNCTIONAL
 70
0
 62
7
  6
CONTINUOUS
370
-3
390
F
  0
LAYER
  5
20D
100
AcDbSymbolTableRecord
100
AcDbLayerTableRecord
  2
20_DATUM_KINEMATIC_SCHEME
 70
0
 62
7
  6
CONTINUOUS
370
-3
390
F
  0
LAYER
  5
20E
100
AcDbSymbolTableRecord
100
AcDbLayerTableRecord
  2
SHELL1
 70
0
 62
7
  6
CONTINUOUS
370
-3
390
F
  0
ENDTAB
  0
TABLE
  2
STYLE
  5
3
100
AcDbSymbolTable
 70
1
  0
STYLE
  5
11
100
AcDbSymbolTableRecord
100
AcDbTextStyleTableRecord
  2
STANDARD
 70
0
 40
0.0
 41
1.0
 50
0.0
 71
0
 42
0.2
  3
ARIAL.TTF
  4

  0
STYLE
  5
20F
100
AcDbSymbolTableRecord
100
AcDbTextStyleTableRecord
  2
TEXTSTYLE_1
 70
0
 40
0.0
 41
0.8
 50
0.0
 71
0
 42
0.2
  3
gdt
  4

  0
ENDTAB
  0
TABLE
  2
VIEW
  5
6
100
AcDbSymbolTable
 70
0
  0
ENDTAB
  0
TABLE
  2
UCS
  5
7
100
AcDbSymbolTable
 70
0
  0
ENDTAB
  0
TABLE
  2
APPID
  5
9
100
AcDbSymbolTable
 70
1
  0
APPID
  5
210
100
AcDbSymbolTableRecord
100
AcDbRegAppTableRecord
  2
ACAD
 70
0
  0
ENDTAB
  0
TABLE
  2
BLOCK_RECORD
  5
1
100
AcDbSymbolTable
 70
0
  0
BLOCK_RECORD
  5
211
100
AcDbSymbolTableRecord
100
AcDbBlockTableRecord
  2
*Model_Space
  0
BLOCK_RECORD
  5
212
100
AcDbSymbolTableRecord
100
AcDbBlockTableRecord
  2
*Paper_Space
  0
BLOCK_RECORD
  5
213
100
AcDbSymbolTableRecord
100
AcDbBlockTableRecord
  2
_FILLED
  0
ENDTAB
  0
TABLE
  2
DIMSTYLE
  5
A
100
AcDbSymbolTable
 70
1
100
AcDbDimStyleTable
 71
0
  0
DIMSTYLE
105
214
100
AcDbSymbolTableRecord
100
AcDbDimStyleTableRecord
  2
STANDARD
 70
0
  3

  4

 40
1.0
 41
1.334452098
 42
1.0
 43
0.38
 44
1.0
 45
0.0
 46
0.0
 47
0.01
 48
0.01
140
1.8682329372
141
0.09
142
0.0
143
25.4
144
1.0
145
0.0
146
1.0
147
0.625
 71
1
 72
0
 73
0
 74
0
 75
0
 76
0
 77
1
 78
8
 79
2
170
0
171
1
172
0
173
0
174
0
175
0
176
0
177
0
178
0
270
2
179
2
271
2
272
2
273
2
274
2
275
0
280
0
281
0
282
0
283
1
284
8
285
0
286
0
287
3
288
0
340
11
278
46
341
213
342
213
343
213
344
213
  0
ENDTAB
  0
ENDSEC
  0
SECTION
  2
BLOCKS
  0
BLOCK
  5
20
100
AcDbEntity
  8
0
100
AcDbBlockBegin
  2
*Model_Space
 70
0
 10
0.0
 20
0.0
 30
0.0
  3
*Model_Space
  1

  0
ENDBLK
  5
21
100
AcDbEntity
  8
0
100
AcDbBlockEnd
  0
BLOCK
  5
1C
100
AcDbEntity
  8
0
100
AcDbBlockBegin
  2
*Paper_Space
 70
0
 10
0.0
 20
0.0
 30
0.0
  3
*Paper_Space
  1

  0
ENDBLK
  5
1D
100
AcDbEntity
  8
0
100
AcDbBlockEnd
  0
BLOCK
  5
215
100
AcDbEntity
  8
0
100
AcDbBlockBegin
  2
_FILLED
 70
64
 10
0.0
 20
0.0
  3
_FILLED
  1

  0
SOLID
  5
216
100
AcDbEntity
  8
0
  6
BYBLOCK
 62
0
100
AcDbTrace
 10
0.0
 20
0.0
 11
-1.0
 21
0.25
 12
-1.0
 22
-0.25
 13
-1.0
 23
-0.25
  0
ENDBLK
  5
217
100
AcDbEntity
  8
0
  6
BYBLOCK
 62
0
100
AcDbBlockEnd
  0
ENDSEC
  0
SECTION
  2
ENTITIES
  0
LINE
  5
218
100
AcDbEntity
  8
0
100
AcDbLine
 62
7
  6
BYLAYER
 10
13.0041909151
 20
69.949528863
 11
13.0041909151
 21
74.0973611421
  0
LINE
  5
219
100
AcDbEntity
  8
0
100
AcDbLine
 62
7
  6
BYLAYER
 10
14.6206437467
 20
71.2975982517
 11
14.6206437467
 21
69.0162904982
  0
LINE
  5
21A
100
AcDbEntity
  8
0
100
AcDbLine
 62
7
  6
BYLAYER
 10
45.1608462612
 20
41.9485442912
 11
31.6904059972
 21
49.7255306648
  0
LINE
  5
21B
100
AcDbEntity
  8
0
100
AcDbLine
 62
7
  6
BYLAYER
 10
44.9162176726
 20
42.3316993391
 11
31.4457774085
 21
50.1086857127
  0
LINE
  5
21C
100
AcDbEntity
  8
0
100
AcDbLine
 62
7
  6
BYLAYER
 10
24.2295129357
 20
71.9716296404
 11
24.2295129357
 21
73.838154166
  0
LINE
  5
21D
100
AcDbEntity
  8
0
100
AcDbLine
 62
7
  6
BYLAYER
 10
24.8581783474
 20
63.1057808543
 11
24.8581783474
 21
65.3870886077
  0
LINE
  5
21E
100
AcDbEntity
  8
0
100
AcDbLine
 62
7
  6
BYLAYER
 10
26.0255716376
 20
72.8012226495
 11
26.0255716376
 21
70.9346981239
  0
LINE
  5
21F
100
AcDbEntity
  8
0
100
AcDbLine
 62
7
  6
BYLAYER
 10
26.4746311791
 20
66.3203747684
 11
26.4746311791
 21
62.1725424894
  0
LINE
  5
220
100
AcDbEntity
  8
0
100
AcDbLine
 62
7
  6
BYLAYER
 10
31.8801483777
 20
55.1309750572
 11
42.1176829783
 21
49.2204654133
  0
LINE
  5
221
100
AcDbEntity
  8
0
100
AcDbLine
 62
7
  6
BYLAYER
 10
31.4457774085
 20
50.1086857127
 11
28.7863719642
 21
63.5072186871
  0
LINE
  5
222
100
AcDbEntity
  8
0
100
AcDbLine
 62
7
  6
BYLAYER
 10
26.4746311791
 20
62.1725424894
 11
24.8581783474
 21
63.1057808543
  0
LINE
  5
223
100
AcDbEntity
  8
0
100
AcDbLine
 62
7
  6
BYLAYER
 10
14.6206437467
 20
69.0162904982
 11
13.0041909151
 21
69.949528863
  0
LINE
  5
224
100
AcDbEntity
  8
0
100
AcDbLine
 62
7
  6
BYLAYER
 10
35.6343555811
 20
57.2984546586
 11
41.1459082716
 21
54.1164302161
  0
LINE
  5
225
100
AcDbEntity
  8
0
100
AcDbLine
 62
7
  6
BYLAYER
 10
24.8581783474
 20
65.3870886077
 11
14.6206437467
 21
71.2975982517
  0
LINE
  5
226
100
AcDbEntity
  8
0
100
AcDbLine
 62
7
  6
BYLAYER
 10
13.0041909151
 20
74.0973611421
 11
26.4746311791
 21
66.3203747684
  0
LINE
  5
227
100
AcDbEntity
  8
0
100
AcDbLine
 62
7
  6
BYLAYER
 10
30.0704435032
 20
64.2485733105
 11
31.8801483777
 21
55.1309750572
  0
LINE
  5
228
100
AcDbEntity
  8
0
100
AcDbLine
 62
7
  6
BYLAYER
 10
20.457821068
 20
71.6605798492
 11
22.2538797699
 21
70.6236483328
  0
LINE
  5
229
100
AcDbEntity
  8
0
100
AcDbLine
 62
7
  6
BYLAYER
 10
24.2295129357
 20
71.9716296404
 11
26.0255716376
 21
70.9346981239
  0
LINE
  5
22A
100
AcDbEntity
  8
0
100
AcDbLine
 62
7
  6
BYLAYER
 10
35.6343555811
 20
67.4608802715
 11
35.6343555811
 21
57.2984546586
  0
LINE
  5
22B
100
AcDbEntity
  8
0
100
AcDbLine
 62
7
  6
BYLAYER
 10
26.0255716376
 20
72.8012226495
 11
24.2295129357
 21
73.838154166
  0
LINE
  5
22C
100
AcDbEntity
  8
0
100
AcDbLine
 62
7
  6
BYLAYER
 10
37.4478217244
 20
68.5078791878
 11
38.3983473433
 21
67.9591053808
  0
LINE
  5
22D
100
AcDbEntity
  8
0
100
AcDbLine
 62
7
  6
BYLAYER
 10
42.1176829783
 20
49.2204654133
 11
38.2137881382
 21
68.8889457708
  0
LINE
  5
22E
100
AcDbEntity
  8
0
100
AcDbLine
 62
7
  6
BYLAYER
 10
39.7819006888
 20
68.1992538919
 11
44.9162176726
 21
42.3316993391
  0
LINE
  5
22F
100
AcDbEntity
  8
0
100
AcDbLine
 62
7
  6
BYLAYER
 10
44.5247437112
 20
89.8787691623
 11
44.4505718138
 21
89.7750754578
  0
LINE
  5
230
100
AcDbEntity
  8
0
100
AcDbLine
 62
7
  6
BYLAYER
 10
87.3604020211
 20
117.0266833866
 11
64.9430890699
 21
104.0841189764
  0
LINE
  5
231
100
AcDbEntity
  8
0
100
AcDbLine
 62
7
  6
BYLAYER
 10
63.8824333141
 20
103.4717527456
 11
62.6199822095
 21
102.7428806113
  0
LINE
  5
232
100
AcDbEntity
  8
0
100
AcDbLine
 62
7
  6
BYLAYER
 10
37.6102019929
 20
88.3035634619
 11
13.0041909151
 21
74.0973611421
  0
LINE
  5
233
100
AcDbEntity
  8
0
100
AcDbLine
 62
7
  6
BYLAYER
 10
52.2477318212
 20
94.3376118109
 11
44.5247437112
 21
89.8787691623
  0
LINE
  5
234
100
AcDbEntity
  8
0
100
AcDbLine
 62
7
  6
BYLAYER
 10
38.4741173095
 20
68.9542858968
 11
39.7819006888
 21
68.1992538919
  0
LINE
  5
235
100
AcDbEntity
  8
0
100
AcDbLine
 62
7
  6
BYLAYER
 10
44.4503495814
 20
89.7750760106
 11
44.4503495814
 21
87.7619376461
  0
LINE
  5
236
100
AcDbEntity
  8
0
100
AcDbLine
 62
7
  6
BYLAYER
 10
44.7043506389
 20
87.9085843496
 11
44.7043506389
 21
89.6284311387
  0
LINE
  5
237
100
AcDbEntity
  8
0
100
AcDbLine
 62
7
  6
BYLAYER
 10
61.628539833
 20
97.6797112109
 11
52.6813500937
 21
92.5140796411
  0
LINE
  5
238
100
AcDbEntity
  8
0
100
AcDbLine
 62
7
  6
BYLAYER
 10
47.6832428424
 20
89.6284382991
 11
41.499372687
 21
86.0582005117
  0
LINE
  5
239
100
AcDbEntity
  8
0
100
AcDbLine
 62
7
  6
BYLAYER
 10
14.6206437467
 20
69.0162904982
 11
16.5963424594
 21
70.1569538729
  0
LINE
  5
23A
100
AcDbEntity
  8
0
100
AcDbLine
 62
7
  6
BYLAYER
 10
51.2784195809
 20
77.3747535294
 11
51.2784195809
 21
76.1499999037
  0
LINE
  5
23B
100
AcDbEntity
  8
0
100
AcDbLine
 62
7
  6
BYLAYER
 10
51.8971354385
 20
79.3649719983
 11
51.8971354385
 21
77.7319671641
  0
LINE
  5
23C
100
AcDbEntity
  8
0
100
AcDbLine
 62
7
  6
BYLAYER
 10
52.6813500937
 20
92.5140796411
 11
52.6813376914
 21
94.2339192698
  0
LINE
  5
23D
100
AcDbEntity
  8
0
100
AcDbLine
 62
7
  6
BYLAYER
 10
100.8308422852
 20
109.249697013
 11
78.413529334
 21
96.3071326028
  0
LINE
  5
23E
100
AcDbEntity
  8
0
100
AcDbLine
 62
7
  6
BYLAYER
 10
77.3528735782
 20
95.694766372
 11
76.0904224735
 21
94.9658942377
  0
LINE
  5
23F
100
AcDbEntity
  8
0
100
AcDbLine
 62
7
  6
BYLAYER
 10
51.0806422569
 20
80.5265770883
 11
26.4746311791
 21
66.3203747684
  0
LINE
  5
240
100
AcDbEntity
  8
0
100
AcDbLine
 62
7
  6
BYLAYER
 10
51.8971354385
 20
79.3649719983
 11
51.0806422569
 21
80.5265770883
  0
LINE
  5
241
100
AcDbEntity
  8
0
100
AcDbLine
 62
7
  6
BYLAYER
 10
53.7425166001
 20
87.1827657833
 11
53.7425166001
 21
90.2936399926
  0
LINE
  5
242
100
AcDbEntity
  8
0
100
AcDbLine
 62
7
  6
BYLAYER
 10
57.9210114491
 20
81.9980890833
 11
57.9951839752
 21
82.1017827887
  0
LINE
  5
243
100
AcDbEntity
  8
0
100
AcDbLine
 62
7
  6
BYLAYER
 10
65.7181720853
 20
86.5606254373
 11
57.9951839752
 21
82.1017827887
  0
LINE
  5
244
100
AcDbEntity
  8
0
100
AcDbLine
 62
7
  6
BYLAYER
 10
76.0270538834
 20
91.6632989149
 11
75.4083380258
 21
91.3060852803
  0
LINE
  5
245
100
AcDbEntity
  8
0
100
AcDbLine
 62
7
  6
BYLAYER
 10
51.8971354385
 20
77.7319671641
 11
51.2784195809
 21
77.3747535294
  0
LINE
  5
246
100
AcDbEntity
  8
0
100
AcDbLine
 62
7
  6
BYLAYER
 10
100.8308422852
 20
105.1018647339
 11
89.2828084047
 21
98.4346440624
  0
LINE
  5
247
100
AcDbEntity
  8
0
100
AcDbLine
 62
7
  6
BYLAYER
 10
38.0226650596
 20
68.839763161
 11
26.4746311791
 21
62.1725424894
  0
LINE
  5
248
100
AcDbEntity
  8
0
100
AcDbLine
 62
7
  6
BYLAYER
 10
51.2784195809
 20
76.1499999037
 11
61.1536831065
 21
81.8514519255
  0
LINE
  5
249
100
AcDbEntity
  8
0
100
AcDbLine
 62
7
  6
BYLAYER
 10
66.1517903578
 20
84.7370932675
 11
75.098980097
 21
89.9027248373
  0
LINE
  5
24A
100
AcDbEntity
  8
0
100
AcDbLine
 62
7
  6
BYLAYER
 10
37.6102019929
 20
88.3035634619
 11
51.0806422569
 21
80.5265770883
  0
LINE
  5
24B
100
AcDbEntity
  8
0
100
AcDbLine
 62
7
  6
BYLAYER
 10
57.9951839752
 20
81.9043999859
 11
57.9951839752
 21
82.1017827887
  0
LINE
  5
24C
100
AcDbEntity
  8
0
100
AcDbLine
 62
7
  6
BYLAYER
 10
60.0925166001
 20
87.1827657833
 11
60.0925166001
 21
90.2936399926
  0
LINE
  5
24D
100
AcDbEntity
  8
0
100
AcDbLine
 62
7
  6
BYLAYER
 10
61.1536831065
 20
81.8514519255
 11
61.1536831065
 21
74.5927454372
  0
LINE
  5
24E
100
AcDbEntity
  8
0
100
AcDbLine
 62
7
  6
BYLAYER
 10
61.9378977618
 20
99.4096726208
 11
62.6199822095
 21
102.7428806113
  0
LINE
  5
24F
100
AcDbEntity
  8
0
100
AcDbLine
 62
7
  6
BYLAYER
 10
61.1536831065
 20
81.8514519255
 11
58.1747909029
 21
81.8514447651
  0
LINE
  5
250
100
AcDbEntity
  8
0
100
AcDbLine
 62
7
  6
BYLAYER
 10
61.9378977618
 20
99.4096726208
 11
61.9378977618
 21
99.0830716539
  0
LINE
  5
251
100
AcDbEntity
  8
0
100
AcDbLine
 62
7
  6
BYLAYER
 10
62.5566136193
 20
98.7258639681
 11
62.5566136193
 21
97.1438996822
  0
LINE
  5
252
100
AcDbEntity
  8
0
100
AcDbLine
 62
7
  6
BYLAYER
 10
64.9430890699
 20
104.0841189764
 11
64.9430890699
 21
102.8593967128
  0
LINE
  5
253
100
AcDbEntity
  8
0
100
AcDbLine
 62
7
  6
BYLAYER
 10
61.1536831065
 20
76.6666257389
 11
65.7181720853
 21
79.301918949
  0
LINE
  5
254
100
AcDbEntity
  8
0
100
AcDbLine
 62
7
  6
BYLAYER
 10
61.1536831065
 20
74.5927454372
 11
66.1517903578
 21
77.4783867792
  0
LINE
  5
255
100
AcDbEntity
  8
0
100
AcDbLine
 62
7
  6
BYLAYER
 10
65.7181720853
 20
86.5606254373
 11
65.7181720853
 21
79.301918949
  0
LINE
  5
256
100
AcDbEntity
  8
0
100
AcDbLine
 62
7
  6
BYLAYER
 10
66.1517779555
 20
86.4569328962
 11
66.1517903578
 21
77.4783867792
  0
LINE
  5
257
100
AcDbEntity
  8
0
100
AcDbLine
 62
7
  6
BYLAYER
 10
35.6343555811
 20
57.2984546586
 11
31.8801483777
 21
55.1309750572
  0
LINE
  5
258
100
AcDbEntity
  8
0
100
AcDbLine
 62
7
  6
BYLAYER
 10
44.7043506389
 20
89.6284311387
 11
47.6832428424
 21
89.6284382991
  0
LINE
  5
259
100
AcDbEntity
  8
0
100
AcDbLine
 62
7
  6
BYLAYER
 10
76.0904224735
 20
94.9658942377
 11
75.4083380258
 21
91.6326862471
  0
LINE
  5
25A
100
AcDbEntity
  8
0
100
AcDbLine
 62
7
  6
BYLAYER
 10
75.098980097
 20
89.9027248373
 11
75.098980097
 21
86.3968675837
  0
LINE
  5
25B
100
AcDbEntity
  8
0
100
AcDbLine
 62
7
  6
BYLAYER
 10
75.4083380258
 20
91.3060852803
 11
75.4083380258
 21
91.6326862471
  0
LINE
  5
25C
100
AcDbEntity
  8
0
100
AcDbLine
 62
7
  6
BYLAYER
 10
76.0270538834
 20
86.9326880357
 11
76.0270538834
 21
91.6632989149
  0
LINE
  5
25D
100
AcDbEntity
  8
0
100
AcDbLine
 62
7
  6
BYLAYER
 10
76.0270538834
 20
86.9326880357
 11
75.098980097
 21
87.4684995644
  0
LINE
  5
25E
100
AcDbEntity
  8
0
100
AcDbLine
 62
7
  6
BYLAYER
 10
61.628539833
 20
97.6797112109
 11
75.098980097
 21
89.9027248373
  0
LINE
  5
25F
100
AcDbEntity
  8
0
100
AcDbLine
 62
7
  6
BYLAYER
 10
78.413529334
 20
88.4262512726
 11
77.3528735782
 21
89.0386073054
  0
LINE
  5
260
100
AcDbEntity
  8
0
100
AcDbLine
 62
7
  6
BYLAYER
 10
61.9378977618
 20
99.0830716539
 11
75.4083380258
 21
91.3060852803
  0
LINE
  5
261
100
AcDbEntity
  8
0
100
AcDbLine
 62
7
  6
BYLAYER
 10
77.3528735782
 20
95.694766372
 11
77.3528735782
 21
87.8138850418
  0
LINE
  5
262
100
AcDbEntity
  8
0
100
AcDbLine
 62
7
  6
BYLAYER
 10
78.413529334
 20
88.4262512726
 11
78.413529334
 21
96.3071326028
  0
LINE
  5
263
100
AcDbEntity
  8
0
100
AcDbLine
 62
7
  6
BYLAYER
 10
61.9378977618
 20
99.4096726208
 11
75.4083380258
 21
91.6326862471
  0
LINE
  5
264
100
AcDbEntity
  8
0
100
AcDbLine
 62
7
  6
BYLAYER
 10
76.0904224735
 20
94.9658942377
 11
62.6199822095
 21
102.7428806113
  0
LINE
  5
265
100
AcDbEntity
  8
0
100
AcDbLine
 62
7
  6
BYLAYER
 10
45.7958354871
 20
42.0114447046
 11
81.5096379771
 21
62.6306951056
  0
LINE
  5
266
100
AcDbEntity
  8
0
100
AcDbLine
 62
7
  6
BYLAYER
 10
63.8824333141
 20
103.4717527456
 11
77.3528735782
 21
95.694766372
  0
LINE
  5
267
100
AcDbEntity
  8
0
100
AcDbLine
 62
7
  6
BYLAYER
 10
78.413529334
 20
96.3071326028
 11
64.9430890699
 21
104.0841189764
  0
LINE
  5
268
100
AcDbEntity
  8
0
100
AcDbLine
 62
7
  6
BYLAYER
 10
82.3892557917
 20
63.9666388414
 11
87.5243211158
 21
95.7673909591
  0
LINE
  5
269
100
AcDbEntity
  8
0
100
AcDbLine
 62
7
  6
BYLAYER
 10
91.5811534303
 20
110.8568852967
 11
91.5811534303
 21
112.7234098222
  0
LINE
  5
26A
100
AcDbEntity
  8
0
100
AcDbLine
 62
7
  6
BYLAYER
 10
93.3772121322
 20
111.6864783058
 11
93.3772121322
 21
109.8199537802
  0
LINE
  5
26B
100
AcDbEntity
  8
0
100
AcDbLine
 62
7
  6
BYLAYER
 10
87.8094615626
 20
110.5458355055
 11
89.6055202645
 21
109.508903989
  0
LINE
  5
26C
100
AcDbEntity
  8
0
100
AcDbLine
 62
7
  6
BYLAYER
 10
100.8308422852
 20
105.1018647339
 11
100.8308422852
 21
109.249697013
  0
LINE
  5
26D
100
AcDbEntity
  8
0
100
AcDbLine
 62
7
  6
BYLAYER
 10
91.5811534303
 20
110.8568852967
 11
93.3772121322
 21
109.8199537802
  0
LINE
  5
26E
100
AcDbEntity
  8
0
100
AcDbLine
 62
7
  6
BYLAYER
 10
93.3772121322
 20
111.6864783058
 11
91.5811534303
 21
112.7234098222
  0
LINE
  5
26F
100
AcDbEntity
  8
0
100
AcDbLine
 62
7
  6
BYLAYER
 10
100.8308422852
 20
109.249697013
 11
87.3604020211
 21
117.0266833866
  0
SPLINE
  5
270
100
AcDbEntity
  8
0
100
AcDbSpline
 62
7
  6
BYLAYER
 70
0
 71
3
 72
9
 73
5
 74
0
 42
0.0000001
 43
0.0000001
 44
0.0000000001
 40
0.0
 40
0.0
 40
0.0
 40
0.0
 40
0.2445483576
 40
1.0
 40
1.0
 40
1.0
 40
1.0
 10
26.2320899652
 20
70.8006252128
 30
0.0
 10
26.2158799385
 20
70.8124702008
 30
0.0
 10
26.148902375
 20
70.8599552271
 30
0.0
 10
26.0792827994
 20
70.9036886717
 30
0.0
 10
26.0255716376
 20
70.9346981239
 30
0.0
  0
SPLINE
  5
271
100
AcDbEntity
  8
0
100
AcDbSpline
 62
7
  6
BYLAYER
 70
0
 71
3
 72
17
 73
13
 74
0
 42
0.0000001
 43
0.0000001
 44
0.0000000001
 40
0.0
 40
0.0
 40
0.0
 40
0.0
 40
0.0428584554
 40
0.0874839031
 40
0.1353177481
 40
0.1872794187
 40
0.3045395902
 40
0.4382053041
 40
0.582547581
 40
0.729712444
 40
0.8713059798
 40
1.0
 40
1.0
 40
1.0
 40
1.0
 10
26.8067166128
 20
71.712435486
 30
0.0
 10
26.8067223532
 20
71.6365154926
 30
0.0
 10
26.7863719754
 20
71.4808921725
 30
0.0
 10
26.6971668184
 20
71.2561604746
 30
0.0
 10
26.5523101501
 20
71.043125721
 30
0.0
 10
26.2796701376
 20
70.7694813755
 30
0.0
 10
25.8150767462
 20
70.4866790211
 30
0.0
 10
25.1470773234
 20
70.2635402816
 30
0.0
 10
24.397410688
 20
70.1581730498
 30
0.0
 10
23.6268602124
 20
70.1795010341
 30
0.0
 10
22.8983153787
 20
70.3252269948
 30
0.0
 10
22.4513088414
 20
70.5096651838
 30
0.0
 10
22.2538797699
 20
70.6236483328
 30
0.0
  0
SPLINE
  5
272
100
AcDbEntity
  8
0
100
AcDbSpline
 62
7
  6
BYLAYER
 70
0
 71
3
 72
10
 73
6
 74
0
 42
0.0000001
 43
0.0000001
 44
0.0000000001
 40
0.0
 40
0.0
 40
0.0
 40
0.0
 40
0.2296804382
 40
0.4687254793
 40
1.0
 40
1.0
 40
1.0
 40
1.0
 10
31.6904145247
 20
49.725545472
 30
0.0
 10
31.6594480133
 20
49.7434036517
 30
0.0
 10
31.6007211059
 20
49.7882358137
 30
0.0
 10
31.5028962524
 20
49.9108196627
 30
0.0
 10
31.4618753319
 20
50.0275816609
 30
0.0
 10
31.4457774085
 20
50.1086857127
 30
0.0
  0
SPLINE
  5
273
100
AcDbEntity
  8
0
100
AcDbSpline
 62
7
  6
BYLAYER
 70
0
 71
3
 72
11
 73
7
 74
0
 42
0.0000001
 43
0.0000001
 44
0.0000000001
 40
0.0
 40
0.0
 40
0.0
 40
0.0
 40
0.2177818507
 40
0.4509067492
 40
0.7103288735
 40
1.0
 40
1.0
 40
1.0
 40
1.0
 10
45.1608547834
 20
41.9485590889
 30
0.0
 10
45.2027575253
 20
41.9243940529
 30
0.0
 10
45.2989858095
 20
41.8894223448
 30
0.0
 10
45.4588765335
 20
41.8853843267
 30
0.0
 10
45.6292550177
 20
41.926550133
 30
0.0
 10
45.740116511
 20
41.9792755307
 30
0.0
 10
45.7958354871
 20
42.0114447046
 30
0.0
  0
SPLINE
  5
274
100
AcDbEntity
  8
0
100
AcDbSpline
 62
7
  6
BYLAYER
 70
0
 71
3
 72
9
 73
5
 74
0
 42
0.0000001
 43
0.0000001
 44
0.0000000001
 40
0.0
 40
0.0
 40
0.0
 40
0.0
 40
0.2445483576
 40
1.0
 40
1.0
 40
1.0
 40
1.0
 10
93.5837304598
 20
109.6858808691
 30
0.0
 10
93.5675204331
 20
109.6977258571
 30
0.0
 10
93.5005428696
 20
109.7452108834
 30
0.0
 10
93.4309232941
 20
109.788944328
 30
0.0
 10
93.3772121322
 20
109.8199537802
 30
0.0
  0
SPLINE
  5
275
100
AcDbEntity
  8
0
100
AcDbSpline
 62
7
  6
BYLAYER
 70
0
 71
3
 72
17
 73
13
 74
0
 42
0.0000001
 43
0.0000001
 44
0.0000000001
 40
0.0
 40
0.0
 40
0.0
 40
0.0
 40
0.0428584554
 40
0.0874839031
 40
0.1353177481
 40
0.1872794187
 40
0.3045395902
 40
0.4382053041
 40
0.582547581
 40
0.729712444
 40
0.8713059798
 40
1.0
 40
1.0
 40
1.0
 40
1.0
 10
94.1583571074
 20
110.5976911423
 30
0.0
 10
94.1583628478
 20
110.5217711489
 30
0.0
 10
94.13801247
 20
110.3661478288
 30
0.0
 10
94.0488073131
 20
110.1414161308
 30
0.0
 10
93.9039506447
 20
109.9283813772
 30
0.0
 10
93.6313106322
 20
109.6547370317
 30
0.0
 10
93.1667172408
 20
109.3719346774
 30
0.0
 10
92.498717818
 20
109.1487959379
 30
0.0
 10
91.7490511826
 20
109.0434287061
 30
0.0
 10
90.978500707
 20
109.0647566904
 30
0.0
 10
90.2499558734
 20
109.2104826511
 30
0.0
 10
89.802949336
 20
109.3949208401
 30
0.0
 10
89.6055202645
 20
109.508903989
 30
0.0
  0
SPLINE
  5
276
100
AcDbEntity
  8
0
100
AcDbSpline
 62
7
  6
BYLAYER
 70
0
 71
3
 72
11
 73
7
 74
0
 42
0.0000001
 43
0.0000001
 44
0.0000000001
 40
0.0
 40
0.0
 40
0.0
 40
0.0
 40
0.2176899422
 40
0.4508856506
 40
0.7106204681
 40
1.0
 40
1.0
 40
1.0
 40
1.0
 10
77.5082238936
 20
87.4705733378
 30
0.0
 10
77.4834843621
 20
87.4848314283
 30
0.0
 10
77.4371928664
 20
87.5237339534
 30
0.0
 10
77.3878618917
 20
87.6043304475
 30
0.0
 10
77.3587084032
 20
87.7036693746
 30
0.0
 10
77.3528735782
 20
87.7759274919
 30
0.0
 10
77.3528735782
 20
87.8138850418
 30
0.0
  0
SPLINE
  5
277
100
AcDbEntity
  8
0
100
AcDbSpline
 62
7
  6
BYLAYER
 70
0
 71
3
 72
11
 73
7
 74
0
 42
0.0000001
 43
0.0000001
 44
0.0000000001
 40
0.0
 40
0.0
 40
0.0
 40
0.0
 40
0.2176899422
 40
0.4508856506
 40
0.7106204681
 40
1.0
 40
1.0
 40
1.0
 40
1.0
 10
75.2349116231
 20
86.0964698427
 30
0.0
 10
75.213264533
 20
86.1089456719
 30
0.0
 10
75.1727594742
 20
86.1429853814
 30
0.0
 10
75.1295948713
 20
86.2135073137
 30
0.0
 10
75.104085569
 20
86.3004288749
 30
0.0
 10
75.098980097
 20
86.3636547275
 30
0.0
 10
75.098980097
 20
86.3968675837
 30
0.0
  0
SPLINE
  5
278
100
AcDbEntity
  8
0
100
AcDbSpline
 62
7
  6
BYLAYER
 70
0
 71
3
 72
17
 73
13
 74
0
 42
0.0000001
 43
0.0000001
 44
0.0000000001
 40
0.0
 40
0.0
 40
0.0
 40
0.0
 40
0.0428568701
 40
0.0874844395
 40
0.135315139
 40
0.1872799608
 40
0.3045407372
 40
0.4382085644
 40
0.5825518473
 40
0.7297129759
 40
0.8713035725
 40
1.0
 40
1.0
 40
1.0
 40
1.0
 10
60.0924986521
 20
90.2936399925
 30
0.0
 10
60.092483625
 20
90.3840181797
 30
0.0
 10
60.0683615035
 20
90.5693013151
 30
0.0
 10
59.9620426362
 20
90.8367940376
 30
0.0
 10
59.7896897015
 20
91.0904679482
 30
0.0
 10
59.465046255
 20
91.4161855779
 30
0.0
 10
58.9119990559
 20
91.7529168993
 30
0.0
 10
58.1167272362
 20
92.0185423775
 30
0.0
 10
57.2242638898
 20
92.1439569849
 30
0.0
 10
56.3069480631
 20
92.1185543723
 30
0.0
 10
55.4396362512
 20
91.945074787
 30
0.0
 10
54.9074827757
 20
91.7255037273
 30
0.0
 10
54.6724432228
 20
91.5898043882
 30
0.0
  0
SPLINE
  5
279
100
AcDbEntity
  8
0
100
AcDbSpline
 62
7
  6
BYLAYER
 70
0
 71
3
 72
12
 73
8
 74
0
 42
0.0000001
 43
0.0000001
 44
0.0000000001
 40
0.0
 40
0.0
 40
0.0
 40
0.0
 40
0.3065904326
 40
0.5837125481
 40
0.8116318921
 40
0.9090803606
 40
1.0
 40
1.0
 40
1.0
 40
1.0
 10
58.1747909029
 20
81.8514447651
 30
0.0
 10
58.1421911854
 20
81.8514446867
 30
0.0
 10
58.0798432842
 20
81.8583340368
 30
0.0
 10
57.9978727697
 20
81.8877736029
 30
0.0
 10
57.9459318907
 20
81.9289022469
 30
0.0
 10
57.9243666811
 20
81.9682508343
 30
0.0
 10
57.9207976485
 20
81.9884216246
 30
0.0
 10
57.9207995094
 20
81.9980890969
 30
0.0
  0
SPLINE
  5
27A
100
AcDbEntity
  8
0
100
AcDbSpline
 62
7
  6
BYLAYER
 70
0
 71
3
 72
13
 73
9
 74
0
 42
0.0000001
 43
0.0000001
 44
0.0000000001
 40
0.0
 40
0.0
 40
0.0
 40
0.0
 40
0.0870186095
 40
0.1868821964
 40
0.3045429645
 40
0.4386850547
 40
0.7300259559
 40
1.0
 40
1.0
 40
1.0
 40
1.0
 10
52.6813376914
 20
94.2339192698
 30
0.0
 10
52.6813375859
 20
94.2485470827
 30
0.0
 10
52.6723837897
 20
94.2802090002
 30
0.0
 10
52.6379720369
 20
94.3195932741
 30
0.0
 10
52.586901844
 20
94.350662042
 30
0.0
 10
52.4997071497
 20
94.3796337639
 30
0.0
 10
52.3809598904
 20
94.385747292
 30
0.0
 10
52.2870343551
 20
94.3603030039
 30
0.0
 10
52.2477318212
 20
94.3376118109
 30
0.0
  0
SPLINE
  5
27B
100
AcDbEntity
  8
0
100
AcDbSpline
 62
7
  6
BYLAYER
 70
0
 71
3
 72
11
 73
7
 74
0
 42
0.0000001
 43
0.0000001
 44
0.0000000001
 40
0.0
 40
0.0
 40
0.0
 40
0.0
 40
0.2897499968
 40
0.5490849848
 40
0.782225055
 40
1.0
 40
1.0
 40
1.0
 40
1.0
 10
54.6724432228
 20
91.5898043882
 30
0.0
 10
54.533106352
 20
91.5093586885
 30
0.0
 10
54.2803359675
 20
91.3352990707
 30
0.0
 10
53.9782855139
 20
91.0177984722
 30
0.0
 10
53.7872306942
 20
90.6666259565
 30
0.0
 10
53.7425144418
 20
90.414565868
 30
0.0
 10
53.7425345481
 20
90.2936399926
 30
0.0
  0
SPLINE
  5
27C
100
AcDbEntity
  8
0
100
AcDbSpline
 62
7
  6
BYLAYER
 70
0
 71
3
 72
13
 73
9
 74
0
 42
0.0000001
 43
0.0000001
 44
0.0000000001
 40
0.0
 40
0.0
 40
0.0
 40
0.0
 40
0.1214689785
 40
0.2489402557
 40
0.5113095632
 40
0.7676509296
 40
0.8878938231
 40
1.0
 40
1.0
 40
1.0
 40
1.0
 10
87.5243211158
 20
95.7673909591
 30
0.0
 10
87.5455191728
 20
95.8986676059
 30
0.0
 10
87.6065314844
 20
96.1650642437
 30
0.0
 10
87.7903186394
 20
96.6946572929
 30
0.0
 10
88.122782633
 20
97.3244159939
 30
0.0
 10
88.5645635082
 20
97.8736864165
 30
0.0
 10
88.9658081303
 20
98.2291033785
 30
0.0
 10
89.1765233059
 20
98.3732806983
 30
0.0
 10
89.2828084047
 20
98.4346440624
 30
0.0
  0
SPLINE
  5
27D
100
AcDbEntity
  8
0
100
AcDbSpline
 62
7
  6
BYLAYER
 70
0
 71
3
 72
11
 73
7
 74
0
 42
0.0000001
 43
0.0000001
 44
0.0000000001
 40
0.0
 40
0.0
 40
0.0
 40
0.0
 40
0.2321231709
 40
0.4887342884
 40
0.7513427189
 40
1.0
 40
1.0
 40
1.0
 40
1.0
 10
81.5096379771
 20
62.6306951056
 30
0.0
 10
81.6197362606
 20
62.6942599998
 30
0.0
 10
81.8310480962
 20
62.8641374817
 30
0.0
 10
82.0903227727
 20
63.186839155
 30
0.0
 10
82.2876287382
 20
63.5610044615
 30
0.0
 10
82.3675462291
 20
63.8321945111
 30
0.0
 10
82.3892557917
 20
63.9666388414
 30
0.0
  0
SPLINE
  5
27E
100
AcDbEntity
  8
0
100
AcDbSpline
 62
7
  6
BYLAYER
 70
0
 71
3
 72
11
 73
7
 74
0
 42
0.0000001
 43
0.0000001
 44
0.0000000001
 40
0.0
 40
0.0
 40
0.0
 40
0.0
 40
0.2895852806
 40
0.5489339172
 40
0.782103718
 40
1.0
 40
1.0
 40
1.0
 40
1.0
 10
38.0263804749
 20
68.8419082442
 30
0.0
 10
38.1374299654
 20
68.9060223147
 30
0.0
 10
38.3586508821
 20
69.0106455851
 30
0.0
 10
38.6984215058
 20
69.0918921671
 30
0.0
 10
39.0171929148
 20
69.0836096415
 30
0.0
 10
39.209049006
 20
69.0137434401
 30
0.0
 10
39.2926277711
 20
68.9655366468
 30
0.0
  0
SPLINE
  5
27F
100
AcDbEntity
  8
0
100
AcDbSpline
 62
7
  6
BYLAYER
 70
0
 71
3
 72
11
 73
7
 74
0
 42
0.0000001
 43
0.0000001
 44
0.0000000001
 40
0.0
 40
0.0
 40
0.0
 40
0.0
 40
0.2897036169
 40
0.5490920547
 40
0.7822205729
 40
1.0
 40
1.0
 40
1.0
 40
1.0
 10
87.8094615626
 20
110.5458355055
 30
0.0
 10
87.6924355264
 20
110.6133989905
 30
0.0
 10
87.4801195241
 20
110.7596331824
 30
0.0
 10
87.226367154
 20
111.0263032765
 30
0.0
 10
87.0658548607
 20
111.3213135072
 30
0.0
 10
87.0283242682
 20
111.5330417027
 30
0.0
 10
87.0283165875
 20
111.634622669
 30
0.0
  0
SPLINE
  5
280
100
AcDbEntity
  8
0
100
AcDbSpline
 62
7
  6
BYLAYER
 70
0
 71
3
 72
15
 73
11
 74
0
 42
0.0000001
 43
0.0000001
 44
0.0000000001
 40
0.0
 40
0.0
 40
0.0
 40
0.0
 40
0.1156990503
 40
0.2410605801
 40
0.3729226667
 40
0.5076722792
 40
0.641329273
 40
0.7700489329
 40
0.8904381493
 40
1.0
 40
1.0
 40
1.0
 40
1.0
 10
24.2295129357
 20
71.9716296404
 30
0.0
 10
24.0905652375
 20
72.0518493166
 30
0.0
 10
23.7849318856
 20
72.1916952543
 30
0.0
 10
23.2865330628
 20
72.3351758728
 30
0.0
 10
22.7475504221
 20
72.4161529196
 30
0.0
 10
22.1913632289
 20
72.4313283996
 30
0.0
 10
21.6416904733
 20
72.3799397533
 30
0.0
 10
21.1220554952
 20
72.2641650212
 30
0.0
 10
20.6547602444
 20
72.0890062783
 30
0.0
 10
20.3765385035
 20
71.9287978308
 30
0.0
 10
20.2537287746
 20
71.8393497895
 30
0.0
  0
SPLINE
  5
281
100
AcDbEntity
  8
0
100
AcDbSpline
 62
7
  6
BYLAYER
 70
0
 71
3
 72
15
 73
11
 74
0
 42
0.0000001
 43
0.0000001
 44
0.0000000001
 40
0.0
 40
0.0
 40
0.0
 40
0.0
 40
0.1156990503
 40
0.2410605801
 40
0.3729226667
 40
0.5076722792
 40
0.641329273
 40
0.7700489329
 40
0.8904381493
 40
1.0
 40
1.0
 40
1.0
 40
1.0
 10
91.5811534303
 20
110.8568852967
 30
0.0
 10
91.4422057321
 20
110.9371049728
 30
0.0
 10
91.1365723802
 20
111.0769509105
 30
0.0
 10
90.6381735574
 20
111.220431529
 30
0.0
 10
90.0991909167
 20
111.3014085758
 30
0.0
 10
89.5430037235
 20
111.3165840559
 30
0.0
 10
88.9933309679
 20
111.2651954096
 30
0.0
 10
88.4736959899
 20
111.1494206775
 30
0.0
 10
88.0064007391
 20
110.9742619345
 30
0.0
 10
87.7281789981
 20
110.8140534871
 30
0.0
 10
87.6053692692
 20
110.7246054458
 30
0.0
  0
SPLINE
  5
282
100
AcDbEntity
  8
0
100
AcDbSpline
 62
7
  6
BYLAYER
 70
0
 71
3
 72
11
 73
7
 74
0
 42
0.0000001
 43
0.0000001
 44
0.0000000001
 40
0.0
 40
0.0
 40
0.0
 40
0.0
 40
0.2897036169
 40
0.5490920547
 40
0.7822205729
 40
1.0
 40
1.0
 40
1.0
 40
1.0
 10
20.457821068
 20
71.6605798492
 30
0.0
 10
20.3407950318
 20
71.7281433343
 30
0.0
 10
20.1284790294
 20
71.8743775262
 30
0.0
 10
19.8747266594
 20
72.1410476203
 30
0.0
 10
19.714214366
 20
72.4360578509
 30
0.0
 10
19.6766837736
 20
72.6477860464
 30
0.0
 10
19.6766760928
 20
72.7493670127
 30
0.0
  0
SPLINE
  5
283
100
AcDbEntity
  8
0
100
AcDbSpline
 62
7
  6
BYLAYER
 70
0
 71
3
 72
17
 73
13
 74
0
 42
0.0000001
 43
0.0000001
 44
0.0000000001
 40
0.0
 40
0.0
 40
0.0
 40
0.0
 40
0.1286954466
 40
0.2702807976
 40
0.4174365668
 40
0.5617797716
 40
0.6954507158
 40
0.8127138671
 40
0.8646797348
 40
0.9125116514
 40
0.957140688
 40
1.0
 40
1.0
 40
1.0
 40
1.0
 10
59.1625899775
 20
85.8866013877
 30
0.0
 10
58.9275522468
 20
85.7509031006
 30
0.0
 10
58.3954115431
 20
85.5313362937
 30
0.0
 10
57.528125278
 20
85.357856463
 30
0.0
 10
56.6108328328
 20
85.3324437082
 30
0.0
 10
55.7183725606
 20
85.4578439865
 30
0.0
 10
54.9230866131
 20
85.7234650449
 30
0.0
 10
54.3700248693
 20
86.0601968625
 30
0.0
 10
54.0453640625
 20
86.3859107694
 30
0.0
 10
53.8730025579
 20
86.6395892953
 30
0.0
 10
53.7666809988
 20
86.9070919669
 30
0.0
 10
53.7425508075
 20
87.0923824518
 30
0.0
 10
53.7425351713
 20
87.1827657766
 30
0.0
  0
SPLINE
  5
284
100
AcDbEntity
  8
0
100
AcDbSpline
 62
7
  6
BYLAYER
 70
0
 71
3
 72
12
 73
8
 74
0
 42
0.0000001
 43
0.0000001
 44
0.0000000001
 40
0.0
 40
0.0
 40
0.0
 40
0.0
 40
0.0909199541
 40
0.1883686966
 40
0.416288579
 40
0.6934100417
 40
1.0
 40
1.0
 40
1.0
 40
1.0
 10
44.4503592708
 20
89.7750754713
 30
0.0
 10
44.4503574188
 20
89.7654079645
 30
0.0
 10
44.4539263506
 20
89.7452370847
 30
0.0
 10
44.4754918268
 20
89.7058884701
 30
0.0
 10
44.5274326911
 20
89.6647598611
 30
0.0
 10
44.6094031713
 20
89.6353202732
 30
0.0
 10
44.6717509682
 20
89.6284310604
 30
0.0
 10
44.7043506389
 20
89.6284311387
 30
0.0
  0
SPLINE
  5
285
100
AcDbEntity
  8
0
100
AcDbSpline
 62
7
  6
BYLAYER
 70
0
 71
3
 72
13
 73
9
 74
0
 42
0.0000001
 43
0.0000001
 44
0.0000000001
 40
0.0
 40
0.0
 40
0.0
 40
0.0
 40
0.2699754461
 40
0.5613166997
 40
0.6954586098
 40
0.8131187853
 40
0.9129817127
 40
1.0
 40
1.0
 40
1.0
 40
1.0
 10
65.7181720853
 20
86.5606254373
 30
0.0
 10
65.7574748265
 20
86.58331675
 30
0.0
 10
65.8514007233
 20
86.6087610251
 30
0.0
 10
65.9701482323
 20
86.6026472489
 30
0.0
 10
66.0573428391
 20
86.5736753717
 30
0.0
 10
66.1084126474
 20
86.5426064994
 30
0.0
 10
66.142824327
 20
86.5032224749
 30
0.0
 10
66.15177785
 20
86.4715606561
 30
0.0
 10
66.1517779555
 20
86.4569328962
 30
0.0
  0
SPLINE
  5
286
100
AcDbEntity
  8
0
100
AcDbSpline
 62
7
  6
BYLAYER
 70
0
 71
3
 72
17
 73
13
 74
0
 42
0.0000001
 43
0.0000001
 44
0.0000000001
 40
0.0
 40
0.0
 40
0.0
 40
0.0
 40
0.0428584554
 40
0.0874839031
 40
0.1353177481
 40
0.1872794187
 40
0.3045395902
 40
0.4382053041
 40
0.582547581
 40
0.729712444
 40
0.8713059798
 40
1.0
 40
1.0
 40
1.0
 40
1.0
 10
87.0283165875
 20
111.634622669
 30
0.0
 10
87.028310847
 20
111.7105426624
 30
0.0
 10
87.0486612249
 20
111.8661659825
 30
0.0
 10
87.1378663818
 20
112.0908976804
 30
0.0
 10
87.2827230501
 20
112.303932434
 30
0.0
 10
87.5553630626
 20
112.5775767796
 30
0.0
 10
88.019956454
 20
112.8603791339
 30
0.0
 10
88.6879558768
 20
113.0835178734
 30
0.0
 10
89.4376225122
 20
113.1888851052
 30
0.0
 10
90.2081729878
 20
113.1675571209
 30
0.0
 10
90.9367178215
 20
113.0218311602
 30
0.0
 10
91.3837243588
 20
112.8373929712
 30
0.0
 10
91.5811534303
 20
112.7234098222
 30
0.0
  0
SPLINE
  5
287
100
AcDbEntity
  8
0
100
AcDbSpline
 62
7
  6
BYLAYER
 70
0
 71
3
 72
9
 73
5
 74
0
 42
0.0000001
 43
0.0000001
 44
0.0000000001
 40
0.0
 40
0.0
 40
0.0
 40
0.0
 40
0.2757549418
 40
1.0
 40
1.0
 40
1.0
 40
1.0
 10
37.8794289584
 20
66.7866541884
 30
0.0
 10
37.8794289584
 20
66.9105371433
 30
0.0
 10
37.9009257243
 20
67.3583489801
 30
0.0
 10
38.0188338398
 20
67.8100751807
 30
0.0
 10
38.180924586
 20
68.0921929144
 30
0.0
  0
SPLINE
  5
288
100
AcDbEntity
  8
0
100
AcDbSpline
 62
7
  6
BYLAYER
 70
0
 71
3
 72
17
 73
13
 74
0
 42
0.0000001
 43
0.0000001
 44
0.0000000001
 40
0.0
 40
0.0
 40
0.0
 40
0.0
 40
0.0428584554
 40
0.0874839031
 40
0.1353177481
 40
0.1872794187
 40
0.3045395902
 40
0.4382053041
 40
0.582547581
 40
0.729712444
 40
0.8713059798
 40
1.0
 40
1.0
 40
1.0
 40
1.0
 10
19.6766760928
 20
72.7493670127
 30
0.0
 10
19.6766703524
 20
72.8252870061
 30
0.0
 10
19.6970207302
 20
72.9809103262
 30
0.0
 10
19.7862258872
 20
73.2056420242
 30
0.0
 10
19.9310825555
 20
73.4186767778
 30
0.0
 10
20.203722568
 20
73.6923211233
 30
0.0
 10
20.6683159594
 20
73.9751234777
 30
0.0
 10
21.3363153822
 20
74.1982622171
 30
0.0
 10
22.0859820176
 20
74.3036294489
 30
0.0
 10
22.8565324932
 20
74.2823014646
 30
0.0
 10
23.5850773269
 20
74.1365755039
 30
0.0
 10
24.0320838642
 20
73.9521373149
 30
0.0
 10
24.2295129357
 20
73.838154166
 30
0.0
  0
SPLINE
  5
289
100
AcDbEntity
  8
0
100
AcDbSpline
 62
7
  6
BYLAYER
 70
0
 71
3
 72
11
 73
7
 74
0
 42
0.0000001
 43
0.0000001
 44
0.0000000001
 40
0.0
 40
0.0
 40
0.0
 40
0.0
 40
0.2897036169
 40
0.5490920547
 40
0.7822205729
 40
1.0
 40
1.0
 40
1.0
 40
1.0
 10
93.3772121322
 20
111.6864783058
 30
0.0
 10
93.4942381684
 20
111.6189148207
 30
0.0
 10
93.7065541708
 20
111.4726806288
 30
0.0
 10
93.9603065408
 20
111.2060105348
 30
0.0
 10
94.1208188342
 20
110.9110003041
 30
0.0
 10
94.1583494266
 20
110.6992721086
 30
0.0
 10
94.1583571074
 20
110.5976911423
 30
0.0
  0
SPLINE
  5
28A
100
AcDbEntity
  8
0
100
AcDbSpline
 62
7
  6
BYLAYER
 70
0
 71
3
 72
11
 73
7
 74
0
 42
0.0000001
 43
0.0000001
 44
0.0000000001
 40
0.0
 40
0.0
 40
0.0
 40
0.0
 40
0.2897499968
 40
0.5490849848
 40
0.782225055
 40
1.0
 40
1.0
 40
1.0
 40
1.0
 10
59.1625899775
 20
88.997475597
 30
0.0
 10
59.3019268482
 20
89.0779212966
 30
0.0
 10
59.5546972327
 20
89.2519809144
 30
0.0
 10
59.8567476863
 20
89.569481513
 30
0.0
 10
60.047802506
 20
89.9206540286
 30
0.0
 10
60.0925187584
 20
90.1727141171
 30
0.0
 10
60.0924986521
 20
90.2936399925
 30
0.0
  0
SPLINE
  5
28B
100
AcDbEntity
  8
0
100
AcDbSpline
 62
7
  6
BYLAYER
 70
0
 71
3
 72
11
 73
7
 74
0
 42
0.0000001
 43
0.0000001
 44
0.0000000001
 40
0.0
 40
0.0
 40
0.0
 40
0.0
 40
0.2177781615
 40
0.4509204528
 40
0.7102579945
 40
1.0
 40
1.0
 40
1.0
 40
1.0
 10
60.0924980289
 20
87.18276579
 30
0.0
 10
60.0925189493
 20
87.0618382226
 30
0.0
 10
60.0477978128
 20
86.8097757361
 30
0.0
 10
59.8567414986
 20
86.4585999406
 30
0.0
 10
59.5546903005
 20
86.1411025233
 30
0.0
 10
59.3019228971
 20
85.9670448062
 30
0.0
 10
59.1625899775
 20
85.8866013877
 30
0.0
  0
SPLINE
  5
28C
100
AcDbEntity
  8
0
100
AcDbSpline
 62
7
  6
BYLAYER
 70
0
 71
3
 72
13
 73
9
 74
0
 42
0.0000001
 43
0.0000001
 44
0.0000000001
 40
0.0
 40
0.0
 40
0.0
 40
0.0
 40
0.0870186095
 40
0.1868821964
 40
0.3045429645
 40
0.4386850547
 40
0.7300259559
 40
1.0
 40
1.0
 40
1.0
 40
1.0
 10
66.1517779555
 20
79.1982264079
 30
0.0
 10
66.15177785
 20
79.2128542208
 30
0.0
 10
66.1428240538
 20
79.2445161383
 30
0.0
 10
66.108412301
 20
79.2839004122
 30
0.0
 10
66.057342108
 20
79.3149691801
 30
0.0
 10
65.9701474137
 20
79.343940902
 30
0.0
 10
65.8514001545
 20
79.3500544301
 30
0.0
 10
65.7574746191
 20
79.324610142
 30
0.0
 10
65.7181720853
 20
79.301918949
 30
0.0
  0
SPLINE
  5
28D
100
AcDbEntity
  8
0
100
AcDbSpline
 62
7
  6
BYLAYER
 70
0
 71
3
 72
11
 73
7
 74
0
 42
0.0000001
 43
0.0000001
 44
0.0000000001
 40
0.0
 40
0.0
 40
0.0
 40
0.0
 40
0.2897036169
 40
0.5490920547
 40
0.7822205729
 40
1.0
 40
1.0
 40
1.0
 40
1.0
 10
26.0255716376
 20
72.8012226495
 30
0.0
 10
26.1425976738
 20
72.7336591645
 30
0.0
 10
26.3549136762
 20
72.5874249726
 30
0.0
 10
26.6086660462
 20
72.3207548785
 30
0.0
 10
26.7691783396
 20
72.0257446478
 30
0.0
 10
26.806708932
 20
71.8140164523
 30
0.0
 10
26.8067166128
 20
71.712435486
 30
0.0
  0
SPLINE
  5
28E
100
AcDbEntity
  8
0
100
AcDbSpline
 62
7
  6
BYLAYER
 70
0
 71
3
 72
17
 73
13
 74
0
 42
0.0000001
 43
0.0000001
 44
0.0000000001
 40
0.0
 40
0.0
 40
0.0
 40
0.0
 40
0.0428568701
 40
0.0874844395
 40
0.135315139
 40
0.1872799608
 40
0.3045407372
 40
0.4382085644
 40
0.5825518473
 40
0.7297129759
 40
0.8713035725
 40
1.0
 40
1.0
 40
1.0
 40
1.0
 10
53.7425345481
 20
90.2936399926
 30
0.0
 10
53.7425495752
 20
90.2032618054
 30
0.0
 10
53.7666716967
 20
90.01797867
 30
0.0
 10
53.872990564
 20
89.7504859475
 30
0.0
 10
54.0453434987
 20
89.4968120369
 30
0.0
 10
54.3699869452
 20
89.1710944072
 30
0.0
 10
54.9230341443
 20
88.8343630858
 30
0.0
 10
55.718305964
 20
88.5687376076
 30
0.0
 10
56.6107693104
 20
88.4433230002
 30
0.0
 10
57.5280851371
 20
88.4687256128
 30
0.0
 10
58.395396949
 20
88.6422051981
 30
0.0
 10
58.9275504245
 20
88.8617762578
 30
0.0
 10
59.1625899775
 20
88.997475597
 30
0.0
  0
SPLINE
  5
28F
100
AcDbEntity
  8
0
100
AcDbSpline
 62
7
  6
BYLAYER
 70
0
 71
3
 72
15
 73
11
 74
0
 42
0.0000001
 43
0.0000001
 44
0.0000000001
 40
0.0
 40
0.0
 40
0.0
 40
0.0
 40
0.1287974769
 40
0.2706060703
 40
0.4178807568
 40
0.5623765801
 40
0.6961925898
 40
0.8135912016
 40
0.913066129
 40
1.0
 40
1.0
 40
1.0
 40
1.0
 10
76.0270538834
 20
86.9326880357
 30
0.0
 10
76.0270538834
 20
86.8766095795
 30
0.0
 10
76.0113305815
 20
86.7586586771
 30
0.0
 10
75.952810543
 20
86.5854754911
 30
0.0
 10
75.8625002099
 20
86.4186622222
 30
0.0
 10
75.7478918073
 20
86.2719043514
 30
0.0
 10
75.6180306606
 20
86.1569098625
 30
0.0
 10
75.4826136283
 20
86.0829267861
 30
0.0
 10
75.350034888
 20
86.0563444267
 30
0.0
 10
75.2677060811
 20
86.0775694708
 30
0.0
 10
75.2349116231
 20
86.0964698427
 30
0.0
  0
SPLINE
  5
290
100
AcDbEntity
  8
0
100
AcDbSpline
 62
7
  6
BYLAYER
 70
0
 71
3
 72
16
 73
12
 74
0
 42
0.0000001
 43
0.0000001
 44
0.0000000001
 40
0.0
 40
0.0
 40
0.0
 40
0.0
 40
0.1287141939
 40
0.270431091
 40
0.4176105467
 40
0.5620129362
 40
0.6957424178
 40
0.8130651173
 40
0.9124757222
 40
0.9571196305
 40
1.0
 40
1.0
 40
1.0
 40
1.0
 10
78.413529334
 20
88.4262512726
 30
0.0
 10
78.413529334
 20
88.3621616085
 30
0.0
 10
78.3955594477
 20
88.2273608634
 30
0.0
 10
78.328681374
 20
88.0294358065
 30
0.0
 10
78.2254619728
 20
87.838797526
 30
0.0
 10
78.0945082326
 20
87.6710546341
 30
0.0
 10
77.9460050567
 20
87.5396973471
 30
0.0
 10
77.79152133
 20
87.4549450662
 30
0.0
 10
77.6603669853
 20
87.4293033751
 30
0.0
 10
77.567474262
 20
87.4429739824
 30
0.0
 10
77.5267226622
 20
87.4599119752
 30
0.0
 10
77.5082238936
 20
87.4705733378
 30
0.0
  0
SPLINE
  5
291
100
AcDbEntity
  8
0
100
AcDbSpline
 62
7
  6
BYLAYER
 70
0
 71
3
 72
11
 73
7
 74
0
 42
0.0000001
 43
0.0000001
 44
0.0000000001
 40
0.0
 40
0.0
 40
0.0
 40
0.0
 40
0.229161903
 40
0.4676584975
 40
0.7232342439
 40
1.0
 40
1.0
 40
1.0
 40
1.0
 10
39.2926277711
 20
68.9655366468
 30
0.0
 10
39.354559638
 20
68.9298154119
 30
0.0
 10
39.4719866539
 20
68.8401893692
 30
0.0
 10
39.6139323291
 20
68.6622857135
 30
0.0
 10
39.7203311896
 20
68.4448333069
 30
0.0
 10
39.765090077
 20
68.2839485883
 30
0.0
 10
39.7819006888
 20
68.1992538919
 30
0.0
  0
SPLINE
  5
292
100
AcDbEntity
  8
0
100
AcDbSpline
 62
7
  6
BYLAYER
 70
0
 71
3
 72
11
 73
7
 74
0
 42
0.0000001
 43
0.0000001
 44
0.0000000001
 40
0.0
 40
0.0
 40
0.0
 40
0.0
 40
0.2609340961
 40
0.5222298059
 40
0.7719623099
 40
1.0
 40
1.0
 40
1.0
 40
1.0
 10
39.341104261
 20
63.0527547703
 30
0.0
 10
39.1172350066
 20
63.3278141269
 30
0.0
 10
38.7129831449
 20
63.9152458026
 30
0.0
 10
38.2521453083
 20
64.8621932225
 30
0.0
 10
37.9568924186
 20
65.8266266188
 30
0.0
 10
37.8794289584
 20
66.4767174028
 30
0.0
 10
37.8794289584
 20
66.7866541884
 30
0.0
  0
SPLINE
  5
293
100
AcDbEntity
  8
0
100
AcDbSpline
 62
7
  6
BYLAYER
 70
0
 71
3
 72
10
 73
6
 74
0
 42
0.0000001
 43
0.0000001
 44
0.0000000001
 40
0.0
 40
0.0
 40
0.0
 40
0.0
 40
0.5312745682
 40
0.7703196314
 40
1.0
 40
1.0
 40
1.0
 40
1.0
 10
44.9162176726
 20
42.3316993391
 30
0.0
 10
44.9323155973
 20
42.2505952803
 30
0.0
 10
44.9733365304
 20
42.1338332737
 30
0.0
 10
45.0711613892
 20
42.0112494316
 30
0.0
 10
45.1298882833
 20
41.9664172661
 30
0.0
 10
45.1608547834
 20
41.9485590889
 30
0.0
  0
ENDSEC
  0
SECTION
  2
OBJECTS
  0
DICTIONARY
  5
C
100
AcDbDictionary
280
0
281
1
  3
ACAD_GROUP
350
D
  3
ACAD_MLINESTYLE
350
17
  3
ACAD_LAYOUT
350
1A
  3
ACAD_PLOTSETTINGS
350
19
  3
ACAD_PLOTSTYLENAME
350
E
  0
DICTIONARY
  5
D
102
{ACAD_REACTORS
330
C
102
}
100
AcDbDictionary
280
0
281
1
  0
ACDBDICTIONARYWDFLT
  5
E
102
{ACAD_REACTORS
330
C
102
}
100
AcDbDictionary
281
1
  3
Normal
350
F
100
AcDbDictionaryWithDefault
340
F
  0
DICTIONARY
  5
17
102
{ACAD_REACTORS
330
C
102
}
100
AcDbDictionary
280
0
281
1
  3
Standard
350
18
  0
DICTIONARY
  5
19
102
{ACAD_REACTORS
330
C
102
}
100
AcDbDictionary
281
1
  0
DICTIONARY
  5
1A
102
{ACAD_REACTORS
330
C
102
}
100
AcDbDictionary
281
1
  3
Model
350
294
  3
Layout1
350
295
  0
ACDBPLACEHOLDER
  5
F
102
{ACAD_REACTORS
330
E
102
}
  0
MLINESTYLE
  5
18
102
{ACAD_REACTORS
330
17
102
}
100
AcDbMlineStyle
  2
STANDARD
 70
0
  3

 62
256
 51
90.0
 52
90.0
 71
2
 49
0.5
 62
256
  6
BYLAYER
 49
-0.5
 62
256
  6
BYLAYER
  0
LAYOUT
  5
294
102
{ACAD_REACTORS
330
1A
102
}
100
AcDbPlotSettings
  1

  2
none_device
  4

  6

 40
0.0
 41
0.0
 42
0.0
 43
0.0
 44
210.0
 45
297.0
 46
0.0
 47
0.0
 48
0.0
 49
0.0
140
0.0
141
0.0
142
1.0
143
1.0
 70
1024
 72
1
 73
0
 74
0
  7

 75
0
147
1.0
148
0.0
149
0.0
100
AcDbLayout
  1
Model
 70
0
 71
0
 10
0.0
 20
0.0
 11
210.0
 21
297.0
 12
0.0
 22
0.0
 32
0.0
 14
0.0
 24
0.0
 34
0.0
 15
0.0
 25
0.0
 35
0.0
146
0.0
 13
0.0
 23
0.0
 33
0.0
 16
1.0
 26
0.0
 36
0.0
 17
0.0
 27
1.0
 37
0.0
 76
0
330
211
345
0
346
0
  0
LAYOUT
  5
295
102
{ACAD_REACTORS
330
1A
102
}
100
AcDbPlotSettings
  1

  2
none_device
  4

  6

 40
0.0
 41
0.0
 42
0.0
 43
0.0
 44
210.0
 45
297.0
 46
0.0
 47
0.0
 48
0.0
 49
0.0
140
0.0
141
0.0
142
1.0
143
1.0
 70
0
 72
1
 73
0
 74
0
  7

 75
0
147
1.0
148
0.0
149
0.0
100
AcDbLayout
  1
Layout1
 70
0
 71
1
 10
0.0
 20
0.0
 11
210.0
 21
297.0
 12
0.0
 22
0.0
 32
0.0
 14
0.0
 24
0.0
 34
0.0
 15
0.0
 25
0.0
 35
0.0
146
0.0
 13
0.0
 23
0.0
 33
0.0
 16
1.0
 26
0.0
 36
0.0
 17
0.0
 27
1.0
 37
0.0
 76
0
330
212
345
0
346
0
  0
ENDSEC
  0
EOF
