999
DXF file: C:\Users\sesa63760\Dev\_Creo\CAD\MCADID0001369_3D-CAD\drw0001_1.dxf
999
Pro/ENGINEER 2019471 by Parametric Technology Corporation
  0
SECTION
  2
HEADER
  9
$ACADVER
  1
AC1024
  9
$DWGCODEPAGE
  3
ANSI_1252
  9
$EXTMAX
 10
204.1421123907
 20
288.7152732383
 30
0.0
  9
$EXTMIN
 10
0.0
 20
0.0
 30
0.0
  9
$LIMMIN
 10
0.0
 20
0.0
  9
$LIMMAX
 10
204.1421123907
 20
288.7152732383
  9
$VIEWCTR
 10
102.0710561954
 20
144.3576366192
  9
$VIEWSIZE
 40
288.7152732383
  9
$CLAYER
  8
0
  9
$LTSCALE
 40
18.8199585518
  9
$CELTYPE
  6
BYLAYER
  9
$DIMSCALE
 40
1.0
  9
$DIMASZ
 40
2.4302632427
  9
$DIMEXO
 40
1.0
  9
$DIMDLI
 40
13.002880454
  9
$DIMEXE
 40
1.0
  9
$DIMCEN
 40
3.0796295812
  9
$DIMLFAC
 40
1.0
  9
$DIMBLK
  1
_FILLED
  9
$DIMALT
 70
0
  9
$DIMALTF
 40
0.0393700787
  9
$DIMTXT
 40
3.4023685398
  9
$DIMTOL
 70
1
  9
$DIMLIM
 70
0
  9
$DIMTFAC
 40
1.0
  9
$DIMTP
 40
0.01
  9
$DIMTM
 40
0.01
  9
$DIMGAP
 40
0.625
  9
$DIMDSEP
 70
46
  9
$AUNITS
 70
0
  9
$PDMODE
 70
3
  9
$PDSIZE
 40
0.3125
  9
$HANDSEED
  5
3DE
  9
$TILEMODE
 70
1
  9
$MEASUREMENT
 70
1
  9
$INSUNITS
 70
4
  0
ENDSEC
  0
SECTION
  2
CLASSES
  0
CLASS
  1
ACDBDICTIONARYWDFLT
  2
AcDbDictionaryWithDefault
  3
AutoCAD 2000
 90
0
 91
1
280
0
281
0
  0
CLASS
  1
ACDBPLACEHOLDER
  2
AcDbPlaceHolder
  3
AutoCAD 2000
 90
0
 91
1
280
0
281
0
  0
CLASS
  1
LAYOUT
  2
AcDbLayout
  3
AutoCAD 2000
 90
0
 91
0
280
0
281
0
  0
ENDSEC
  0
SECTION
  2
TABLES
  0
TABLE
  2
VPORT
  5
8
100
AcDbSymbolTable
 70
2
  0
VPORT
  5
1F4
100
AcDbSymbolTableRecord
100
AcDbViewportTableRecord
  2
*ACTIVE
 70
0
 10
0.0
 20
0.0
 11
1.0
 21
1.0
 12
102.0710561954
 22
144.3576366192
 13
0.0
 23
0.0
 14
1.0
 24
1.0
 15
0.0
 25
0.0
 16
0.0
 26
0.0
 36
1.0
 17
0.0
 27
0.0
 37
0.0
 40
288.7152732383
 41
0.7070707071
 42
50.0
 43
0.0
 44
0.0
 50
0.0
 51
0.0
 71
0
 72
100
 73
1
 74
1
 75
0
 76
0
 77
0
 78
0
  0
ENDTAB
  0
TABLE
  2
LTYPE
  5
5
100
AcDbSymbolTable
 70
6
  0
LTYPE
  5
14
100
AcDbSymbolTableRecord
100
AcDbLinetypeTableRecord
  2
BYBLOCK
 70
0
  3

 72
65
 73
0
 40
0.0
  0
LTYPE
  5
15
100
AcDbSymbolTableRecord
100
AcDbLinetypeTableRecord
  2
BYLAYER
 70
0
  3

 72
65
 73
0
 40
0.0
  0
LTYPE
  5
16
100
AcDbSymbolTableRecord
100
AcDbLinetypeTableRecord
  2
CONTINUOUS
 70
64
  3
Solid line
 72
65
 73
0
 40
0.0
  0
LTYPE
  5
1F5
100
AcDbSymbolTableRecord
100
AcDbLinetypeTableRecord
  2
CENTER
 70
64
  3
____ _ ____ _ ____ _ ____ _ ____ _ ____ _ ____
 72
65
 73
4
 40
0.6
 49
0.375
 74
0
 49
-0.075
 74
0
 49
0.075
 74
0
 49
-0.075
 74
0
  0
LTYPE
  5
1F6
100
AcDbSymbolTableRecord
100
AcDbLinetypeTableRecord
  2
HIDDEN
 70
64
  3
- - - - - - - - - - - - - - - - - - - -
 72
65
 73
2
 40
0.2
 49
0.1
 74
0
 49
-0.1
 74
0
  0
LTYPE
  5
1F7
100
AcDbSymbolTableRecord
100
AcDbLinetypeTableRecord
  2
PHANTOM
 70
64
  3
_____ _ _ _____ _ _ _____ _ _ _____
 72
65
 73
6
 40
0.8
 49
0.45
 74
0
 49
-0.05
 74
0
 49
0.1
 74
0
 49
-0.05
 74
0
 49
0.1
 74
0
 49
-0.05
 74
0
  0
LTYPE
  5
1F8
100
AcDbSymbolTableRecord
100
AcDbLinetypeTableRecord
  2
DOT
 70
64
  3
. . . . . . . . . . . . . . . . . . . .
 72
65
 73
2
 40
0.2
 49
0.1
 74
0
 49
-0.1
 74
0
  0
LTYPE
  5
1F9
100
AcDbSymbolTableRecord
100
AcDbLinetypeTableRecord
  2
DASHED
 70
64
  3
- - - - - - - - - - - - - - - - - - - -
 72
65
 73
2
 40
0.2
 49
0.1
 74
0
 49
-0.1
 74
0
  0
ENDTAB
  0
TABLE
  2
LAYER
  5
2
100
AcDbSymbolTable
 70
36
  0
LAYER
  5
10
100
AcDbSymbolTableRecord
100
AcDbLayerTableRecord
  2
0
 70
0
 62
7
  6
CONTINUOUS
370
-3
390
F
  0
LAYER
  5
1FA
100
AcDbSymbolTableRecord
100
AcDbLayerTableRecord
  2
DEFAULT_1
 70
0
 62
7
  6
CENTER
370
-3
390
F
  0
LAYER
  5
1FB
100
AcDbSymbolTableRecord
100
AcDbLayerTableRecord
  2
DEFAULT_2
 70
0
 62
8
  6
HIDDEN
370
-3
390
F
  0
LAYER
  5
1FC
100
AcDbSymbolTableRecord
100
AcDbLayerTableRecord
  2
DEFAULT_3
 70
0
 62
7
  6
PHANTOM
370
-3
390
F
  0
LAYER
  5
1FD
100
AcDbSymbolTableRecord
100
AcDbLayerTableRecord
  2
00_COMPONENTS
 70
0
 62
7
  6
CONTINUOUS
370
-3
390
F
  0
LAYER
  5
1FE
100
AcDbSymbolTableRecord
100
AcDbLayerTableRecord
  2
01_1_DEFAULT_DATUMS
 70
0
 62
7
  6
CONTINUOUS
370
-3
390
F
  0
LAYER
  5
1FF
100
AcDbSymbolTableRecord
100
AcDbLayerTableRecord
  2
01_PLANES
 70
0
 62
7
  6
CONTINUOUS
370
-3
390
F
  0
LAYER
  5
200
100
AcDbSymbolTableRecord
100
AcDbLayerTableRecord
  2
02_COORD_SYS
 70
0
 62
7
  6
CONTINUOUS
370
-3
390
F
  0
LAYER
  5
201
100
AcDbSymbolTableRecord
100
AcDbLayerTableRecord
  2
03_AXES
 70
0
 62
7
  6
CONTINUOUS
370
-3
390
F
  0
LAYER
  5
202
100
AcDbSymbolTableRecord
100
AcDbLayerTableRecord
  2
04_POINTS
 70
0
 62
7
  6
CONTINUOUS
370
-3
390
F
  0
LAYER
  5
203
100
AcDbSymbolTableRecord
100
AcDbLayerTableRecord
  2
05_CURVES
 70
0
 62
7
  6
CONTINUOUS
370
-3
390
F
  0
LAYER
  5
204
100
AcDbSymbolTableRecord
100
AcDbLayerTableRecord
  2
06_SURFS
 70
0
 62
7
  6
CONTINUOUS
370
-3
390
F
  0
LAYER
  5
205
100
AcDbSymbolTableRecord
100
AcDbLayerTableRecord
  2
07_COSMETICS
 70
0
 62
7
  6
CONTINUOUS
370
-3
390
F
  0
LAYER
  5
206
100
AcDbSymbolTableRecord
100
AcDbLayerTableRecord
  2
10_NOTES
 70
0
 62
7
  6
CONTINUOUS
370
-3
390
F
  0
LAYER
  5
207
100
AcDbSymbolTableRecord
100
AcDbLayerTableRecord
  2
11_NOTES_PUB
 70
0
 62
7
  6
CONTINUOUS
370
-3
390
F
  0
LAYER
  5
208
100
AcDbSymbolTableRecord
100
AcDbLayerTableRecord
  2
13_REF_GTOL
 70
0
 62
7
  6
CONTINUOUS
370
-3
390
F
  0
LAYER
  5
209
100
AcDbSymbolTableRecord
100
AcDbLayerTableRecord
  2
16_MISC
 70
0
 62
7
  6
CONTINUOUS
370
-3
390
F
  0
LAYER
  5
20A
100
AcDbSymbolTableRecord
100
AcDbLayerTableRecord
  2
17_NO_PRINT
 70
0
 62
7
  6
CONTINUOUS
370
-3
390
F
  0
LAYER
  5
20B
100
AcDbSymbolTableRecord
100
AcDbLayerTableRecord
  2
18_DATUM_CAMS_JOINTS
 70
0
 62
7
  6
CONTINUOUS
370
-3
390
F
  0
LAYER
  5
20C
100
AcDbSymbolTableRecord
100
AcDbLayerTableRecord
  2
19_DATUM_FUNCTIONAL
 70
0
 62
7
  6
CONTINUOUS
370
-3
390
F
  0
LAYER
  5
20D
100
AcDbSymbolTableRecord
100
AcDbLayerTableRecord
  2
20_DATUM_KINEMATIC_SCHEME
 70
0
 62
7
  6
CONTINUOUS
370
-3
390
F
  0
LAYER
  5
20E
100
AcDbSymbolTableRecord
100
AcDbLayerTableRecord
  2
_1
 70
0
 62
7
  6
CONTINUOUS
370
-3
390
F
  0
ENDTAB
  0
TABLE
  2
STYLE
  5
3
100
AcDbSymbolTable
 70
1
  0
STYLE
  5
11
100
AcDbSymbolTableRecord
100
AcDbTextStyleTableRecord
  2
STANDARD
 70
0
 40
0.0
 41
0.8
 50
0.0
 71
0
 42
0.2
  3
txt
  4

  0
STYLE
  5
20F
100
AcDbSymbolTableRecord
100
AcDbTextStyleTableRecord
  2
TEXTSTYLE_1
 70
0
 40
0.0
 41
0.8
 50
0.0
 71
0
 42
0.2
  3
gdt
  4

  0
ENDTAB
  0
TABLE
  2
VIEW
  5
6
100
AcDbSymbolTable
 70
0
  0
ENDTAB
  0
TABLE
  2
UCS
  5
7
100
AcDbSymbolTable
 70
0
  0
ENDTAB
  0
TABLE
  2
APPID
  5
9
100
AcDbSymbolTable
 70
1
  0
APPID
  5
210
100
AcDbSymbolTableRecord
100
AcDbRegAppTableRecord
  2
ACAD
 70
0
  0
ENDTAB
  0
TABLE
  2
BLOCK_RECORD
  5
1
100
AcDbSymbolTable
 70
0
  0
BLOCK_RECORD
  5
211
100
AcDbSymbolTableRecord
100
AcDbBlockTableRecord
  2
*Model_Space
  0
BLOCK_RECORD
  5
212
100
AcDbSymbolTableRecord
100
AcDbBlockTableRecord
  2
*Paper_Space
  0
BLOCK_RECORD
  5
213
100
AcDbSymbolTableRecord
100
AcDbBlockTableRecord
  2
_FILLED
  0
ENDTAB
  0
TABLE
  2
DIMSTYLE
  5
A
100
AcDbSymbolTable
 70
1
100
AcDbDimStyleTable
 71
0
  0
DIMSTYLE
105
214
100
AcDbSymbolTableRecord
100
AcDbDimStyleTableRecord
  2
STANDARD
 70
0
  3

  4

 40
1.0
 41
2.4302632427
 42
1.0
 43
0.38
 44
1.0
 45
0.0
 46
0.0
 47
0.01
 48
0.01
140
3.4023685398
141
0.09
142
0.0
143
25.4
144
1.0
145
0.0
146
1.0
147
0.625
 71
1
 72
0
 73
0
 74
0
 75
0
 76
0
 77
1
 78
8
 79
2
170
0
171
1
172
0
173
0
174
0
175
0
176
0
177
0
178
0
270
2
179
2
271
2
272
2
273
2
274
2
275
0
280
0
281
0
282
0
283
1
284
8
285
0
286
0
287
3
288
0
340
11
278
46
341
213
342
213
343
213
344
213
  0
ENDTAB
  0
ENDSEC
  0
SECTION
  2
BLOCKS
  0
BLOCK
  5
20
100
AcDbEntity
  8
0
100
AcDbBlockBegin
  2
*Model_Space
 70
0
 10
0.0
 20
0.0
 30
0.0
  3
*Model_Space
  1

  0
ENDBLK
  5
21
100
AcDbEntity
  8
0
100
AcDbBlockEnd
  0
BLOCK
  5
1C
100
AcDbEntity
  8
0
100
AcDbBlockBegin
  2
*Paper_Space
 70
0
 10
0.0
 20
0.0
 30
0.0
  3
*Paper_Space
  1

  0
ENDBLK
  5
1D
100
AcDbEntity
  8
0
100
AcDbBlockEnd
  0
BLOCK
  5
215
100
AcDbEntity
  8
0
100
AcDbBlockBegin
  2
_FILLED
 70
64
 10
0.0
 20
0.0
  3
_FILLED
  1

  0
SOLID
  5
216
100
AcDbEntity
  8
0
  6
BYBLOCK
 62
0
100
AcDbTrace
 10
0.0
 20
0.0
 11
-1.0
 21
0.25
 12
-1.0
 22
-0.25
 13
-1.0
 23
-0.25
  0
ENDBLK
  5
217
100
AcDbEntity
  8
0
  6
BYBLOCK
 62
0
100
AcDbBlockEnd
  0
ENDSEC
  0
SECTION
  2
ENTITIES
  0
LINE
  5
218
100
AcDbEntity
  8
_1
100
AcDbLine
 62
7
  6
CONTINUOUS
 10
58.8993411831
 20
63.467900624
 11
27.3573611962
 21
81.6782592868
  0
LINE
  5
219
100
AcDbEntity
  8
_1
100
AcDbLine
 62
7
  6
CONTINUOUS
 10
31.9897442127
 20
94.4748533162
 11
32.0009234381
 21
94.4460393504
  0
LINE
  5
21A
100
AcDbEntity
  8
_1
100
AcDbLine
 62
7
  6
CONTINUOUS
 10
31.8317326095
 20
94.4697695046
 11
31.8423345513
 21
94.4405076002
  0
LINE
  5
21B
100
AcDbEntity
  8
_1
100
AcDbLine
 62
7
  6
CONTINUOUS
 10
23.6828337481
 20
106.2535171758
 11
23.8219471934
 21
87.7662712356
  0
LINE
  5
21C
100
AcDbEntity
  8
_1
100
AcDbLine
 62
7
  6
CONTINUOUS
 10
23.8219471934
 20
124.5801323797
 11
23.6828337481
 21
106.2535171758
  0
LINE
  5
21D
100
AcDbEntity
  8
_1
100
AcDbLine
 62
7
  6
CONTINUOUS
 10
31.3753455501
 20
93.761419973
 11
31.3753455501
 21
92.6780950581
  0
LINE
  5
21E
100
AcDbEntity
  8
_1
100
AcDbLine
 62
7
  6
CONTINUOUS
 10
33.9360101378
 20
91.9591214396
 11
33.9360101378
 21
93.1490588412
  0
LINE
  5
21F
100
AcDbEntity
  8
_1
100
AcDbLine
 62
7
  6
CONTINUOUS
 10
40.2999446727
 20
96.823256226
 11
40.2999446727
 21
95.6333188244
  0
LINE
  5
220
100
AcDbEntity
  8
_1
100
AcDbLine
 62
7
  6
CONTINUOUS
 10
40.739280085
 20
97.4356173578
 11
40.739280085
 21
96.3522924429
  0
LINE
  5
221
100
AcDbEntity
  8
_1
100
AcDbLine
 62
7
  6
CONTINUOUS
 10
43.2245261315
 20
123.4003095662
 11
43.2245261315
 21
124.0535114999
  0
LINE
  5
222
100
AcDbEntity
  8
_1
100
AcDbLine
 62
7
  6
CONTINUOUS
 10
44.8667999962
 20
119.1376027265
 11
43.8207790259
 21
121.3913949198
  0
LINE
  5
223
100
AcDbEntity
  8
_1
100
AcDbLine
 62
7
  6
CONTINUOUS
 10
44.8667999962
 20
123.1384645704
 11
43.8207790259
 21
125.3922567637
  0
LINE
  5
224
100
AcDbEntity
  8
_1
100
AcDbLine
 62
7
  6
CONTINUOUS
 10
43.8207790259
 20
128.0050644985
 11
44.8667999962
 21
125.7512723052
  0
LINE
  5
225
100
AcDbEntity
  8
_1
100
AcDbLine
 62
7
  6
CONTINUOUS
 10
43.7245261315
 20
120.7875018314
 11
43.7245261315
 21
120.3792506228
  0
LINE
  5
226
100
AcDbEntity
  8
_1
100
AcDbLine
 62
7
  6
CONTINUOUS
 10
43.8207790259
 20
121.3913949198
 11
43.8207790259
 21
122.1365911787
  0
LINE
  5
227
100
AcDbEntity
  8
_1
100
AcDbLine
 62
7
  6
CONTINUOUS
 10
43.8207790259
 20
125.3922567637
 11
43.8207790259
 21
128.0050644985
  0
LINE
  5
228
100
AcDbEntity
  8
_1
100
AcDbLine
 62
7
  6
CONTINUOUS
 10
43.9245261315
 20
124.0535114999
 11
43.9245261315
 21
124.7883636753
  0
LINE
  5
229
100
AcDbEntity
  8
_1
100
AcDbLine
 62
7
  6
CONTINUOUS
 10
44.8667999962
 20
119.1376027265
 11
44.8667999962
 21
121.4273582643
  0
LINE
  5
22A
100
AcDbEntity
  8
_1
100
AcDbLine
 62
7
  6
CONTINUOUS
 10
44.8667999962
 20
123.1384645704
 11
44.8667999962
 21
125.7512723052
  0
LINE
  5
22B
100
AcDbEntity
  8
_1
100
AcDbLine
 62
7
  6
CONTINUOUS
 10
45.7245261315
 20
127.4011714102
 11
45.7245261315
 21
130.585530837
  0
LINE
  5
22C
100
AcDbEntity
  8
_1
100
AcDbLine
 62
7
  6
CONTINUOUS
 10
48.7705471019
 20
118.5337096381
 11
48.7705471019
 21
120.8984506412
  0
LINE
  5
22D
100
AcDbEntity
  8
_1
100
AcDbLine
 62
7
  6
CONTINUOUS
 10
48.7705471019
 20
122.5345714821
 11
48.7705471019
 21
125.1473792169
  0
LINE
  5
22E
100
AcDbEntity
  8
_1
100
AcDbLine
 62
7
  6
CONTINUOUS
 10
49.7245261315
 20
127.4011714102
 11
49.7245261315
 21
130.585530837
  0
LINE
  5
22F
100
AcDbEntity
  8
_1
100
AcDbLine
 62
7
  6
CONTINUOUS
 10
43.9607663501
 20
125.0906353359
 11
43.9245323108
 21
124.7883636749
  0
LINE
  5
230
100
AcDbEntity
  8
_1
100
AcDbLine
 62
7
  6
CONTINUOUS
 10
138.8226764649
 20
220.1381026051
 11
114.5269270269
 21
208.5654911418
  0
LINE
  5
231
100
AcDbEntity
  8
_1
100
AcDbLine
 62
7
  6
CONTINUOUS
 10
27.3573611962
 20
126.5858922289
 11
58.8993411831
 21
108.3755335661
  0
LINE
  5
232
100
AcDbEntity
  8
_1
100
AcDbLine
 62
7
  6
CONTINUOUS
 10
51.6282732372
 20
126.7972783218
 11
50.5822522669
 21
129.0510705151
  0
LINE
  5
233
100
AcDbEntity
  8
_1
100
AcDbLine
 62
7
  6
CONTINUOUS
 10
51.5245261315
 20
124.0535114999
 11
51.5245261315
 21
124.1245725251
  0
LINE
  5
234
100
AcDbEntity
  8
_1
100
AcDbLine
 62
7
  6
CONTINUOUS
 10
51.6282732372
 20
120.183608743
 11
51.6282732372
 21
122.1355518619
  0
LINE
  5
235
100
AcDbEntity
  8
_1
100
AcDbLine
 62
7
  6
CONTINUOUS
 10
51.6282732372
 20
124.184470587
 11
51.6282732372
 21
126.7972783218
  0
LINE
  5
236
100
AcDbEntity
  8
_1
100
AcDbLine
 62
7
  6
CONTINUOUS
 10
51.7245261315
 20
120.7875018314
 11
51.7245261315
 21
120.3792506228
  0
LINE
  5
237
100
AcDbEntity
  8
_1
100
AcDbLine
 62
7
  6
CONTINUOUS
 10
52.2245261315
 20
123.4003095662
 11
52.2245261315
 21
124.0535114999
  0
LINE
  5
238
100
AcDbEntity
  8
_1
100
AcDbLine
 62
7
  6
CONTINUOUS
 10
54.088501882
 20
118.0931029238
 11
54.088501882
 21
118.3380536489
  0
LINE
  5
239
100
AcDbEntity
  8
_1
100
AcDbLine
 62
7
  6
CONTINUOUS
 10
151.009876725
 20
225.9088194659
 11
141.6022168226
 21
220.4773369104
  0
LINE
  5
23A
100
AcDbEntity
  8
_1
100
AcDbLine
 62
7
  6
CONTINUOUS
 10
33.7212957312
 20
130.2600896138
 11
37.8188313322
 21
127.8944298499
  0
LINE
  5
23B
100
AcDbEntity
  8
_1
100
AcDbLine
 62
7
  6
CONTINUOUS
 10
61.165740117
 20
114.4153907148
 11
65.263275718
 21
112.049730951
  0
LINE
  5
23C
100
AcDbEntity
  8
_1
100
AcDbLine
 62
7
  6
CONTINUOUS
 10
62.5738686312
 20
83.8002756772
 11
62.4347551859
 21
102.2875216173
  0
LINE
  5
23D
100
AcDbEntity
  8
_1
100
AcDbLine
 62
7
  6
CONTINUOUS
 10
62.4347551859
 20
65.4736604732
 11
62.5738686312
 21
83.8002756772
  0
LINE
  5
23E
100
AcDbEntity
  8
_1
100
AcDbLine
 62
7
  6
CONTINUOUS
 10
68.7986897209
 20
105.9617190021
 11
68.8883874612
 21
94.0414895647
  0
LINE
  5
23F
100
AcDbEntity
  8
_1
100
AcDbLine
 62
7
  6
CONTINUOUS
 10
68.5841305449
 20
126.4621080782
 11
68.5841305449
 21
126.7070588033
  0
LINE
  5
240
100
AcDbEntity
  8
_1
100
AcDbLine
 62
7
  6
CONTINUOUS
 10
68.8883874612
 20
80.9645156096
 11
68.7986897209
 21
69.147857858
  0
LINE
  5
241
100
AcDbEntity
  8
_1
100
AcDbLine
 62
7
  6
CONTINUOUS
 10
158.2682056823
 20
207.4213814495
 11
135.3866639188
 21
196.5223888834
  0
LINE
  5
242
100
AcDbEntity
  8
_1
100
AcDbLine
 62
7
  6
CONTINUOUS
 10
48.7705471019
 20
118.5337096381
 11
44.8667999962
 21
119.1376027265
  0
LINE
  5
243
100
AcDbEntity
  8
_1
100
AcDbLine
 62
7
  6
CONTINUOUS
 10
48.7705471019
 20
122.5345714821
 11
44.8667999962
 21
123.1384645704
  0
LINE
  5
244
100
AcDbEntity
  8
_1
100
AcDbLine
 62
7
  6
CONTINUOUS
 10
58.6845943928
 20
132.4224293666
 11
68.5841305449
 21
126.7070588033
  0
LINE
  5
245
100
AcDbEntity
  8
_1
100
AcDbLine
 62
7
  6
CONTINUOUS
 10
114.5269890521
 20
208.5632972579
 11
114.5110527425
 21
208.5382889244
  0
LINE
  5
246
100
AcDbEntity
  8
_1
100
AcDbLine
 62
7
  6
CONTINUOUS
 10
169.7483021052
 20
212.640984746
 11
161.2906084832
 21
207.7579622043
  0
LINE
  5
247
100
AcDbEntity
  8
_1
100
AcDbLine
 62
7
  6
CONTINUOUS
 10
111.2276645315
 20
177.1702282063
 11
111.0461079817
 21
177.0654071091
  0
LINE
  5
248
100
AcDbEntity
  8
_1
100
AcDbLine
 62
7
  6
CONTINUOUS
 10
24.8573723884
 20
126.833513624
 11
31.2213069234
 21
130.5077110089
  0
LINE
  5
249
100
AcDbEntity
  8
_1
100
AcDbLine
 62
7
  6
CONTINUOUS
 10
112.9230635397
 20
176.7963726372
 11
113.099839499
 21
176.8984336757
  0
LINE
  5
24A
100
AcDbEntity
  8
_1
100
AcDbLine
 62
7
  6
CONTINUOUS
 10
27.3573611962
 20
126.5858922289
 11
33.7212957312
 21
130.2600896138
  0
LINE
  5
24B
100
AcDbEntity
  8
_1
100
AcDbLine
 62
7
  6
CONTINUOUS
 10
44.8667999962
 20
125.7512723052
 11
48.7705471019
 21
125.1473792169
  0
LINE
  5
24C
100
AcDbEntity
  8
_1
100
AcDbLine
 62
7
  6
CONTINUOUS
 10
50.5822522669
 20
129.0510705151
 11
49.7245261315
 21
129.1837571033
  0
LWPOLYLINE
  5
24D
100
AcDbEntity
  8
_1
100
AcDbPolyline
 62
7
  6
CONTINUOUS
 90
4
 70
0
 10
110.5910339896
 20
176.7247278377
 10
107.3232991792
 20
173.1295672944
 10
104.1607012625
 20
169.7200631758
 10
101.3148563777
 20
166.8340005258
  0
LINE
  5
24E
100
AcDbEntity
  8
_1
100
AcDbLine
 62
7
  6
CONTINUOUS
 10
100.047665377
 20
164.3864715507
 11
112.9230664048
 21
176.796349374
  0
LINE
  5
24F
100
AcDbEntity
  8
_1
100
AcDbLine
 62
7
  6
CONTINUOUS
 10
96.4491018128
 20
162.2021969965
 11
101.3148461646
 21
166.8340031894
  0
LWPOLYLINE
  5
250
100
AcDbEntity
  8
_1
100
AcDbPolyline
 62
7
  6
CONTINUOUS
 90
4
 70
0
 10
99.1155572045
 20
164.7404529556
 10
98.3369882891
 20
164.0371583988
 10
97.3923546838
 20
163.278405835
 10
96.8709337883
 20
162.9001340647
  0
LINE
  5
251
100
AcDbEntity
  8
_1
100
AcDbLine
 62
7
  6
CONTINUOUS
 10
110.9231101531
 20
176.9943947035
 11
110.5909733306
 21
176.7246928164
  0
LWPOLYLINE
  5
252
100
AcDbEntity
  8
_1
100
AcDbPolyline
 62
7
  6
CONTINUOUS
 90
3
 70
0
 10
96.6174700052
 20
162.7253096398
 10
93.0724199752
 20
160.2412998336
 10
92.4934356891
 20
159.8368010098
  0
LINE
  5
253
100
AcDbEntity
  8
_1
100
AcDbLine
 62
7
  6
CONTINUOUS
 10
96.8709337883
 20
162.9001340647
 11
96.6185295966
 21
162.7233899799
  0
LINE
  5
254
100
AcDbEntity
  8
_1
100
AcDbLine
 62
7
  6
CONTINUOUS
 10
102.0966374791
 20
165.6571872604
 11
116.484246356
 21
174.7403692926
  0
LWPOLYLINE
  5
255
100
AcDbEntity
  8
_1
100
AcDbPolyline
 62
7
  6
CONTINUOUS
 90
3
 70
0
 10
102.0966372335
 20
165.657187399
 10
99.552622047
 20
164.0794593274
 10
95.263304302
 20
161.4849298834
  0
LINE
  5
256
100
AcDbEntity
  8
_1
100
AcDbLine
 62
7
  6
CONTINUOUS
 10
95.263304302
 20
161.4849298834
 11
90.3486330607
 21
158.560599271
  0
LINE
  5
257
100
AcDbEntity
  8
_1
100
AcDbLine
 62
7
  6
CONTINUOUS
 10
90.3516213616
 20
158.5622656693
 11
37.5259404728
 21
128.0635266409
  0
LINE
  5
258
100
AcDbEntity
  8
_1
100
AcDbLine
 62
7
  6
CONTINUOUS
 10
37.8188313322
 20
127.8944298499
 11
117.7215649373
 21
174.0260192374
  0
LINE
  5
259
100
AcDbEntity
  8
_1
100
AcDbLine
 62
7
  6
CONTINUOUS
 10
43.8207790259
 20
128.0050644985
 11
45.7245261315
 21
129.1041868416
  0
LINE
  5
25A
100
AcDbEntity
  8
_1
100
AcDbLine
 62
7
  6
CONTINUOUS
 10
51.0604776967
 20
128.0206698147
 11
58.6845943928
 21
132.4224293666
  0
LINE
  5
25B
100
AcDbEntity
  8
_1
100
AcDbLine
 62
7
  6
CONTINUOUS
 10
135.370789578
 20
176.0030075362
 11
130.632440741
 21
173.2673368893
  0
LINE
  5
25C
100
AcDbEntity
  8
_1
100
AcDbLine
 62
7
  6
CONTINUOUS
 10
51.6282732372
 20
126.7972783218
 11
48.7705471019
 21
125.1473792169
  0
LINE
  5
25D
100
AcDbEntity
  8
_1
100
AcDbLine
 62
7
  6
CONTINUOUS
 10
51.6282732372
 20
124.184470587
 11
48.7705471019
 21
122.5345714821
  0
LINE
  5
25E
100
AcDbEntity
  8
_1
100
AcDbLine
 62
7
  6
CONTINUOUS
 10
132.2286539544
 20
170.432994398
 11
130.632440741
 21
169.5114257705
  0
LINE
  5
25F
100
AcDbEntity
  8
_1
100
AcDbLine
 62
7
  6
CONTINUOUS
 10
33.1283959584
 20
112.3474303494
 11
31.714188284
 21
111.5309420416
  0
LINE
  5
260
100
AcDbEntity
  8
_1
100
AcDbLine
 62
7
  6
CONTINUOUS
 10
135.3867264177
 20
196.5201782094
 11
135.3707896341
 21
196.4951911666
  0
LINE
  5
261
100
AcDbEntity
  8
_1
100
AcDbLine
 62
7
  6
CONTINUOUS
 10
48.7705471019
 20
118.5337096381
 11
51.6282732372
 21
120.183608743
  0
LINE
  5
262
100
AcDbEntity
  8
_1
100
AcDbLine
 62
7
  6
CONTINUOUS
 10
181.248250621
 20
192.7223707346
 11
174.283368203
 21
188.7012179988
  0
LINE
  5
263
100
AcDbEntity
  8
_1
100
AcDbLine
 62
7
  6
CONTINUOUS
 10
68.5841305449
 20
126.7070588033
 11
54.088501882
 21
118.3380536489
  0
LINE
  5
264
100
AcDbEntity
  8
_1
100
AcDbLine
 62
7
  6
CONTINUOUS
 10
68.5841305449
 20
126.4621080782
 11
54.088501882
 21
118.0931029238
  0
LINE
  5
265
100
AcDbEntity
  8
_1
100
AcDbLine
 62
7
  6
CONTINUOUS
 10
118.4660312258
 20
134.404889633
 11
120.4530257654
 21
133.257723753
  0
LINE
  5
266
100
AcDbEntity
  8
_1
100
AcDbLine
 62
7
  6
CONTINUOUS
 10
111.3689170626
 20
178.9009631245
 11
111.3689170626
 21
182.6568742433
  0
LINE
  5
267
100
AcDbEntity
  8
_1
100
AcDbLine
 62
7
  6
CONTINUOUS
 10
111.6189170626
 20
182.6568742433
 11
111.6189170626
 21
184.2898790776
  0
LINE
  5
268
100
AcDbEntity
  8
_1
100
AcDbLine
 62
7
  6
CONTINUOUS
 10
112.247605551
 20
177.6762306629
 11
112.247605551
 21
181.4321417817
  0
LINE
  5
269
100
AcDbEntity
  8
_1
100
AcDbLine
 62
7
  6
CONTINUOUS
 10
111.1256691336
 20
178.608940673
 11
111.1028332346
 21
177.0981572536
  0
LINE
  5
26A
100
AcDbEntity
  8
_1
100
AcDbLine
 62
7
  6
CONTINUOUS
 10
111.7037372157
 20
177.2770344537
 11
111.711376074
 21
177.7824080474
  0
LINE
  5
26B
100
AcDbEntity
  8
_1
100
AcDbLine
 62
7
  6
CONTINUOUS
 10
114.9056111408
 20
143.8160996097
 11
142.3057923035
 21
159.8326300471
  0
LINE
  5
26C
100
AcDbEntity
  8
_1
100
AcDbLine
 62
7
  6
CONTINUOUS
 10
141.0684737222
 20
160.5469801023
 11
61.165740117
 21
114.4153907148
  0
LINE
  5
26D
100
AcDbEntity
  8
_1
100
AcDbLine
 62
7
  6
CONTINUOUS
 10
62.5737741372
 20
113.6024802847
 11
114.9056107086
 21
143.8160998654
  0
LINE
  5
26E
100
AcDbEntity
  8
_1
100
AcDbLine
 62
7
  6
CONTINUOUS
 10
31.8146809623
 20
94.3737811048
 11
38.1786154973
 21
98.0479784896
  0
LINE
  5
26F
100
AcDbEntity
  8
_1
100
AcDbLine
 62
7
  6
CONTINUOUS
 10
40.524809344
 20
98.7198944822
 11
39.6777926286
 21
98.2308720726
  0
LINE
  5
270
100
AcDbEntity
  8
_1
100
AcDbLine
 62
7
  6
CONTINUOUS
 10
31.3753455501
 20
93.4374806296
 11
26.7362845184
 21
90.7591334817
  0
LINE
  5
271
100
AcDbEntity
  8
_1
100
AcDbLine
 62
7
  6
CONTINUOUS
 10
114.198527908
 20
145.0337022552
 11
90.8516191232
 21
158.5127413903
  0
LINE
  5
272
100
AcDbEntity
  8
_1
100
AcDbLine
 62
7
  6
CONTINUOUS
 10
114.9056107086
 20
143.8160998654
 11
114.930617222
 21
140.4929015824
  0
LINE
  5
273
100
AcDbEntity
  8
_1
100
AcDbLine
 62
7
  6
CONTINUOUS
 10
114.5110526862
 20
185.5963169385
 11
114.5110526862
 21
208.5403466619
  0
LINE
  5
274
100
AcDbEntity
  8
_1
100
AcDbLine
 62
7
  6
CONTINUOUS
 10
170.8713130955
 20
175.0203481145
 11
159.2703257301
 21
167.8378441168
  0
LINE
  5
275
100
AcDbEntity
  8
_1
100
AcDbLine
 62
7
  6
CONTINUOUS
 10
65.263275718
 20
112.049730951
 11
58.8993411831
 21
108.3755335661
  0
LINE
  5
276
100
AcDbEntity
  8
_1
100
AcDbLine
 62
7
  6
CONTINUOUS
 10
114.930617222
 20
140.4929015824
 11
65.4439495314
 21
111.9219312156
  0
LINE
  5
277
100
AcDbEntity
  8
_1
100
AcDbLine
 62
7
  6
CONTINUOUS
 10
165.6342543771
 20
169.3891177084
 11
151.4921776328
 21
161.224234631
  0
LINE
  5
278
100
AcDbEntity
  8
_1
100
AcDbLine
 62
7
  6
CONTINUOUS
 10
146.0437510791
 20
157.8786877409
 11
145.8669751198
 21
157.7766267025
  0
LINE
  5
279
100
AcDbEntity
  8
_1
100
AcDbLine
 62
7
  6
CONTINUOUS
 10
40.2999446727
 20
96.823256226
 11
33.9360101378
 21
93.1490588412
  0
LINE
  5
27A
100
AcDbEntity
  8
_1
100
AcDbLine
 62
7
  6
CONTINUOUS
 10
40.2999446727
 20
95.6333188244
 11
33.9360101378
 21
91.9591214396
  0
LINE
  5
27B
100
AcDbEntity
  8
_1
100
AcDbLine
 62
7
  6
CONTINUOUS
 10
168.9665598514
 20
168.1183407088
 11
166.7033663435
 21
166.8116931275
  0
LINE
  5
27C
100
AcDbEntity
  8
_1
100
AcDbLine
 62
7
  6
CONTINUOUS
 10
172.0392046315
 20
169.6103145863
 11
169.2107892826
 21
167.9773379708
  0
LINE
  5
27D
100
AcDbEntity
  8
_1
100
AcDbLine
 62
7
  6
CONTINUOUS
 10
166.1734933834
 20
166.0180223379
 11
169.1786846915
 21
167.7530599919
  0
LINE
  5
27E
100
AcDbEntity
  8
_1
100
AcDbLine
 62
7
  6
CONTINUOUS
 10
165.6342543771
 20
165.6332065896
 11
151.4921776328
 21
157.4683235122
  0
LINE
  5
27F
100
AcDbEntity
  8
_1
100
AcDbLine
 62
7
  6
CONTINUOUS
 10
148.6953063231
 20
152.9062171418
 11
150.2617683002
 21
153.8106089874
  0
LINE
  5
280
100
AcDbEntity
  8
_1
100
AcDbLine
 62
7
  6
CONTINUOUS
 10
62.4347551859
 20
102.2875216173
 11
68.7986897209
 21
105.9617190021
  0
LINE
  5
281
100
AcDbEntity
  8
_1
100
AcDbLine
 62
7
  6
CONTINUOUS
 10
114.9306172219
 20
140.4929015836
 11
145.8669750843
 21
157.7766267229
  0
LINE
  5
282
100
AcDbEntity
  8
_1
100
AcDbLine
 62
7
  6
CONTINUOUS
 10
152.1483804218
 20
163.9368000645
 11
152.1208484574
 21
163.9315782377
  0
LINE
  5
283
100
AcDbEntity
  8
_1
100
AcDbLine
 62
7
  6
CONTINUOUS
 10
152.1731385513
 20
163.8772891027
 11
152.1448019987
 21
163.8733805902
  0
LINE
  5
284
100
AcDbEntity
  8
_1
100
AcDbLine
 62
7
  6
CONTINUOUS
 10
121.9211752522
 20
124.6598011051
 11
121.9705909572
 21
118.0927846024
  0
LINE
  5
285
100
AcDbEntity
  8
_1
100
AcDbLine
 62
7
  6
CONTINUOUS
 10
125.7611115655
 20
174.4920591529
 11
125.7611115655
 21
176.1250639871
  0
LINE
  5
286
100
AcDbEntity
  8
_1
100
AcDbLine
 62
7
  6
CONTINUOUS
 10
126.3898000539
 20
173.2673266913
 11
126.3898000539
 21
169.5114155725
  0
LINE
  5
287
100
AcDbEntity
  8
_1
100
AcDbLine
 62
7
  6
CONTINUOUS
 10
126.5826959201
 20
177.6145271621
 11
126.5826959201
 21
177.3968997746
  0
LINE
  5
288
100
AcDbEntity
  8
_1
100
AcDbLine
 62
7
  6
CONTINUOUS
 10
124.7798200377
 20
170.2375090954
 11
124.7792029575
 21
170.1555025844
  0
LINE
  5
289
100
AcDbEntity
  8
_1
100
AcDbLine
 62
7
  6
CONTINUOUS
 10
121.9705909572
 20
118.0927846024
 11
121.9211752522
 21
111.5828271499
  0
LINE
  5
28A
100
AcDbEntity
  8
_1
100
AcDbLine
 62
7
  6
CONTINUOUS
 10
125.658676956
 20
169.0017295665
 11
125.4566660602
 21
167.9983259641
  0
LINE
  5
28B
100
AcDbEntity
  8
_1
100
AcDbLine
 62
7
  6
CONTINUOUS
 10
118.4660305857
 20
134.4048939113
 11
148.6952699122
 21
152.9062121796
  0
LINE
  5
28C
100
AcDbEntity
  8
_1
100
AcDbLine
 62
7
  6
CONTINUOUS
 10
68.8004287637
 20
105.7306118455
 11
118.4660312248
 21
134.4048896335
  0
LINE
  5
28D
100
AcDbEntity
  8
_1
100
AcDbLine
 62
7
  6
CONTINUOUS
 10
45.0247891981
 20
90.9256542169
 11
31.2362643724
 21
82.9648932164
  0
LINE
  5
28E
100
AcDbEntity
  8
_1
100
AcDbLine
 62
7
  6
CONTINUOUS
 10
120.4530257654
 20
133.257723753
 11
68.8176186911
 21
103.4461855299
  0
LINE
  5
28F
100
AcDbEntity
  8
_1
100
AcDbLine
 62
7
  6
CONTINUOUS
 10
173.4236883665
 20
162.585177747
 11
172.0978277358
 21
161.8196963242
  0
LINE
  5
290
100
AcDbEntity
  8
_1
100
AcDbLine
 62
7
  6
CONTINUOUS
 10
68.8284774129
 20
102.0031340722
 11
121.1452755307
 21
132.2080712495
  0
LINE
  5
291
100
AcDbEntity
  8
_1
100
AcDbLine
 62
7
  6
CONTINUOUS
 10
131.5728007252
 20
165.0851286944
 11
131.572605745
 21
165.1672700383
  0
LINE
  5
292
100
AcDbEntity
  8
_1
100
AcDbLine
 62
7
  6
CONTINUOUS
 10
130.4395080752
 20
177.3596480212
 11
130.4395080752
 21
177.6142766297
  0
LINE
  5
293
100
AcDbEntity
  8
_1
100
AcDbLine
 62
7
  6
CONTINUOUS
 10
130.632440741
 20
169.5114257705
 11
130.632440741
 21
173.2673368893
  0
LINE
  5
294
100
AcDbEntity
  8
_1
100
AcDbLine
 62
7
  6
CONTINUOUS
 10
131.2611115655
 20
174.4920591529
 11
131.2611115655
 21
176.1250639871
  0
LINE
  5
295
100
AcDbEntity
  8
_1
100
AcDbLine
 62
7
  6
CONTINUOUS
 10
132.2286539544
 20
166.8578608661
 11
132.2286539544
 21
170.6137719849
  0
LINE
  5
296
100
AcDbEntity
  8
_1
100
AcDbLine
 62
7
  6
CONTINUOUS
 10
132.4786539544
 20
170.6137719849
 11
132.4786539544
 21
172.2467768192
  0
LINE
  5
297
100
AcDbEntity
  8
_1
100
AcDbLine
 62
7
  6
CONTINUOUS
 10
133.1073424428
 20
165.6331284045
 11
133.1073424428
 21
169.3890395233
  0
LINE
  5
298
100
AcDbEntity
  8
_1
100
AcDbLine
 62
7
  6
CONTINUOUS
 10
134.3643876206
 20
164.6216188322
 11
134.3650047007
 21
164.7036253432
  0
LINE
  5
299
100
AcDbEntity
  8
_1
100
AcDbLine
 62
7
  6
CONTINUOUS
 10
68.8883874612
 20
94.0414895647
 11
121.9211752522
 21
124.6598011051
  0
LINE
  5
29A
100
AcDbEntity
  8
_1
100
AcDbLine
 62
7
  6
CONTINUOUS
 10
121.9229888605
 20
124.4187846954
 11
148.7929346747
 21
139.9320625425
  0
LINE
  5
29B
100
AcDbEntity
  8
_1
100
AcDbLine
 62
7
  6
CONTINUOUS
 10
173.866352651
 20
152.5454010322
 11
169.3465480505
 21
149.935906206
  0
LINE
  5
29C
100
AcDbEntity
  8
_1
100
AcDbLine
 62
7
  6
CONTINUOUS
 10
111.2276496346
 20
177.1702942575
 11
111.7037383203
 21
177.2771075275
  0
LINE
  5
29D
100
AcDbEntity
  8
_1
100
AcDbLine
 62
7
  6
CONTINUOUS
 10
131.2886435299
 20
175.9799023228
 11
131.2611115655
 21
175.9746804961
  0
LINE
  5
29E
100
AcDbEntity
  8
_1
100
AcDbLine
 62
7
  6
CONTINUOUS
 10
131.3134016595
 20
175.9203913611
 11
131.2850651069
 21
175.9164828486
  0
LINE
  5
29F
100
AcDbEntity
  8
_1
100
AcDbLine
 62
7
  6
CONTINUOUS
 10
146.5968742626
 20
163.8733682066
 11
146.5685353592
 21
163.8772769244
  0
LINE
  5
2A0
100
AcDbEntity
  8
_1
100
AcDbLine
 62
7
  6
CONTINUOUS
 10
146.6208484574
 20
163.931617818
 11
146.5933151133
 21
163.9368416652
  0
LINE
  5
2A1
100
AcDbEntity
  8
_1
100
AcDbLine
 62
7
  6
CONTINUOUS
 10
135.370789578
 20
173.5532146801
 11
135.370789578
 21
196.4972444035
  0
LINE
  5
2A2
100
AcDbEntity
  8
_1
100
AcDbLine
 62
7
  6
CONTINUOUS
 10
62.5738686312
 20
83.8002756772
 11
173.904738189
 21
148.0767995064
  0
LINE
  5
2A3
100
AcDbEntity
  8
_1
100
AcDbLine
 62
7
  6
CONTINUOUS
 10
53.1283064209
 20
77.7063625036
 11
51.7140987464
 21
76.8898741958
  0
LINE
  5
2A4
100
AcDbEntity
  8
_1
100
AcDbLine
 62
7
  6
CONTINUOUS
 10
172.1279687718
 20
140.8871115058
 11
173.7887759918
 21
141.8459732777
  0
LINE
  5
2A5
100
AcDbEntity
  8
_1
100
AcDbLine
 62
7
  6
CONTINUOUS
 10
172.1273613027
 20
140.8070843573
 11
121.9229888605
 21
111.8217494324
  0
LINE
  5
2A6
100
AcDbEntity
  8
_1
100
AcDbLine
 62
7
  6
CONTINUOUS
 10
121.9211752522
 20
111.5828271499
 11
68.8883874612
 21
80.9645156096
  0
LINE
  5
2A7
100
AcDbEntity
  8
_1
100
AcDbLine
 62
7
  6
CONTINUOUS
 10
125.7371373707
 20
175.9164704649
 11
125.7087984674
 21
175.9203791827
  0
LINE
  5
2A8
100
AcDbEntity
  8
_1
100
AcDbLine
 62
7
  6
CONTINUOUS
 10
125.7611115655
 20
175.9747200764
 11
125.7335782215
 21
175.9799439236
  0
LINE
  5
2A9
100
AcDbEntity
  8
_1
100
AcDbLine
 62
7
  6
CONTINUOUS
 10
145.8669751198
 20
157.7766267025
 11
141.0684737222
 21
160.5469801023
  0
LINE
  5
2AA
100
AcDbEntity
  8
_1
100
AcDbLine
 62
7
  6
CONTINUOUS
 10
117.7215649373
 20
174.0260192374
 11
112.9230635397
 21
176.7963726372
  0
LINE
  5
2AB
100
AcDbEntity
  8
_1
100
AcDbLine
 62
7
  6
CONTINUOUS
 10
146.0437510791
 20
157.8786877409
 11
134.3643876206
 21
164.6216188322
  0
LINE
  5
2AC
100
AcDbEntity
  8
_1
100
AcDbLine
 62
7
  6
CONTINUOUS
 10
124.7792029575
 20
170.1555025844
 11
113.099839499
 21
176.8984336757
  0
LINE
  5
2AD
100
AcDbEntity
  8
_1
100
AcDbLine
 62
7
  6
CONTINUOUS
 10
147.4334486645
 20
157.1587263913
 11
134.3650047007
 21
164.7036253432
  0
LINE
  5
2AE
100
AcDbEntity
  8
_1
100
AcDbLine
 62
7
  6
CONTINUOUS
 10
124.7798200377
 20
170.2375090954
 11
111.711376074
 21
177.7824080474
  0
LINE
  5
2AF
100
AcDbEntity
  8
_1
100
AcDbLine
 62
7
  6
CONTINUOUS
 10
147.2495369457
 20
157.4683133141
 11
133.1073424428
 21
165.6331284045
  0
LINE
  5
2B0
100
AcDbEntity
  8
_1
100
AcDbLine
 62
7
  6
CONTINUOUS
 10
126.3898000539
 20
169.5114155725
 11
112.247605551
 21
177.6762306629
  0
LINE
  5
2B1
100
AcDbEntity
  8
_1
100
AcDbLine
 62
7
  6
CONTINUOUS
 10
147.2495369457
 20
161.2242244329
 11
133.1073424428
 21
169.3890395233
  0
LINE
  5
2B2
100
AcDbEntity
  8
_1
100
AcDbLine
 62
7
  6
CONTINUOUS
 10
126.3898000539
 20
173.2673266913
 11
112.247605551
 21
181.4321417817
  0
LINE
  5
2B3
100
AcDbEntity
  8
_1
100
AcDbLine
 62
7
  6
CONTINUOUS
 10
148.7929346747
 20
139.9320625425
 11
148.6953063231
 21
152.9062171418
  0
LINE
  5
2B4
100
AcDbEntity
  8
_1
100
AcDbLine
 62
7
  6
CONTINUOUS
 10
146.6208484574
 20
162.4489568945
 11
146.6208484574
 21
164.0819617288
  0
LINE
  5
2B5
100
AcDbEntity
  8
_1
100
AcDbLine
 62
7
  6
CONTINUOUS
 10
147.2495369457
 20
161.2242244329
 11
147.2495369457
 21
157.4683133141
  0
LINE
  5
2B6
100
AcDbEntity
  8
_1
100
AcDbLine
 62
7
  6
CONTINUOUS
 10
147.4334486645
 20
157.1587263913
 11
147.4334486963
 21
156.6489425697
  0
LINE
  5
2B7
100
AcDbEntity
  8
_1
100
AcDbLine
 62
7
  6
CONTINUOUS
 10
147.4424328119
 20
165.5715319025
 11
147.4424328119
 21
165.3537975162
  0
LINE
  5
2B8
100
AcDbEntity
  8
_1
100
AcDbLine
 62
7
  6
CONTINUOUS
 10
150.261768096
 20
157.0839423749
 11
150.2617683002
 21
153.8106089874
  0
LINE
  5
2B9
100
AcDbEntity
  8
_1
100
AcDbLine
 62
7
  6
CONTINUOUS
 10
171.3430964817
 20
133.9197027927
 11
121.1387240395
 21
104.9343678678
  0
LINE
  5
2BA
100
AcDbEntity
  8
_1
100
AcDbLine
 62
7
  6
CONTINUOUS
 10
121.1452755307
 20
104.9304685633
 11
68.8410839046
 21
74.732809704
  0
LINE
  5
2BB
100
AcDbEntity
  8
_1
100
AcDbLine
 62
7
  6
CONTINUOUS
 10
120.9604957856
 20
104.6425182005
 11
171.1508233994
 21
133.6197443884
  0
LINE
  5
2BC
100
AcDbEntity
  8
_1
100
AcDbLine
 62
7
  6
CONTINUOUS
 10
120.9530235269
 20
104.6306148745
 11
68.8396440163
 21
74.5431207838
  0
LINE
  5
2BD
100
AcDbEntity
  8
_1
100
AcDbLine
 62
7
  6
CONTINUOUS
 10
166.3492585285
 20
130.7867228928
 11
162.1286726706
 21
128.349981057
  0
LINE
  5
2BE
100
AcDbEntity
  8
_1
100
AcDbLine
 62
7
  6
CONTINUOUS
 10
114.7165536937
 20
100.9695134692
 11
162.0812115778
 21
128.315348216
  0
LINE
  5
2BF
100
AcDbEntity
  8
_1
100
AcDbLine
 62
7
  6
CONTINUOUS
 10
114.6973459956
 20
100.9560206477
 11
68.8391644642
 21
74.4799452368
  0
LINE
  5
2C0
100
AcDbEntity
  8
_1
100
AcDbLine
 62
7
  6
CONTINUOUS
 10
151.299244967
 20
165.3165457628
 11
151.299244967
 21
165.5711546696
  0
LINE
  5
2C1
100
AcDbEntity
  8
_1
100
AcDbLine
 62
7
  6
CONTINUOUS
 10
151.4921776328
 20
157.4683235122
 11
151.4921776328
 21
161.224234631
  0
LINE
  5
2C2
100
AcDbEntity
  8
_1
100
AcDbLine
 62
7
  6
CONTINUOUS
 10
152.1208484574
 20
162.4489568945
 11
152.1208484574
 21
164.0819617288
  0
LINE
  5
2C3
100
AcDbEntity
  8
_1
100
AcDbLine
 62
7
  6
CONTINUOUS
 10
154.7884533542
 20
206.340158036
 11
154.7884533542
 21
205.763897214
  0
LINE
  5
2C4
100
AcDbEntity
  8
_1
100
AcDbLine
 62
7
  6
CONTINUOUS
 10
68.7986897209
 20
69.147857858
 11
62.4347551859
 21
65.4736604732
  0
LINE
  5
2C5
100
AcDbEntity
  8
_1
100
AcDbLine
 62
7
  6
CONTINUOUS
 10
61.3993299909
 20
63.2202792289
 11
67.7632645258
 21
66.8944766138
  0
LINE
  5
2C6
100
AcDbEntity
  8
_1
100
AcDbLine
 62
7
  6
CONTINUOUS
 10
166.5129252017
 20
169.5349152871
 11
169.2107892826
 21
167.9773379708
  0
LINE
  5
2C7
100
AcDbEntity
  8
_1
100
AcDbLine
 62
7
  6
CONTINUOUS
 10
159.2703257301
 20
167.8378441168
 11
159.2703257301
 21
181.9609059188
  0
LINE
  5
2C8
100
AcDbEntity
  8
_1
100
AcDbLine
 62
7
  6
CONTINUOUS
 10
165.6342543771
 20
169.3891177084
 11
165.6342543771
 21
165.6332065896
  0
LINE
  5
2C9
100
AcDbEntity
  8
_1
100
AcDbLine
 62
7
  6
CONTINUOUS
 10
166.7573935072
 20
167.0855016511
 11
166.7033663435
 21
166.8116931275
  0
LINE
  5
2CA
100
AcDbEntity
  8
_1
100
AcDbLine
 62
7
  6
CONTINUOUS
 10
166.9131841296
 20
172.5697569514
 11
172.0392046315
 21
169.6103145863
  0
LINE
  5
2CB
100
AcDbEntity
  8
_1
100
AcDbLine
 62
7
  6
CONTINUOUS
 10
169.1787012139
 20
167.7508642736
 11
169.3465480505
 21
145.4451429118
  0
LINE
  5
2CC
100
AcDbEntity
  8
_1
100
AcDbLine
 62
7
  6
CONTINUOUS
 10
169.3465480505
 20
149.935906206
 11
169.2107892826
 21
167.9773379708
  0
LINE
  5
2CD
100
AcDbEntity
  8
_1
100
AcDbLine
 62
7
  6
CONTINUOUS
 10
172.0392046315
 20
169.6103145863
 11
172.0978277358
 21
161.8196963242
  0
LINE
  5
2CE
100
AcDbEntity
  8
_1
100
AcDbLine
 62
7
  6
CONTINUOUS
 10
166.2629252017
 20
170.613839972
 11
166.2629252017
 21
172.1671629995
  0
LINE
  5
2CF
100
AcDbEntity
  8
_1
100
AcDbLine
 62
7
  6
CONTINUOUS
 10
166.5129252017
 20
166.8579288532
 11
166.5129252017
 21
170.613839972
  0
LINE
  5
2D0
100
AcDbEntity
  8
_1
100
AcDbLine
 62
7
  6
CONTINUOUS
 10
169.3465480505
 20
149.935906206
 11
169.3465480505
 21
145.4451429118
  0
LINE
  5
2D1
100
AcDbEntity
  8
_1
100
AcDbLine
 62
7
  6
CONTINUOUS
 10
169.3465480505
 20
145.4451429118
 11
169.2989459539
 21
139.1741077418
  0
LINE
  5
2D2
100
AcDbEntity
  8
_1
100
AcDbLine
 62
7
  6
CONTINUOUS
 10
172.1279687718
 20
140.8871115058
 11
172.1273613027
 21
140.8070843573
  0
LINE
  5
2D3
100
AcDbEntity
  8
_1
100
AcDbLine
 62
7
  6
CONTINUOUS
 10
174.283368203
 20
193.4332506506
 11
174.283368203
 21
181.2153613759
  0
ARC
  5
2D4
100
AcDbEntity
  8
_1
100
AcDbCircle
 62
7
  6
CONTINUOUS
 10
-93.703649132
 20
149.9407794675
 40
267.6148788574
100
AcDbArc
 50
358.2666547304
 51
359.6009226061
  0
ARC
  5
2D5
100
AcDbEntity
  8
_1
100
AcDbCircle
 62
7
  6
CONTINUOUS
 10
-85.5727438808
 20
148.0823389936
 40
259.4774821289
100
AcDbArc
 50
359.9987768139
 51
0.985546903
  0
ARC
  5
2D6
100
AcDbEntity
  8
_1
100
AcDbCircle
 62
7
  6
CONTINUOUS
 10
239.3465022978
 20
-41.0242531084
 40
248.7678857445
100
AcDbArc
 50
125.0116959385
 51
126.0265302395
  0
ARC
  5
2D7
100
AcDbEntity
  8
_1
100
AcDbCircle
 62
7
  6
CONTINUOUS
 10
42.8092706222
 20
-23.0794186577
 40
227.0054371173
100
AcDbArc
 50
54.8737427754
 51
55.2857760028
  0
ARC
  5
2D8
100
AcDbEntity
  8
_1
100
AcDbCircle
 62
7
  6
CONTINUOUS
 10
66.8710846602
 20
122.5351422208
 40
55.084119899
100
AcDbArc
 50
1.9596538675
 51
2.2070718752
  0
ARC
  5
2D9
100
AcDbEntity
  8
_1
100
AcDbCircle
 62
7
  6
CONTINUOUS
 10
73.4461264242
 20
113.5484378808
 40
48.5076039881
100
AcDbArc
 50
357.6746141686
 51
357.9600545674
  0
ARC
  5
2DA
100
AcDbEntity
  8
_1
100
AcDbCircle
 62
7
  6
CONTINUOUS
 10
132.6963043886
 20
141.6632964842
 40
39.4149436426
100
AcDbArc
 50
348.6697761798
 51
352.2358027164
  0
ARC
  5
2DB
100
AcDbEntity
  8
_1
100
AcDbCircle
 62
7
  6
CONTINUOUS
 10
57.1682466276
 20
103.4073783997
 40
28.0715717868
100
AcDbArc
 50
200.4165974898
 51
201.1241873757
  0
ARC
  5
2DC
100
AcDbEntity
  8
_1
100
AcDbCircle
 62
7
  6
CONTINUOUS
 10
123.4270270796
 20
141.3491840426
 40
8.6141757763
100
AcDbArc
 50
206.2466869006
 51
206.4131127313
  0
ARC
  5
2DD
100
AcDbEntity
  8
_1
100
AcDbCircle
 62
7
  6
CONTINUOUS
 10
123.4217795367
 20
141.3482235332
 40
8.6090517071
100
AcDbArc
 50
206.5325004227
 51
213.557258645
  0
ARC
  5
2DE
100
AcDbEntity
  8
_1
100
AcDbCircle
 62
7
  6
CONTINUOUS
 10
123.3021346297
 20
141.2680376446
 40
8.4653576851
100
AcDbArc
 50
213.6645386731
 51
214.571323958
  0
ARC
  5
2DF
100
AcDbEntity
  8
_1
100
AcDbCircle
 62
7
  6
CONTINUOUS
 10
121.3070268062
 20
140.6832122017
 40
6.3857315483
100
AcDbArc
 50
189.4029386473
 51
190.839352514
  0
ARC
  5
2E0
100
AcDbEntity
  8
_1
100
AcDbCircle
 62
7
  6
CONTINUOUS
 10
37.0442400594
 20
104.787774871
 40
6.0060288689
100
AcDbArc
 50
128.7738718415
 51
131.164950043
  0
ARC
  5
2E1
100
AcDbEntity
  8
_1
100
AcDbCircle
 62
7
  6
CONTINUOUS
 10
48.5594377883
 20
84.8211741883
 40
5.9463171714
100
AcDbArc
 50
288.5244550158
 51
296.7763704743
  0
ARC
  5
2E2
100
AcDbEntity
  8
_1
100
AcDbCircle
 62
7
  6
CONTINUOUS
 10
46.2418963858
 20
120.047317324
 40
4.4791646237
100
AcDbArc
 50
132.7359250932
 51
133.867165559
  0
ARC
  5
2E3
100
AcDbEntity
  8
_1
100
AcDbCircle
 62
7
  6
CONTINUOUS
 10
45.7740436859
 20
123.4057753047
 40
2.7530333449
100
AcDbArc
 50
134.9209345663
 51
135.2047915937
  0
ARC
  5
2E4
100
AcDbEntity
  8
_1
100
AcDbCircle
 62
7
  6
CONTINUOUS
 10
115.0985758331
 20
183.6420899567
 40
2.4329228734
100
AcDbArc
 50
299.9573572997
 51
303.5437153026
  0
ARC
  5
2E5
100
AcDbEntity
  8
_1
100
AcDbCircle
 62
7
  6
CONTINUOUS
 10
135.958343977
 20
171.5989387318
 40
2.4328648431
100
AcDbArc
 50
299.9572954796
 51
303.5458790015
  0
ARC
  5
2E6
100
AcDbEntity
  8
_1
100
AcDbCircle
 62
7
  6
CONTINUOUS
 10
113.2027274487
 20
143.6422839661
 40
1.727245426
100
AcDbArc
 50
26.5140032507
 51
33.2666632744
  0
ARC
  5
2E7
100
AcDbEntity
  8
_1
100
AcDbCircle
 62
7
  6
CONTINUOUS
 10
119.4561064132
 20
131.874120402
 40
1.720602327
100
AcDbArc
 50
31.7480660627
 51
34.5437830222
  0
ARC
  5
2E8
100
AcDbEntity
  8
_1
100
AcDbCircle
 62
7
  6
CONTINUOUS
 10
113.2261569303
 20
143.6540665849
 40
1.7010201798
100
AcDbArc
 50
25.0650474318
 51
26.5111712533
  0
ARC
  5
2E9
100
AcDbEntity
  8
_1
100
AcDbCircle
 62
7
  6
CONTINUOUS
 10
113.234137962
 20
143.66270678
 40
1.6897575892
100
AcDbArc
 50
33.2717921436
 51
35.3667395208
  0
ARC
  5
2EA
100
AcDbEntity
  8
_1
100
AcDbCircle
 62
7
  6
CONTINUOUS
 10
113.2716513313
 20
143.6908127664
 40
1.6428992658
100
AcDbArc
 50
35.3246671143
 51
40.3284107179
  0
ARC
  5
2EB
100
AcDbEntity
  8
_1
100
AcDbCircle
 62
7
  6
CONTINUOUS
 10
113.2914361095
 20
143.6829527948
 40
1.6296516371
100
AcDbArc
 50
19.3924590136
 51
25.1174122857
  0
ARC
  5
2EC
100
AcDbEntity
  8
_1
100
AcDbCircle
 62
7
  6
CONTINUOUS
 10
50.188181264
 20
120.8411443483
 40
1.5441280869
100
AcDbArc
 50
336.7085706858
 51
339.5818064327
  0
ARC
  5
2ED
100
AcDbEntity
  8
_1
100
AcDbCircle
 62
7
  6
CONTINUOUS
 10
50.2422861418
 20
120.8208503108
 40
1.4863425837
100
AcDbArc
 50
339.5873357344
 51
343.4886108231
  0
ARC
  5
2EE
100
AcDbEntity
  8
_1
100
AcDbCircle
 62
7
  6
CONTINUOUS
 10
111.5942987401
 20
175.8295947975
 40
1.3443183906
100
AcDbArc
 50
109.5131374899
 51
119.9516857444
  0
ARC
  5
2EF
100
AcDbEntity
  8
_1
100
AcDbCircle
 62
7
  6
CONTINUOUS
 10
119.9671789287
 20
132.4294515246
 40
0.9602281666
100
AcDbArc
 50
58.1340205441
 51
59.9882902109
  0
ARC
  5
2F0
100
AcDbEntity
  8
_1
100
AcDbCircle
 62
7
  6
CONTINUOUS
 10
90.5233014752
 20
158.2609454908
 40
0.3469847812
100
AcDbArc
 50
104.6890328304
 51
110.243580039
  0
ARC
  5
2F1
100
AcDbEntity
  8
_1
100
AcDbCircle
 62
7
  6
CONTINUOUS
 10
114.5348869465
 20
101.2569698519
 40
0.3397966664
100
AcDbArc
 50
308.2122519495
 51
309.695709774
  0
ARC
  5
2F2
100
AcDbEntity
  8
_1
100
AcDbCircle
 62
7
  6
CONTINUOUS
 10
90.519975195
 20
158.2703801817
 40
0.3370196185
100
AcDbArc
 50
110.2687378497
 51
120.5571344604
  0
ARC
  5
2F3
100
AcDbEntity
  8
_1
100
AcDbCircle
 62
7
  6
CONTINUOUS
 10
161.9126718245
 20
128.6070916909
 40
0.3369086017
100
AcDbArc
 50
300.0149982277
 51
310.011880327
  0
ARC
  5
2F4
100
AcDbEntity
  8
_1
100
AcDbCircle
 62
7
  6
CONTINUOUS
 10
114.5372942827
 20
101.2538800736
 40
0.3358798306
100
AcDbArc
 50
300.0022073253
 51
308.2156228042
  0
ARC
  5
2F5
100
AcDbEntity
  8
_1
100
AcDbCircle
 62
7
  6
CONTINUOUS
 10
120.7857084353
 20
104.9202895725
 40
0.3344978567
100
AcDbArc
 50
300.0105605992
 51
302.1525205396
  0
ARC
  5
2F6
100
AcDbEntity
  8
_1
100
AcDbCircle
 62
7
  6
CONTINUOUS
 10
114.5301818
 20
101.2456713638
 40
0.3344026668
100
AcDbArc
 50
299.9902673952
 51
304.0044728948
  0
ARC
  5
2F7
100
AcDbEntity
  8
_1
100
AcDbCircle
 62
7
  6
CONTINUOUS
 10
168.1561992311
 20
132.2749687654
 40
0.3326808542
100
AcDbArc
 50
299.9725434484
 51
303.3153702323
  0
SPLINE
  5
2F8
100
AcDbEntity
  8
_1
100
AcDbSpline
 62
7
  6
CONTINUOUS
 70
0
 71
3
 72
14
 73
10
 74
0
 42
0.0000001
 43
0.0000001
 44
0.0000000001
 40
0.0
 40
0.0
 40
0.0
 40
0.0
 40
0.2892819322
 40
0.4225440756
 40
0.5484954465
 40
0.6678957228
 40
0.7818683223
 40
0.8919512866
 40
1.0
 40
1.0
 40
1.0
 40
1.0
 10
44.8961107827
 20
118.7462740074
 30
0.0
 10
44.7205267456
 20
118.8476452051
 30
0.0
 10
44.4746320556
 20
119.0169415424
 30
0.0
 10
44.196434996
 20
119.2831925113
 30
0.0
 10
44.0271298781
 20
119.488433511
 30
0.0
 10
43.8932622619
 20
119.7026824371
 30
0.0
 10
43.796386925
 20
119.9240782962
 30
0.0
 10
43.737677865
 20
120.1503359108
 30
0.0
 10
43.7245384165
 20
120.3035237615
 30
0.0
 10
43.7245334353
 20
120.3792506708
 30
0.0
  0
SPLINE
  5
2F9
100
AcDbEntity
  8
_1
100
AcDbSpline
 62
7
  6
CONTINUOUS
 70
0
 71
3
 72
12
 73
8
 74
0
 42
0.0000001
 43
0.0000001
 44
0.0000000001
 40
0.0
 40
0.0
 40
0.0
 40
0.0
 40
0.1081587737
 40
0.2183572733
 40
0.4513588166
 40
0.7104163033
 40
1.0
 40
1.0
 40
1.0
 40
1.0
 10
49.7245237973
 20
130.5855308372
 30
0.0
 10
49.7245241723
 20
130.6233924583
 30
0.0
 10
49.7179283543
 20
130.6999868313
 30
0.0
 10
49.6781607918
 20
130.8535515084
 30
0.0
 10
49.5760048487
 20
131.0418411584
 30
0.0
 10
49.3857661884
 20
131.2416634341
 30
0.0
 10
49.2265237246
 20
131.3513347582
 30
0.0
 10
49.138733806
 20
131.4020191447
 30
0.0
  0
SPLINE
  5
2FA
100
AcDbEntity
  8
_1
100
AcDbSpline
 62
7
  6
CONTINUOUS
 70
0
 71
3
 72
9
 73
5
 74
0
 42
0.0000001
 43
0.0000001
 44
0.0000000001
 40
0.0
 40
0.0
 40
0.0
 40
0.0
 40
0.5070326609
 40
1.0
 40
1.0
 40
1.0
 40
1.0
 10
43.8425807977
 20
121.3444200841
 30
0.0
 10
43.8043428859
 20
121.2555780572
 30
0.0
 10
43.7449996723
 20
121.0728157562
 30
0.0
 10
43.7245274821
 20
120.8815402041
 30
0.0
 10
43.7245269983
 20
120.7875018282
 30
0.0
  0
SPLINE
  5
2FB
100
AcDbEntity
  8
_1
100
AcDbSpline
 62
7
  6
CONTINUOUS
 70
0
 71
3
 72
11
 73
7
 74
0
 42
0.0000001
 43
0.0000001
 44
0.0000000001
 40
0.0
 40
0.0
 40
0.0
 40
0.0
 40
0.2331968035
 40
0.4737140674
 40
0.7278153233
 40
1.0
 40
1.0
 40
1.0
 40
1.0
 10
52.2245241555
 20
124.0535114998
 30
0.0
 10
52.2245241009
 20
124.1644659666
 30
0.0
 10
52.1990946668
 20
124.3905974245
 30
0.0
 10
52.0864693933
 20
124.7205875619
 30
0.0
 10
51.9022943521
 20
125.037900649
 30
0.0
 10
51.7404259353
 20
125.2305819362
 30
0.0
 10
51.6502299335
 20
125.3235129577
 30
0.0
  0
SPLINE
  5
2FC
100
AcDbEntity
  8
_1
100
AcDbSpline
 62
7
  6
CONTINUOUS
 70
0
 71
3
 72
23
 73
19
 74
0
 42
0.0000001
 43
0.0000001
 44
0.0000000001
 40
0.0
 40
0.0
 40
0.0
 40
0.0
 40
0.0428143749
 40
0.0873963259
 40
0.135179265
 40
0.1870885821
 40
0.2435352494
 40
0.3044927504
 40
0.3695907036
 40
0.4381987302
 40
0.509496451
 40
0.5825323776
 40
0.6562761072
 40
0.7296648159
 40
0.8016523107
 40
0.8712553359
 40
0.9376070879
 40
1.0
 40
1.0
 40
1.0
 40
1.0
 10
52.224524076
 20
123.4003095662
 30
0.0
 10
52.2245243304
 20
123.2722045336
 30
0.0
 10
52.1902723719
 20
123.0095919923
 30
0.0
 10
52.0396580214
 20
122.6304055534
 30
0.0
 10
51.7952655606
 20
122.270943835
 30
0.0
 10
51.4640252325
 20
121.9383174691
 30
0.0
 10
51.0535775981
 20
121.6384020199
 30
0.0
 10
50.5726616436
 20
121.3768387332
 30
0.0
 10
50.0313491683
 20
121.15876484
 30
0.0
 10
49.4410121462
 20
120.9886310507
 30
0.0
 10
48.8141295424
 20
120.8699855801
 30
0.0
 10
48.1640174237
 20
120.805333878
 30
0.0
 10
47.5045305922
 20
120.79605402
 30
0.0
 10
46.8497356697
 20
120.8423385082
 30
0.0
 10
46.2136062132
 20
120.9432083563
 30
0.0
 10
45.6096224857
 20
121.0965285969
 30
0.0
 10
45.0507140247
 20
121.2990414849
 30
0.0
 10
44.7042346303
 20
121.4698694383
 30
0.0
 10
44.5425588641
 20
121.5632108738
 30
0.0
  0
SPLINE
  5
2FD
100
AcDbEntity
  8
_1
100
AcDbSpline
 62
7
  6
CONTINUOUS
 70
0
 71
3
 72
23
 73
19
 74
0
 42
0.0000001
 43
0.0000001
 44
0.0000000001
 40
0.0
 40
0.0
 40
0.0
 40
0.0
 40
0.0428144312
 40
0.0873962826
 40
0.1351790578
 40
0.1870881471
 40
0.2435345934
 40
0.3044919628
 40
0.3695899225
 40
0.4381980434
 40
0.5094958471
 40
0.5825317482
 40
0.6562756492
 40
0.7296638413
 40
0.801651808
 40
0.8712539461
 40
0.93760827
 40
1.0
 40
1.0
 40
1.0
 40
1.0
 10
51.7245188277
 20
120.3792505749
 30
0.0
 10
51.724526318
 20
120.2653793537
 30
0.0
 10
51.6940676444
 20
120.0319463752
 30
0.0
 10
51.5601927146
 20
119.6948929188
 30
0.0
 10
51.3429562309
 20
119.375371588
 30
0.0
 10
51.0485239645
 20
119.0797032152
 30
0.0
 10
50.6836847016
 20
118.8131103913
 30
0.0
 10
50.2562060147
 20
118.5806082161
 30
0.0
 10
49.7750400091
 20
118.386764027
 30
0.0
 10
49.2502955604
 20
118.2355347266
 30
0.0
 10
48.6930662568
 20
118.1300735643
 30
0.0
 10
48.1151884288
 20
118.0726062136
 30
0.0
 10
47.5289793232
 20
118.0643597256
 30
0.0
 10
46.9469391296
 20
118.1054990585
 30
0.0
 10
46.3814942829
 20
118.195164435
 30
0.0
 10
45.8446125898
 20
118.3314427563
 30
0.0
 10
45.3478059957
 20
118.511460086
 30
0.0
 10
45.0398197658
 20
118.6633054642
 30
0.0
 10
44.8961107827
 20
118.7462740074
 30
0.0
  0
SPLINE
  5
2FE
100
AcDbEntity
  8
_1
100
AcDbSpline
 62
7
  6
CONTINUOUS
 70
0
 71
3
 72
9
 73
5
 74
0
 42
0.0000001
 43
0.0000001
 44
0.0000000001
 40
0.0
 40
0.0
 40
0.0
 40
0.0
 40
0.4945065743
 40
1.0
 40
1.0
 40
1.0
 40
1.0
 10
51.7245252648
 20
120.7875018346
 30
0.0
 10
51.7245256882
 20
120.8697947198
 30
0.0
 10
51.7089396481
 20
121.0365563356
 30
0.0
 10
51.6634181119
 20
121.197622724
 30
0.0
 10
51.6338670452
 20
121.2763826097
 30
0.0
  0
SPLINE
  5
2FF
100
AcDbEntity
  8
_1
100
AcDbSpline
 62
7
  6
CONTINUOUS
 70
0
 71
3
 72
14
 73
10
 74
0
 42
0.0000001
 43
0.0000001
 44
0.0000000001
 40
0.0
 40
0.0
 40
0.0
 40
0.0
 40
0.2892813038
 40
0.4225408191
 40
0.548495483
 40
0.6678950441
 40
0.7818677054
 40
0.8919510845
 40
1.0
 40
1.0
 40
1.0
 40
1.0
 10
44.5425588641
 20
121.5632108738
 30
0.0
 10
44.345027201
 20
121.6772532527
 30
0.0
 10
44.0683981332
 20
121.8677109581
 30
0.0
 10
43.755425795
 20
122.1672422428
 30
0.0
 10
43.5649542896
 20
122.3981364967
 30
0.0
 10
43.414357679
 20
122.6391707641
 30
0.0
 10
43.3053601265
 20
122.8882369264
 30
0.0
 10
43.239335796
 20
123.1427818443
 30
0.0
 10
43.2245283562
 20
123.315116612
 30
0.0
 10
43.2245281871
 20
123.4003095662
 30
0.0
  0
SPLINE
  5
300
100
AcDbEntity
  8
_1
100
AcDbSpline
 62
7
  6
CONTINUOUS
 70
0
 71
3
 72
11
 73
7
 74
0
 42
0.0000001
 43
0.0000001
 44
0.0000000001
 40
0.0
 40
0.0
 40
0.0
 40
0.0
 40
0.2728477547
 40
0.5270968933
 40
0.7673378612
 40
1.0
 40
1.0
 40
1.0
 40
1.0
 10
43.8204095639
 20
125.3454934068
 30
0.0
 10
43.7269749209
 20
125.2513878544
 30
0.0
 10
43.5592154504
 20
125.0560606928
 30
0.0
 10
43.3680129177
 20
124.733358133
 30
0.0
 10
43.2509719573
 20
124.3972176515
 30
0.0
 10
43.2245280519
 20
124.1665919368
 30
0.0
 10
43.2245281076
 20
124.0535115
 30
0.0
  0
SPLINE
  5
301
100
AcDbEntity
  8
_1
100
AcDbSpline
 62
7
  6
CONTINUOUS
 70
0
 71
3
 72
20
 73
16
 74
0
 42
0.0000001
 43
0.0000001
 44
0.0000000001
 40
0.0
 40
0.0
 40
0.0
 40
0.0
 40
0.062409941
 40
0.1288039485
 40
0.2703013475
 40
0.4173619747
 40
0.5616182661
 40
0.6302560147
 40
0.6953813366
 40
0.7563646104
 40
0.812835237
 40
0.8647655196
 40
0.9125675094
 40
0.9571678748
 40
1.0
 40
1.0
 40
1.0
 40
1.0
 10
49.138733806
 20
131.4020191447
 30
0.0
 10
49.0668889956
 20
131.443497827
 30
0.0
 10
48.9128820037
 20
131.5194237256
 30
0.0
 10
48.5745598267
 20
131.6419813373
 30
0.0
 10
48.1089658774
 20
131.7351513004
 30
0.0
 10
47.5314700943
 20
131.751055845
 30
0.0
 10
47.0548784167
 20
131.6842283341
 30
0.0
 10
46.6992691348
 20
131.5817751505
 30
0.0
 10
46.4586775618
 20
131.4848388684
 30
0.0
 10
46.2449407247
 20
131.3685922895
 30
0.0
 10
46.0625181413
 20
131.2353001784
 30
0.0
 10
45.9153080127
 20
131.0874633935
 30
0.0
 10
45.8066963385
 20
130.9277032716
 30
0.0
 10
45.7397571614
 20
130.7591802205
 30
0.0
 10
45.7245290297
 20
130.6424656849
 30
0.0
 10
45.7245284658
 20
130.5855308367
 30
0.0
  0
SPLINE
  5
302
100
AcDbEntity
  8
_1
100
AcDbSpline
 62
7
  6
CONTINUOUS
 70
0
 71
3
 72
12
 73
8
 74
0
 42
0.0000001
 43
0.0000001
 44
0.0000000001
 40
0.0
 40
0.0
 40
0.0
 40
0.0
 40
0.1118429229
 40
0.2251655443
 40
0.4613185821
 40
0.7179129332
 40
1.0
 40
1.0
 40
1.0
 40
1.0
 10
43.9245324277
 20
124.7883636749
 30
0.0
 10
43.9245247619
 20
124.7277688196
 30
0.0
 10
43.9333541593
 20
124.6055913952
 30
0.0
 10
43.9865726945
 20
124.3606706781
 30
0.0
 10
44.1228561041
 20
124.0574709054
 30
0.0
 10
44.3822529205
 20
123.7235661942
 30
0.0
 10
44.6040256456
 20
123.5310835239
 30
0.0
 10
44.726812672
 20
123.4400859982
 30
0.0
  0
SPLINE
  5
303
100
AcDbEntity
  8
_1
100
AcDbSpline
 62
7
  6
CONTINUOUS
 70
0
 71
3
 72
9
 73
5
 74
0
 42
0.0000001
 43
0.0000001
 44
0.0000000001
 40
0.0
 40
0.0
 40
0.0
 40
0.0
 40
0.5035635153
 40
1.0
 40
1.0
 40
1.0
 40
1.0
 10
51.6673368024
 20
120.3984229316
 30
0.0
 10
51.6861236489
 20
120.4618833788
 30
0.0
 10
51.714822535
 20
120.5906496417
 30
0.0
 10
51.7245249291
 20
120.7222556509
 30
0.0
 10
51.7245252648
 20
120.7875018346
 30
0.0
  0
SPLINE
  5
304
100
AcDbEntity
  8
_1
100
AcDbSpline
 62
7
  6
CONTINUOUS
 70
0
 71
3
 72
14
 73
10
 74
0
 42
0.0000001
 43
0.0000001
 44
0.0000000001
 40
0.0
 40
0.0
 40
0.0
 40
0.0
 40
0.1085792961
 40
0.2191203235
 40
0.3334018608
 40
0.4529161421
 40
0.5787842411
 40
0.7117548407
 40
1.0
 40
1.0
 40
1.0
 40
1.0
 10
43.7245269983
 20
120.7875018282
 30
0.0
 10
43.7245266178
 20
120.7135448617
 30
0.0
 10
43.7370733622
 20
120.5640092758
 30
0.0
 10
43.7930257217
 20
120.3429639551
 30
0.0
 10
43.8854698887
 20
120.1264419688
 30
0.0
 10
44.0132622046
 20
119.9165553964
 30
0.0
 10
44.1750384432
 20
119.7150896346
 30
0.0
 10
44.4409501809
 20
119.4531449453
 30
0.0
 10
44.6765539155
 20
119.2854403476
 30
0.0
 10
44.8449982244
 20
119.1845775621
 30
0.0
  0
SPLINE
  5
305
100
AcDbEntity
  8
_1
100
AcDbSpline
 62
7
  6
CONTINUOUS
 70
0
 71
3
 72
16
 73
12
 74
0
 42
0.0000001
 43
0.0000001
 44
0.0000000001
 40
0.0
 40
0.0
 40
0.0
 40
0.0
 40
0.1183342752
 40
0.2470780132
 40
0.3823913695
 40
0.5196565693
 40
0.6540396526
 40
0.7810277744
 40
0.8406205321
 40
0.8971182514
 40
1.0
 40
1.0
 40
1.0
 40
1.0
 10
44.5425588641
 20
122.2164128075
 30
0.0
 10
44.8004325137
 20
122.0675327546
 30
0.0
 10
45.3717456248
 20
121.8123045411
 30
0.0
 10
46.3047734726
 20
121.5643583518
 30
0.0
 10
47.3105862366
 20
121.4437605585
 30
0.0
 10
48.337514998
 20
121.4568518228
 30
0.0
 10
49.3329501496
 20
121.6029087597
 30
0.0
 10
50.1105183065
 20
121.8340450841
 30
0.0
 10
50.6706131266
 20
122.0820715514
 30
0.0
 10
51.1518002218
 20
122.3510704145
 30
0.0
 10
51.472524331
 20
122.5999674641
 30
0.0
 10
51.6525972246
 20
122.7859609665
 30
0.0
  0
SPLINE
  5
306
100
AcDbEntity
  8
_1
100
AcDbSpline
 62
7
  6
CONTINUOUS
 70
0
 71
3
 72
11
 73
7
 74
0
 42
0.0000001
 43
0.0000001
 44
0.0000000001
 40
0.0
 40
0.0
 40
0.0
 40
0.0
 40
0.2721200954
 40
0.5261981554
 40
0.766747647
 40
1.0
 40
1.0
 40
1.0
 40
1.0
 10
51.6525972246
 20
122.7859609665
 30
0.0
 10
51.7424424556
 20
122.8787602149
 30
0.0
 10
51.9036697146
 20
123.0711413575
 30
0.0
 10
52.0870616672
 20
123.3878617332
 30
0.0
 10
52.199207866
 20
123.7171616717
 30
0.0
 10
52.2245242101
 20
123.9427946384
 30
0.0
 10
52.2245241555
 20
124.0535114998
 30
0.0
  0
SPLINE
  5
307
100
AcDbEntity
  8
_1
100
AcDbSpline
 62
7
  6
CONTINUOUS
 70
0
 71
3
 72
14
 73
10
 74
0
 42
0.0000001
 43
0.0000001
 44
0.0000000001
 40
0.0
 40
0.0
 40
0.0
 40
0.0
 40
0.2892818196
 40
0.4225439574
 40
0.5484954052
 40
0.6678957996
 40
0.7818684999
 40
0.891951446
 40
1.0
 40
1.0
 40
1.0
 40
1.0
 10
45.0375315501
 20
122.5021837152
 30
0.0
 10
44.8707267802
 20
122.5984863154
 30
0.0
 10
44.6371268957
 20
122.7593177893
 30
0.0
 10
44.3728396653
 20
123.0122561471
 30
0.0
 10
44.211999736
 20
123.2072352021
 30
0.0
 10
44.0848253586
 20
123.4107718319
 30
0.0
 10
43.992793859
 20
123.6210980751
 30
0.0
 10
43.9370202173
 20
123.8360427374
 30
0.0
 10
43.9245377268
 20
123.9815710805
 30
0.0
 10
43.9245330178
 20
124.053511538
 30
0.0
  0
SPLINE
  5
308
100
AcDbEntity
  8
_1
100
AcDbSpline
 62
7
  6
CONTINUOUS
 70
0
 71
3
 72
12
 73
8
 74
0
 42
0.0000001
 43
0.0000001
 44
0.0000000001
 40
0.0
 40
0.0
 40
0.0
 40
0.0
 40
0.2846635586
 40
0.5482136735
 40
0.6708757882
 40
0.7870440468
 40
1.0
 40
1.0
 40
1.0
 40
1.0
 10
49.1529920494
 20
122.7553748574
 30
0.0
 10
49.3806921289
 20
122.8087039757
 30
0.0
 10
49.8135202339
 20
122.9384557832
 30
0.0
 10
50.3157585569
 20
123.1712746088
 30
0.0
 10
50.6647629716
 20
123.3927909321
 30
0.0
 10
50.9578623122
 20
123.6208700168
 30
0.0
 10
51.1452481418
 20
123.8205183962
 30
0.0
 10
51.2458282897
 20
123.9636672116
 30
0.0
  0
SPLINE
  5
309
100
AcDbEntity
  8
_1
100
AcDbSpline
 62
7
  6
CONTINUOUS
 70
0
 71
3
 72
12
 73
8
 74
0
 42
0.0000001
 43
0.0000001
 44
0.0000000001
 40
0.0
 40
0.0
 40
0.0
 40
0.0
 40
0.1081587737
 40
0.2183572733
 40
0.4513588166
 40
0.7104163033
 40
1.0
 40
1.0
 40
1.0
 40
1.0
 10
45.7245284658
 20
130.5855308367
 30
0.0
 10
45.7245280908
 20
130.5476692156
 30
0.0
 10
45.7311239088
 20
130.4710748426
 30
0.0
 10
45.7708914713
 20
130.3175101655
 30
0.0
 10
45.8730474144
 20
130.1292205155
 30
0.0
 10
46.0632860747
 20
129.9293982398
 30
0.0
 10
46.2225285385
 20
129.8197269157
 30
0.0
 10
46.3103184571
 20
129.7690425292
 30
0.0
  0
SPLINE
  5
30A
100
AcDbEntity
  8
_1
100
AcDbSpline
 62
7
  6
CONTINUOUS
 70
0
 71
3
 72
11
 73
7
 74
0
 42
0.0000001
 43
0.0000001
 44
0.0000000001
 40
0.0
 40
0.0
 40
0.0
 40
0.0
 40
0.2339751685
 40
0.482714959
 40
0.7402831502
 40
1.0
 40
1.0
 40
1.0
 40
1.0
 10
45.389232268
 20
123.057646518
 30
0.0
 10
45.5969435435
 20
122.9642260928
 30
0.0
 10
46.0411742656
 20
122.8053813572
 30
0.0
 10
46.7473200364
 20
122.6533608745
 30
0.0
 10
47.4913981985
 20
122.5841358854
 30
0.0
 10
47.9961163692
 20
122.5951500278
 30
0.0
 10
48.2481148301
 20
122.6153895344
 30
0.0
  0
SPLINE
  5
30B
100
AcDbEntity
  8
_1
100
AcDbSpline
 62
7
  6
CONTINUOUS
 70
0
 71
3
 72
16
 73
12
 74
0
 42
0.0000001
 43
0.0000001
 44
0.0000000001
 40
0.0
 40
0.0
 40
0.0
 40
0.0
 40
0.1485142142
 40
0.2920596116
 40
0.4293462307
 40
0.4953436795
 40
0.5594224745
 40
0.6815048641
 40
0.795359162
 40
0.9012405322
 40
1.0
 40
1.0
 40
1.0
 40
1.0
 10
48.8301094768
 20
118.568097786
 30
0.0
 10
48.9897791912
 20
118.5946098776
 30
0.0
 10
49.3019649201
 20
118.6586521201
 30
0.0
 10
49.7517148884
 20
118.7895897073
 30
0.0
 10
50.1045536344
 20
118.9268115578
 30
0.0
 10
50.3677343995
 20
119.0521360978
 30
0.0
 10
50.6095258493
 20
119.182944274
 30
0.0
 10
50.88434575
 20
119.3615134612
 30
0.0
 10
51.1700097398
 20
119.6023527069
 30
0.0
 10
51.4014949961
 20
119.8627200996
 30
0.0
 10
51.5207209146
 20
120.0528801216
 30
0.0
 10
51.5687108623
 20
120.1492205951
 30
0.0
  0
SPLINE
  5
30C
100
AcDbEntity
  8
_1
100
AcDbSpline
 62
7
  6
CONTINUOUS
 70
0
 71
3
 72
20
 73
16
 74
0
 42
0.0000001
 43
0.0000001
 44
0.0000000001
 40
0.0
 40
0.0
 40
0.0
 40
0.0
 40
0.062409941
 40
0.1288039485
 40
0.2703013475
 40
0.4173619747
 40
0.5616182661
 40
0.6302560147
 40
0.6953813366
 40
0.7563646104
 40
0.812835237
 40
0.8647655196
 40
0.9125675094
 40
0.9571678748
 40
1.0
 40
1.0
 40
1.0
 40
1.0
 10
46.3103184571
 20
129.7690425292
 30
0.0
 10
46.3821632675
 20
129.727563847
 30
0.0
 10
46.5361702594
 20
129.6516379483
 30
0.0
 10
46.8744924364
 20
129.5290803366
 30
0.0
 10
47.3400863856
 20
129.4359103735
 30
0.0
 10
47.9175821688
 20
129.4200058289
 30
0.0
 10
48.3941738464
 20
129.4868333398
 30
0.0
 10
48.7497831283
 20
129.5892865234
 30
0.0
 10
48.9903747012
 20
129.6862228055
 30
0.0
 10
49.2041115384
 20
129.8024693844
 30
0.0
 10
49.3865341218
 20
129.9357614955
 30
0.0
 10
49.5337442504
 20
130.0835982804
 30
0.0
 10
49.6423559246
 20
130.2433584023
 30
0.0
 10
49.7092951017
 20
130.4118814534
 30
0.0
 10
49.7245232334
 20
130.5285959891
 30
0.0
 10
49.7245237973
 20
130.5855308372
 30
0.0
  0
SPLINE
  5
30D
100
AcDbEntity
  8
_1
100
AcDbSpline
 62
7
  6
CONTINUOUS
 70
0
 71
3
 72
23
 73
19
 74
0
 42
0.0000001
 43
0.0000001
 44
0.0000000001
 40
0.0
 40
0.0
 40
0.0
 40
0.0
 40
0.0428144174
 40
0.0873962823
 40
0.1351790518
 40
0.187088116
 40
0.2435345138
 40
0.3044918237
 40
0.3695897307
 40
0.4381978297
 40
0.5094956441
 40
0.5825316034
 40
0.656275476
 40
0.7296636733
 40
0.8016517661
 40
0.8712539906
 40
0.9376083087
 40
1.0
 40
1.0
 40
1.0
 40
1.0
 10
51.5245192453
 20
124.0535114618
 30
0.0
 10
51.5245263262
 20
123.9453338364
 30
0.0
 10
51.4955905349
 20
123.723572526
 30
0.0
 10
51.3684094475
 20
123.4033717193
 30
0.0
 10
51.1620347762
 20
123.0998265106
 30
0.0
 10
50.8823243062
 20
122.8189416654
 30
0.0
 10
50.5357273025
 20
122.5656786472
 30
0.0
 10
50.1296229588
 20
122.3448016869
 30
0.0
 10
49.6725156249
 20
122.1606496919
 30
0.0
 10
49.174008596
 20
122.0169817569
 30
0.0
 10
48.6446406685
 20
121.9167934638
 30
0.0
 10
48.0956566341
 20
121.8621994391
 30
0.0
 10
47.5387578971
 20
121.8543650521
 30
0.0
 10
46.9858194535
 20
121.8934474655
 30
0.0
 10
46.4486462834
 20
121.9786295185
 30
0.0
 10
45.9386081633
 20
122.108094051
 30
0.0
 10
45.4666417981
 20
122.2791105512
 30
0.0
 10
45.1740549996
 20
122.4233636481
 30
0.0
 10
45.0375315501
 20
122.5021837152
 30
0.0
  0
SPLINE
  5
30E
100
AcDbEntity
  8
_1
100
AcDbSpline
 62
7
  6
CONTINUOUS
 70
0
 71
3
 72
12
 73
8
 74
0
 42
0.0000001
 43
0.0000001
 44
0.0000000001
 40
0.0
 40
0.0
 40
0.0
 40
0.0
 40
0.2895824288
 40
0.5486380529
 40
0.7816405682
 40
0.8918398716
 40
1.0
 40
1.0
 40
1.0
 40
1.0
 10
46.3103184571
 20
126.5846831024
 30
0.0
 10
46.2225289047
 20
126.6353672775
 30
0.0
 10
46.0632869994
 20
126.7450376436
 30
0.0
 10
45.8730490848
 20
126.9448594093
 30
0.0
 10
45.7708916202
 20
127.1331483869
 30
0.0
 10
45.7311240643
 20
127.2867141686
 30
0.0
 10
45.7245273366
 20
127.3633093055
 30
0.0
 10
45.7245282259
 20
127.4011714086
 30
0.0
  0
SPLINE
  5
30F
100
AcDbEntity
  8
_1
100
AcDbSpline
 62
7
  6
CONTINUOUS
 70
0
 71
3
 72
14
 73
10
 74
0
 42
0.0000001
 43
0.0000001
 44
0.0000000001
 40
0.0
 40
0.0
 40
0.0
 40
0.0
 40
0.1080475483
 40
0.2181297703
 40
0.3321015138
 40
0.4515005468
 40
0.5774548005
 40
0.7107149345
 40
1.0
 40
1.0
 40
1.0
 40
1.0
 10
43.2245281076
 20
124.0535115
 30
0.0
 10
43.2245281495
 20
123.9683196248
 30
0.0
 10
43.2393351681
 20
123.7959868203
 30
0.0
 10
43.305358544
 20
123.5414445142
 30
0.0
 10
43.4143539524
 20
123.2923796889
 30
0.0
 10
43.5649490114
 20
123.0513461638
 30
0.0
 10
43.7554192975
 20
122.8204512636
 30
0.0
 10
44.0683927036
 20
122.5209165227
 30
0.0
 10
44.3450246348
 20
122.3304566679
 30
0.0
 10
44.5425588641
 20
122.2164128075
 30
0.0
  0
SPLINE
  5
310
100
AcDbEntity
  8
_1
100
AcDbSpline
 62
7
  6
CONTINUOUS
 70
0
 71
3
 72
12
 73
8
 74
0
 42
0.0000001
 43
0.0000001
 44
0.0000000001
 40
0.0
 40
0.0
 40
0.0
 40
0.0
 40
0.1115063627
 40
0.2290875897
 40
0.4784344412
 40
0.7390140414
 40
1.0
 40
1.0
 40
1.0
 40
1.0
 10
44.9481641429
 20
119.1250160387
 30
0.0
 10
45.0730286753
 20
119.0555098348
 30
0.0
 10
45.3375753533
 20
118.9267635
 30
0.0
 10
45.9125844945
 20
118.7118673117
 30
0.0
 10
46.7000930824
 20
118.5303488314
 30
0.0
 10
47.68825385
 20
118.4541981107
 30
0.0
 10
48.3580936095
 20
118.4987953323
 30
0.0
 10
48.6891829552
 20
118.5462963259
 30
0.0
  0
SPLINE
  5
311
100
AcDbEntity
  8
_1
100
AcDbSpline
 62
7
  6
CONTINUOUS
 70
0
 71
3
 72
20
 73
16
 74
0
 42
0.0000001
 43
0.0000001
 44
0.0000000001
 40
0.0
 40
0.0
 40
0.0
 40
0.0
 40
0.0428324151
 40
0.0874333387
 40
0.1352359806
 40
0.1871668284
 40
0.2436377496
 40
0.3046209127
 40
0.3697456514
 40
0.4383823287
 40
0.5826360634
 40
0.7296957739
 40
0.871194132
 40
0.9375895016
 40
1.0
 40
1.0
 40
1.0
 40
1.0
 10
49.7245240372
 20
127.4011714117
 30
0.0
 10
49.7245226999
 20
127.3442361782
 30
0.0
 10
49.7092958201
 20
127.227520423
 30
0.0
 10
49.6423541017
 20
127.0589959517
 30
0.0
 10
49.5337405978
 20
126.8992343581
 30
0.0
 10
49.3865281902
 20
126.7513968991
 30
0.0
 10
49.2041040085
 20
126.6181053228
 30
0.0
 10
48.9903671749
 20
126.5018598809
 30
0.0
 10
48.7497774833
 20
126.4049252387
 30
0.0
 10
48.3941734172
 20
126.3024742941
 30
0.0
 10
47.9175879103
 20
126.235647036
 30
0.0
 10
47.3400955451
 20
126.2515504383
 30
0.0
 10
46.874499231
 20
126.3447185977
 30
0.0
 10
46.5361734904
 20
126.4672776201
 30
0.0
 10
46.3821639091
 20
126.5432040497
 30
0.0
 10
46.3103184571
 20
126.5846831024
 30
0.0
  0
SPLINE
  5
312
100
AcDbEntity
  8
_1
100
AcDbSpline
 62
7
  6
CONTINUOUS
 70
0
 71
3
 72
9
 73
5
 74
0
 42
0.0000001
 43
0.0000001
 44
0.0000000001
 40
0.0
 40
0.0
 40
0.0
 40
0.0
 40
0.2553414285
 40
1.0
 40
1.0
 40
1.0
 40
1.0
 10
172.1273613027
 20
140.8070843573
 30
0.0
 10
172.1137699486
 20
140.4255434333
 30
0.0
 10
172.0429811484
 20
138.9320132962
 30
0.0
 10
171.9006134852
 20
137.4416341461
 30
0.0
 10
171.749909657
 20
136.3384774368
 30
0.0
  0
SPLINE
  5
313
100
AcDbEntity
  8
_1
100
AcDbSpline
 62
7
  6
CONTINUOUS
 70
0
 71
3
 72
9
 73
5
 74
0
 42
0.0000001
 43
0.0000001
 44
0.0000000001
 40
0.0
 40
0.0
 40
0.0
 40
0.0
 40
0.2420044272
 40
1.0
 40
1.0
 40
1.0
 40
1.0
 10
166.3492663951
 20
130.7867376616
 30
0.0
 10
166.3616213734
 20
130.7938785485
 30
0.0
 10
166.4109003521
 20
130.8264425368
 30
0.0
 10
166.451969985
 20
130.8707259553
 30
0.0
 10
166.4774243593
 20
130.9074661603
 30
0.0
  0
SPLINE
  5
314
100
AcDbEntity
  8
_1
100
AcDbSpline
 62
7
  6
CONTINUOUS
 70
0
 71
3
 72
9
 73
5
 74
0
 42
0.0000001
 43
0.0000001
 44
0.0000000001
 40
0.0
 40
0.0
 40
0.0
 40
0.0
 40
0.52114783
 40
1.0
 40
1.0
 40
1.0
 40
1.0
 10
172.0218147421
 20
138.9539240579
 30
0.0
 10
172.0928644413
 20
138.7488664011
 30
0.0
 10
172.2023338116
 20
138.3453937116
 30
0.0
 10
172.2457527032
 20
137.9285954306
 30
0.0
 10
172.2457527167
 20
137.7291905537
 30
0.0
  0
SPLINE
  5
315
100
AcDbEntity
  8
_1
100
AcDbSpline
 62
7
  6
CONTINUOUS
 70
0
 71
3
 72
9
 73
5
 74
0
 42
0.0000001
 43
0.0000001
 44
0.0000000001
 40
0.0
 40
0.0
 40
0.0
 40
0.0
 40
0.5328772855
 40
1.0
 40
1.0
 40
1.0
 40
1.0
 10
171.3430964817
 20
133.9197027927
 30
0.0
 10
171.3303198765
 20
133.8562041026
 30
0.0
 10
171.2894094424
 20
133.7384452832
 30
0.0
 10
171.2000024855
 20
133.6481214271
 30
0.0
 10
171.1508169277
 20
133.619755624
 30
0.0
  0
SPLINE
  5
316
100
AcDbEntity
  8
_1
100
AcDbSpline
 62
7
  6
CONTINUOUS
 70
0
 71
3
 72
11
 73
7
 74
0
 42
0.0000001
 43
0.0000001
 44
0.0000000001
 40
0.0
 40
0.0
 40
0.0
 40
0.0
 40
0.2852918188
 40
0.5450239236
 40
0.7812035253
 40
1.0
 40
1.0
 40
1.0
 40
1.0
 10
172.2457529634
 20
137.7291906961
 30
0.0
 10
172.2457529723
 20
137.5981119003
 30
0.0
 10
172.2284634092
 20
137.3471112022
 30
0.0
 10
172.1422723105
 20
136.9964861055
 30
0.0
 10
171.9979537695
 20
136.6984521415
 30
0.0
 10
171.8604641118
 20
136.5369535273
 30
0.0
 10
171.78480427
 20
136.4707621401
 30
0.0
  0
SPLINE
  5
317
100
AcDbEntity
  8
_1
100
AcDbSpline
 62
7
  6
CONTINUOUS
 70
0
 71
3
 72
9
 73
5
 74
0
 42
0.0000001
 43
0.0000001
 44
0.0000000001
 40
0.0
 40
0.0
 40
0.0
 40
0.0
 40
0.2521531082
 40
1.0
 40
1.0
 40
1.0
 40
1.0
 10
173.866352651
 20
152.5454010322
 30
0.0
 10
173.8460596836
 20
153.389863051
 30
0.0
 10
173.7490416185
 20
156.7384456674
 30
0.0
 10
173.5853254982
 20
160.0851314902
 30
0.0
 10
173.4236883665
 20
162.585177747
 30
0.0
  0
SPLINE
  5
318
100
AcDbEntity
  8
_1
100
AcDbSpline
 62
7
  6
CONTINUOUS
 70
0
 71
3
 72
15
 73
11
 74
0
 42
0.0000001
 43
0.0000001
 44
0.0000000001
 40
0.0
 40
0.0
 40
0.0
 40
0.0
 40
0.1279658049
 40
0.2613489956
 40
0.3969702923
 40
0.5314741536
 40
0.661593799
 40
0.7844089711
 40
0.8976395139
 40
1.0
 40
1.0
 40
1.0
 40
1.0
 10
135.411839444
 20
178.5636575042
 30
0.0
 10
134.6047734236
 20
178.2996836815
 30
0.0
 10
132.9184611312
 20
177.8722377118
 30
0.0
 10
130.3012660023
 20
177.5298875341
 30
0.0
 10
127.6186066475
 20
177.4802575707
 30
0.0
 10
124.9684360992
 20
177.7253487531
 30
0.0
 10
122.4466883928
 20
178.2561585046
 30
0.0
 10
120.1437502835
 20
179.0542390753
 30
0.0
 10
118.1425514683
 20
180.0911047119
 30
0.0
 10
116.996702188
 20
180.9659243032
 30
0.0
 10
116.5071824261
 20
181.4368010973
 30
0.0
  0
SPLINE
  5
319
100
AcDbEntity
  8
_1
100
AcDbSpline
 62
7
  6
CONTINUOUS
 70
0
 71
3
 72
11
 73
7
 74
0
 42
0.0000001
 43
0.0000001
 44
0.0000000001
 40
0.0
 40
0.0
 40
0.0
 40
0.0
 40
0.2742015802
 40
0.5287766079
 40
0.7684443046
 40
1.0
 40
1.0
 40
1.0
 40
1.0
 10
116.5071824261
 20
181.4368010973
 30
0.0
 10
116.1952703562
 20
181.736834246
 30
0.0
 10
115.6346867575
 20
182.3610278685
 30
0.0
 10
114.9933998975
 20
183.3991526143
 30
0.0
 10
114.6000751971
 20
184.4843607362
 30
0.0
 10
114.5110586004
 20
185.230835882
 30
0.0
 10
114.5110588319
 20
185.5963169382
 30
0.0
  0
SPLINE
  5
31A
100
AcDbEntity
  8
_1
100
AcDbSpline
 62
7
  6
CONTINUOUS
 70
0
 71
3
 72
9
 73
5
 74
0
 42
0.0000001
 43
0.0000001
 44
0.0000000001
 40
0.0
 40
0.0
 40
0.0
 40
0.0
 40
0.5137302264
 40
1.0
 40
1.0
 40
1.0
 40
1.0
 10
111.5486109355
 20
183.2473034772
 30
0.0
 10
111.4918376553
 20
183.156899577
 30
0.0
 10
111.4013825057
 20
182.966779961
 30
0.0
 10
111.3689391137
 20
182.7579203814
 30
0.0
 10
111.368939115
 20
182.6568742433
 30
0.0
  0
SPLINE
  5
31B
100
AcDbEntity
  8
_1
100
AcDbSpline
 62
7
  6
CONTINUOUS
 70
0
 71
3
 72
23
 73
19
 74
0
 42
0.0000001
 43
0.0000001
 44
0.0000000001
 40
0.0
 40
0.0
 40
0.0
 40
0.0
 40
0.0428152488
 40
0.0873978469
 40
0.1351811723
 40
0.1870905858
 40
0.2435371276
 40
0.3044943986
 40
0.3695921169
 40
0.4381999156
 40
0.5094973553
 40
0.5825329061
 40
0.6562763502
 40
0.7296641586
 40
0.8016519556
 40
0.8712539826
 40
0.9376082255
 40
1.0
 40
1.0
 40
1.0
 40
1.0
 10
151.0098872248
 20
225.9088015022
 30
0.0
 10
151.2934026184
 20
226.0725129366
 30
0.0
 10
151.9184066207
 20
226.3322421275
 30
0.0
 10
152.9500737934
 20
226.4834424639
 30
0.0
 10
154.0579201766
 20
226.4018845949
 30
0.0
 10
155.2173437238
 20
226.0938343866
 30
0.0
 10
156.4055818331
 20
225.568686706
 30
0.0
 10
157.598981926
 20
224.8385722768
 30
0.0
 10
158.7733037671
 20
223.9192141977
 30
0.0
 10
159.9041639037
 20
222.8300930589
 30
0.0
 10
160.9677644722
 20
221.5942965951
 30
0.0
 10
161.9415480267
 20
220.2380960011
 30
0.0
 10
162.804754458
 20
218.7903956091
 30
0.0
 10
163.5390030916
 20
217.2820799947
 30
0.0
 10
164.1285731698
 20
215.7453248147
 30
0.0
 10
164.5610229358
 20
214.2126783679
 30
0.0
 10
164.8269599456
 20
212.7169361978
 30
0.0
 10
164.8916128221
 20
211.7318231443
 30
0.0
 10
164.8916128221
 20
211.2547437833
 30
0.0
  0
SPLINE
  5
31C
100
AcDbEntity
  8
_1
100
AcDbSpline
 62
7
  6
CONTINUOUS
 70
0
 71
3
 72
12
 73
8
 74
0
 42
0.0000001
 43
0.0000001
 44
0.0000000001
 40
0.0
 40
0.0
 40
0.0
 40
0.0
 40
0.118238676
 40
0.2363326778
 40
0.4766784563
 40
0.7291889265
 40
1.0
 40
1.0
 40
1.0
 40
1.0
 10
131.2611115655
 20
176.1250639871
 30
0.0
 10
131.2611115655
 20
176.2060811684
 30
0.0
 10
131.2452395552
 20
176.3684744913
 30
0.0
 10
131.1517096306
 20
176.6831366228
 30
0.0
 10
130.9249306718
 20
177.0450868934
 30
0.0
 10
130.525661725
 20
177.3915773105
 30
0.0
 10
130.2065012923
 20
177.5611770254
 30
0.0
 10
130.0355998595
 20
177.6334622561
 30
0.0
  0
SPLINE
  5
31D
100
AcDbEntity
  8
_1
100
AcDbSpline
 62
7
  6
CONTINUOUS
 70
0
 71
3
 72
9
 73
5
 74
0
 42
0.0000001
 43
0.0000001
 44
0.0000000001
 40
0.0
 40
0.0
 40
0.0
 40
0.0
 40
0.2552653577
 40
1.0
 40
1.0
 40
1.0
 40
1.0
 10
127.0317806263
 20
177.6521204798
 30
0.0
 10
127.000062162
 20
177.6392760859
 30
0.0
 10
126.8766277492
 20
177.5869684213
 30
0.0
 10
126.7565780893
 20
177.5265377591
 30
0.0
 10
126.6701158032
 20
177.4766190329
 30
0.0
  0
SPLINE
  5
31E
100
AcDbEntity
  8
_1
100
AcDbSpline
 62
7
  6
CONTINUOUS
 70
0
 71
3
 72
11
 73
7
 74
0
 42
0.0000001
 43
0.0000001
 44
0.0000000001
 40
0.0
 40
0.0
 40
0.0
 40
0.0
 40
0.2897781767
 40
0.5490726313
 40
0.7822276909
 40
1.0
 40
1.0
 40
1.0
 40
1.0
 10
112.247605551
 20
177.6762306629
 30
0.0
 10
112.11593319
 20
177.7522500161
 30
0.0
 10
111.8770776733
 20
177.916695116
 30
0.0
 10
111.5917063152
 20
178.2167266948
 30
0.0
 10
111.4111368013
 20
178.5485178877
 30
0.0
 10
111.3689391164
 20
178.7867019943
 30
0.0
 10
111.368939115
 20
178.9009631245
 30
0.0
  0
SPLINE
  5
31F
100
AcDbEntity
  8
_1
100
AcDbSpline
 62
7
  6
CONTINUOUS
 70
0
 71
3
 72
15
 73
11
 74
0
 42
0.0000001
 43
0.0000001
 44
0.0000000001
 40
0.0
 40
0.0
 40
0.0
 40
0.0
 40
0.1141464977
 40
0.2373352781
 40
0.3669759338
 40
0.4999994786
 40
0.633023096
 40
0.7626639634
 40
0.8858530776
 40
1.0
 40
1.0
 40
1.0
 40
1.0
 10
130.632440741
 20
169.5114257705
 30
0.0
 10
130.4872303161
 20
169.4275889931
 30
0.0
 10
130.1696598236
 20
169.2797293756
 30
0.0
 10
129.6525539478
 20
169.1225268365
 30
0.0
 10
129.0926781071
 20
169.0258209243
 30
0.0
 10
128.5111239749
 20
168.9931526691
 30
0.0
 10
127.9295693778
 20
169.0258181642
 30
0.0
 10
127.3696921636
 20
169.1225214179
 30
0.0
 10
126.8525840616
 20
169.2797214989
 30
0.0
 10
126.5350116236
 20
169.4275795302
 30
0.0
 10
126.3898000539
 20
169.5114155725
 30
0.0
  0
SPLINE
  5
320
100
AcDbEntity
  8
_1
100
AcDbSpline
 62
7
  6
CONTINUOUS
 70
0
 71
3
 72
11
 73
7
 74
0
 42
0.0000001
 43
0.0000001
 44
0.0000000001
 40
0.0
 40
0.0
 40
0.0
 40
0.0
 40
0.2652883108
 40
0.5168487599
 40
0.7600871689
 40
1.0
 40
1.0
 40
1.0
 40
1.0
 10
126.6701158032
 20
177.4766190329
 30
0.0
 10
126.5397318525
 20
177.4013422732
 30
0.0
 10
126.2974010402
 20
177.2323515225
 30
0.0
 10
126.0020345976
 20
176.9123763738
 30
0.0
 10
125.8072884089
 20
176.5373086122
 30
0.0
 10
125.7611115655
 20
176.2612173015
 30
0.0
 10
125.7611115655
 20
176.1250639871
 30
0.0
  0
SPLINE
  5
321
100
AcDbEntity
  8
_1
100
AcDbSpline
 62
7
  6
CONTINUOUS
 70
0
 71
3
 72
9
 73
5
 74
0
 42
0.0000001
 43
0.0000001
 44
0.0000000001
 40
0.0
 40
0.0
 40
0.0
 40
0.0
 40
0.5186694468
 40
1.0
 40
1.0
 40
1.0
 40
1.0
 10
114.5141785169
 20
186.0864920434
 30
0.0
 10
114.1592139589
 20
186.0982439332
 30
0.0
 10
113.4700163776
 20
186.039760074
 30
0.0
 10
112.8133560988
 20
185.8062289974
 30
0.0
 10
112.5279213002
 20
185.6414341233
 30
0.0
  0
SPLINE
  5
322
100
AcDbEntity
  8
_1
100
AcDbSpline
 62
7
  6
CONTINUOUS
 70
0
 71
3
 72
11
 73
7
 74
0
 42
0.0000001
 43
0.0000001
 44
0.0000000001
 40
0.0
 40
0.0
 40
0.0
 40
0.0
 40
0.2652883108
 40
0.5168487599
 40
0.7600871689
 40
1.0
 40
1.0
 40
1.0
 40
1.0
 10
112.5279213002
 20
185.6414341233
 30
0.0
 10
112.3975373496
 20
185.5661573636
 30
0.0
 10
112.1552065372
 20
185.3971666129
 30
0.0
 10
111.8598400946
 20
185.0771914642
 30
0.0
 10
111.665093906
 20
184.7021237026
 30
0.0
 10
111.6189170626
 20
184.4260323919
 30
0.0
 10
111.6189170626
 20
184.2898790776
 30
0.0
  0
SPLINE
  5
323
100
AcDbEntity
  8
_1
100
AcDbSpline
 62
7
  6
CONTINUOUS
 70
0
 71
3
 72
9
 73
5
 74
0
 42
0.0000001
 43
0.0000001
 44
0.0000000001
 40
0.0
 40
0.0
 40
0.0
 40
0.0
 40
0.2547173421
 40
1.0
 40
1.0
 40
1.0
 40
1.0
 10
112.777920181
 20
185.6166719838
 30
0.0
 10
112.7646528418
 20
185.6090121276
 30
0.0
 10
112.712897683
 20
185.5783715877
 30
0.0
 10
112.6624956653
 20
185.5454317539
 30
0.0
 10
112.6259034093
 20
185.5195427811
 30
0.0
  0
SPLINE
  5
324
100
AcDbEntity
  8
_1
100
AcDbSpline
 62
7
  6
CONTINUOUS
 70
0
 71
3
 72
19
 73
15
 74
0
 42
0.0000001
 43
0.0000001
 44
0.0000000001
 40
0.0
 40
0.0
 40
0.0
 40
0.0
 40
0.0587606991
 40
0.1122172294
 40
0.1612987715
 40
0.2076818897
 40
0.2536098635
 40
0.3014528226
 40
0.3531302101
 40
0.4098238551
 40
0.5390555014
 40
0.6865972191
 40
0.8438688157
 40
1.0
 40
1.0
 40
1.0
 40
1.0
 10
112.6259034093
 20
185.5195427811
 30
0.0
 10
112.5518592642
 20
185.4671566463
 30
0.0
 10
112.4174604061
 20
185.3563417225
 30
0.0
 10
112.2573356149
 20
185.1634334908
 30
0.0
 10
112.1531799265
 20
184.9558659695
 30
0.0
 10
112.1096134488
 20
184.7390683661
 30
0.0
 10
112.1295670228
 20
184.5206410842
 30
0.0
 10
112.2116366879
 20
184.3089055031
 30
0.0
 10
112.351425271
 20
184.1099930534
 30
0.0
 10
112.6198594361
 20
183.8571694263
 30
0.0
 10
113.0785469857
 20
183.6068022375
 30
0.0
 10
113.7291393003
 20
183.4296140994
 30
0.0
 10
114.442748283
 20
183.3774816411
 30
0.0
 10
114.9270535935
 20
183.4313496753
 30
0.0
 10
115.1625419101
 20
183.482602524
 30
0.0
  0
SPLINE
  5
325
100
AcDbEntity
  8
_1
100
AcDbSpline
 62
7
  6
CONTINUOUS
 70
0
 71
3
 72
10
 73
6
 74
0
 42
0.0000001
 43
0.0000001
 44
0.0000000001
 40
0.0
 40
0.0
 40
0.0
 40
0.0
 40
0.524661056
 40
0.7718799342
 40
1.0
 40
1.0
 40
1.0
 40
1.0
 10
114.51427659
 20
185.9944225232
 30
0.0
 10
114.2004286125
 20
186.0061556111
 30
0.0
 10
113.7333299908
 20
185.9686296988
 30
0.0
 10
113.156509263
 20
185.8038401902
 30
0.0
 10
112.8961803645
 20
185.684949125
 30
0.0
 10
112.777920181
 20
185.6166719838
 30
0.0
  0
SPLINE
  5
326
100
AcDbEntity
  8
_1
100
AcDbSpline
 62
7
  6
CONTINUOUS
 70
0
 71
3
 72
15
 73
11
 74
0
 42
0.0000001
 43
0.0000001
 44
0.0000000001
 40
0.0
 40
0.0
 40
0.0
 40
0.0
 40
0.1513443566
 40
0.2973046161
 40
0.4362721259
 40
0.5669158962
 40
0.688401403
 40
0.8005185554
 40
0.9038584545
 40
1.0
 40
1.0
 40
1.0
 40
1.0
 10
125.7087984674
 20
175.9203791827
 30
0.0
 10
125.1612541534
 20
175.9963056751
 30
0.0
 10
124.0912442877
 20
176.1907186338
 30
0.0
 10
122.5532882473
 20
176.6161421439
 30
0.0
 10
121.1343822361
 20
177.1628322705
 30
0.0
 10
119.8626081555
 20
177.8203951614
 30
0.0
 10
118.7630270747
 20
178.5763958057
 30
0.0
 10
117.8574841175
 20
179.4175474479
 30
0.0
 10
117.1650759305
 20
180.3286212006
 30
0.0
 10
116.8478935385
 20
180.9922146948
 30
0.0
 10
116.7350027944
 20
181.3247295558
 30
0.0
  0
SPLINE
  5
327
100
AcDbEntity
  8
_1
100
AcDbSpline
 62
7
  6
CONTINUOUS
 70
0
 71
3
 72
13
 73
9
 74
0
 42
0.0000001
 43
0.0000001
 44
0.0000000001
 40
0.0
 40
0.0
 40
0.0
 40
0.0
 40
0.1409098979
 40
0.2795121544
 40
0.414000053
 40
0.543330065
 40
0.7843474988
 40
1.0
 40
1.0
 40
1.0
 40
1.0
 10
123.6075880937
 20
203.5003905789
 30
0.0
 10
124.1696697621
 20
203.1573236166
 30
0.0
 10
125.2830264071
 20
202.4741750173
 30
0.0
 10
126.9261966767
 20
201.4528169974
 30
0.0
 10
128.5198236386
 20
200.4542879535
 30
0.0
 10
130.5129733122
 20
199.1920276132
 30
0.0
 10
132.8182121714
 20
197.7136734787
 30
0.0
 10
134.6049237398
 20
196.5464917496
 30
0.0
 10
135.4459771605
 20
195.9912586467
 30
0.0
  0
SPLINE
  5
328
100
AcDbEntity
  8
_1
100
AcDbSpline
 62
7
  6
CONTINUOUS
 70
0
 71
3
 72
17
 73
13
 74
0
 42
0.0000001
 43
0.0000001
 44
0.0000000001
 40
0.0
 40
0.0
 40
0.0
 40
0.0
 40
0.1286919658
 40
0.2702764102
 40
0.4174294026
 40
0.5617750105
 40
0.6954477686
 40
0.8127152973
 40
0.8646787954
 40
0.9125127165
 40
0.9571419224
 40
1.0
 40
1.0
 40
1.0
 40
1.0
 10
130.4556633097
 20
173.369397078
 30
0.0
 10
130.2520926034
 20
173.2518661774
 30
0.0
 10
129.7911893851
 20
173.0616973205
 30
0.0
 10
129.0400129036
 20
172.9114218101
 30
0.0
 10
128.2455095139
 20
172.8894043078
 30
0.0
 10
127.4725043548
 20
172.9980249291
 30
0.0
 10
126.7836793773
 20
173.2281177585
 30
0.0
 10
126.304587707
 20
173.5197182578
 30
0.0
 10
126.0234439101
 20
173.8018946269
 30
0.0
 10
125.874095157
 20
174.0215769885
 30
0.0
 10
125.7820472498
 20
174.2532931403
 30
0.0
 10
125.7611337488
 20
174.4137765494
 30
0.0
 10
125.7611317392
 20
174.492059152
 30
0.0
  0
SPLINE
  5
329
100
AcDbEntity
  8
_1
100
AcDbSpline
 62
7
  6
CONTINUOUS
 70
0
 71
3
 72
11
 73
7
 74
0
 42
0.0000001
 43
0.0000001
 44
0.0000000001
 40
0.0
 40
0.0
 40
0.0
 40
0.0
 40
0.2897730581
 40
0.5490651526
 40
0.7822233799
 40
1.0
 40
1.0
 40
1.0
 40
1.0
 10
130.4556633097
 20
175.0024019122
 30
0.0
 10
130.5763591631
 20
175.0720852797
 30
0.0
 10
130.7953057048
 20
175.2228222289
 30
0.0
 10
131.0568905499
 20
175.4978474996
 30
0.0
 10
131.2224194104
 20
175.8019853093
 30
0.0
 10
131.2610967076
 20
176.0203235651
 30
0.0
 10
131.2610959478
 20
176.1250639871
 30
0.0
  0
SPLINE
  5
32A
100
AcDbEntity
  8
_1
100
AcDbSpline
 62
7
  6
CONTINUOUS
 70
0
 71
3
 72
9
 73
5
 74
0
 42
0.0000001
 43
0.0000001
 44
0.0000000001
 40
0.0
 40
0.0
 40
0.0
 40
0.0
 40
0.2547173421
 40
1.0
 40
1.0
 40
1.0
 40
1.0
 10
126.920114684
 20
177.4518568934
 30
0.0
 10
126.9068473447
 20
177.4441970372
 30
0.0
 10
126.8550921859
 20
177.4135564973
 30
0.0
 10
126.8046901683
 20
177.3806166635
 30
0.0
 10
126.7680979123
 20
177.3547276907
 30
0.0
  0
SPLINE
  5
32B
100
AcDbEntity
  8
_1
100
AcDbSpline
 62
7
  6
CONTINUOUS
 70
0
 71
3
 72
20
 73
16
 74
0
 42
0.0000001
 43
0.0000001
 44
0.0000000001
 40
0.0
 40
0.0
 40
0.0
 40
0.0
 40
0.0572379679
 40
0.1085485191
 40
0.1554140495
 40
0.2003943014
 40
0.2466360268
 40
0.2968901578
 40
0.3528307778
 40
0.4149890941
 40
0.4829851444
 40
0.5557904543
 40
0.7094515673
 40
0.8621352933
 40
1.0
 40
1.0
 40
1.0
 40
1.0
 10
126.7680979123
 20
177.3547276907
 30
0.0
 10
126.6827139678
 20
177.2943186628
 30
0.0
 10
126.5298915581
 20
177.1654587024
 30
0.0
 10
126.3574514948
 20
176.9361539975
 30
0.0
 10
126.2628107648
 20
176.6878262743
 30
0.0
 10
126.2538687698
 20
176.4308310901
 30
0.0
 10
126.3316121992
 20
176.179710897
 30
0.0
 10
126.4889633967
 20
175.9459796262
 30
0.0
 10
126.7172326323
 20
175.7364078587
 30
0.0
 10
127.0076997836
 20
175.5565002953
 30
0.0
 10
127.3504322101
 20
175.4114856826
 30
0.0
 10
127.870425436
 20
175.2685652572
 30
0.0
 10
128.5668563229
 20
175.2050967394
 30
0.0
 10
129.377955818
 20
175.302367074
 30
0.0
 10
129.8839348171
 20
175.4888116459
 30
0.0
 10
130.1021084471
 20
175.614773498
 30
0.0
  0
SPLINE
  5
32C
100
AcDbEntity
  8
_1
100
AcDbSpline
 62
7
  6
CONTINUOUS
 70
0
 71
3
 72
15
 73
11
 74
0
 42
0.0000001
 43
0.0000001
 44
0.0000000001
 40
0.0
 40
0.0
 40
0.0
 40
0.0
 40
0.1386934043
 40
0.2607066993
 40
0.3697026129
 40
0.4737549877
 40
0.5829897543
 40
0.7053689323
 40
0.8444803317
 40
1.0
 40
1.0
 40
1.0
 40
1.0
 10
130.1021084471
 20
175.614773498
 30
0.0
 10
130.2144214492
 20
175.679617053
 30
0.0
 10
130.4155326092
 20
175.8211938757
 30
0.0
 10
130.6444182421
 20
176.0860962899
 30
0.0
 10
130.766281255
 20
176.3822599931
 30
0.0
 10
130.7647408709
 20
176.6918396659
 30
0.0
 10
130.6400430293
 20
176.9873512461
 30
0.0
 10
130.4086799113
 20
177.2514523132
 30
0.0
 10
130.086373606
 20
177.4759405858
 30
0.0
 10
129.8332000674
 20
177.588510722
 30
0.0
 10
129.6962774375
 20
177.6374961476
 30
0.0
  0
SPLINE
  5
32D
100
AcDbEntity
  8
_1
100
AcDbSpline
 62
7
  6
CONTINUOUS
 70
0
 71
3
 72
9
 73
5
 74
0
 42
0.0000001
 43
0.0000001
 44
0.0000000001
 40
0.0
 40
0.0
 40
0.0
 40
0.0
 40
0.2600582178
 40
1.0
 40
1.0
 40
1.0
 40
1.0
 10
127.3539871905
 20
177.6473850355
 30
0.0
 10
127.3149732871
 20
177.6338738594
 30
0.0
 10
127.1661071186
 20
177.5787161745
 30
0.0
 10
127.0218505639
 20
177.5105937804
 30
0.0
 10
126.920114684
 20
177.4518568934
 30
0.0
  0
SPLINE
  5
32E
100
AcDbEntity
  8
_1
100
AcDbSpline
 62
7
  6
CONTINUOUS
 70
0
 71
3
 72
13
 73
9
 74
0
 42
0.0000001
 43
0.0000001
 44
0.0000000001
 40
0.0
 40
0.0
 40
0.0
 40
0.0
 40
0.2105442143
 40
0.3261131914
 40
0.4486331635
 40
0.5778740051
 40
0.7133487016
 40
1.0
 40
1.0
 40
1.0
 40
1.0
 10
115.3978927256
 20
208.2401531819
 30
0.0
 10
115.7679153773
 20
207.668863843
 30
0.0
 10
116.4821380922
 20
206.8717739275
 30
0.0
 10
117.6185382773
 20
205.9691376451
 30
0.0
 10
118.6211761656
 20
205.3285527518
 30
0.0
 10
119.7351173208
 20
204.7539424444
 30
0.0
 10
121.3831189367
 20
204.0707867912
 30
0.0
 10
122.7017629919
 20
203.6959468952
 30
0.0
 10
123.6075880937
 20
203.5003905789
 30
0.0
  0
SPLINE
  5
32F
100
AcDbEntity
  8
_1
100
AcDbSpline
 62
7
  6
CONTINUOUS
 70
0
 71
3
 72
16
 73
12
 74
0
 42
0.0000001
 43
0.0000001
 44
0.0000000001
 40
0.0
 40
0.0
 40
0.0
 40
0.0
 40
0.0431158193
 40
0.0875377974
 40
0.1841206166
 40
0.2954645682
 40
0.4220834372
 40
0.5611506574
 40
0.7078020559
 40
0.8561310207
 40
1.0
 40
1.0
 40
1.0
 40
1.0
 10
111.6189326803
 20
184.2898790776
 30
0.0
 10
111.6189331626
 20
184.2233901002
 30
0.0
 10
111.6338427367
 20
184.0879619858
 30
0.0
 10
111.7244393249
 20
183.8169297757
 30
0.0
 10
111.9561044775
 20
183.4935494119
 30
0.0
 10
112.3693173847
 20
183.1764307515
 30
0.0
 10
112.899381197
 20
182.9286729772
 30
0.0
 10
113.5162226488
 20
182.7633951533
 30
0.0
 10
114.1839116827
 20
182.6895263407
 30
0.0
 10
114.8624440174
 20
182.7114821653
 30
0.0
 10
115.3080436568
 20
182.7914235457
 30
0.0
 10
115.5224076805
 20
182.8486091102
 30
0.0
  0
SPLINE
  5
330
100
AcDbEntity
  8
_1
100
AcDbSpline
 62
7
  6
CONTINUOUS
 70
0
 71
3
 72
17
 73
13
 74
0
 42
0.0000001
 43
0.0000001
 44
0.0000000001
 40
0.0
 40
0.0
 40
0.0
 40
0.0
 40
0.1286919658
 40
0.2702764102
 40
0.4174294026
 40
0.5617750105
 40
0.6954477686
 40
0.8127152973
 40
0.8646787954
 40
0.9125127165
 40
0.9571419224
 40
1.0
 40
1.0
 40
1.0
 40
1.0
 10
116.3134688068
 20
181.5342121684
 30
0.0
 10
116.1098981004
 20
181.4166812678
 30
0.0
 10
115.6489948822
 20
181.2265124109
 30
0.0
 10
114.8978184007
 20
181.0762369006
 30
0.0
 10
114.103315011
 20
181.0542193982
 30
0.0
 10
113.3303098519
 20
181.1628400195
 30
0.0
 10
112.6414848744
 20
181.3929328489
 30
0.0
 10
112.1623932041
 20
181.6845333482
 30
0.0
 10
111.8812494071
 20
181.9667097173
 30
0.0
 10
111.731900654
 20
182.1863920789
 30
0.0
 10
111.6398527468
 20
182.4181082307
 30
0.0
 10
111.6189392458
 20
182.5785916398
 30
0.0
 10
111.6189372363
 20
182.6568742424
 30
0.0
  0
SPLINE
  5
331
100
AcDbEntity
  8
_1
100
AcDbSpline
 62
7
  6
CONTINUOUS
 70
0
 71
3
 72
9
 73
5
 74
0
 42
0.0000001
 43
0.0000001
 44
0.0000000001
 40
0.0
 40
0.0
 40
0.0
 40
0.0
 40
0.4864517219
 40
1.0
 40
1.0
 40
1.0
 40
1.0
 10
135.4545848011
 20
177.00640395
 30
0.0
 10
134.8109368896
 20
176.7427634328
 30
0.0
 10
133.4474267805
 20
176.2966561287
 30
0.0
 10
132.0407349312
 20
176.0212517516
 30
0.0
 10
131.3134016595
 20
175.9203913611
 30
0.0
  0
SPLINE
  5
332
100
AcDbEntity
  8
_1
100
AcDbSpline
 62
7
  6
CONTINUOUS
 70
0
 71
3
 72
17
 73
13
 74
0
 42
0.0000001
 43
0.0000001
 44
0.0000000001
 40
0.0
 40
0.0
 40
0.0
 40
0.0
 40
0.0428588705
 40
0.0874882997
 40
0.1353223328
 40
0.1872856408
 40
0.3045518466
 40
0.4382226938
 40
0.5825694618
 40
0.7297273024
 40
0.8713109533
 40
1.0
 40
1.0
 40
1.0
 40
1.0
 10
125.7611271833
 20
176.1250639872
 30
0.0
 10
125.7611277511
 20
176.0467797956
 30
0.0
 10
125.7820424325
 20
175.8862942148
 30
0.0
 10
125.8740888012
 20
175.6545747914
 30
0.0
 10
126.0234407567
 20
175.4348934129
 30
0.0
 10
126.304583139
 20
175.1527186523
 30
0.0
 10
126.7836704563
 20
174.8611211917
 30
0.0
 10
127.4724922757
 20
174.6310270198
 30
0.0
 10
128.2455064657
 20
174.5224062466
 30
0.0
 10
129.0400211578
 20
174.5444235086
 30
0.0
 10
129.7911998719
 20
174.6947059889
 30
0.0
 10
130.2520968552
 20
174.8848734665
 30
0.0
 10
130.4556633097
 20
175.0024019122
 30
0.0
  0
SPLINE
  5
333
100
AcDbEntity
  8
_1
100
AcDbSpline
 62
7
  6
CONTINUOUS
 70
0
 71
3
 72
11
 73
7
 74
0
 42
0.0000001
 43
0.0000001
 44
0.0000000001
 40
0.0
 40
0.0
 40
0.0
 40
0.0
 40
0.2177713965
 40
0.4509290994
 40
0.7102263779
 40
1.0
 40
1.0
 40
1.0
 40
1.0
 10
131.2610913919
 20
174.4920591538
 30
0.0
 10
131.2610940805
 20
174.3873215052
 30
0.0
 10
131.2224114014
 20
174.1689877942
 30
0.0
 10
131.0568939234
 20
173.8648461749
 30
0.0
 10
130.7953054307
 20
173.5898206177
 30
0.0
 10
130.5763590973
 20
173.4390804074
 30
0.0
 10
130.4556633097
 20
173.369397078
 30
0.0
  0
SPLINE
  5
334
100
AcDbEntity
  8
_1
100
AcDbSpline
 62
7
  6
CONTINUOUS
 70
0
 71
3
 72
14
 73
10
 74
0
 42
0.0000001
 43
0.0000001
 44
0.0000000001
 40
0.0
 40
0.0
 40
0.0
 40
0.0
 40
0.4174172381
 40
0.5810647461
 40
0.7161349754
 40
0.8238534004
 40
0.9056237913
 40
0.9632781065
 40
1.0
 40
1.0
 40
1.0
 40
1.0
 10
115.3978927256
 20
208.2401531819
 30
0.0
 10
115.2806686441
 20
208.2974818524
 30
0.0
 10
115.1164915966
 20
208.3753751884
 30
0.0
 10
114.9108961085
 20
208.4640010247
 30
0.0
 10
114.7927077015
 20
208.5107929667
 30
0.0
 10
114.6968909824
 20
208.5440622353
 30
0.0
 10
114.6220585667
 20
208.5644277883
 30
0.0
 10
114.5678867335
 20
208.5727190438
 30
0.0
 10
114.5372335083
 20
208.5703182194
 30
0.0
 10
114.5268987705
 20
208.5653201391
 30
0.0
  0
SPLINE
  5
335
100
AcDbEntity
  8
_1
100
AcDbSpline
 62
7
  6
CONTINUOUS
 70
0
 71
3
 72
15
 73
11
 74
0
 42
0.0000001
 43
0.0000001
 44
0.0000000001
 40
0.0
 40
0.0
 40
0.0
 40
0.0
 40
0.1141469224
 40
0.2373360366
 40
0.366976904
 40
0.5000005214
 40
0.6330240662
 40
0.7626647219
 40
0.8858535023
 40
1.0
 40
1.0
 40
1.0
 40
1.0
 10
126.3898000539
 20
173.2673266913
 30
0.0
 10
126.5350116236
 20
173.183490649
 30
0.0
 10
126.8525840616
 20
173.0356326177
 30
0.0
 10
127.3696921636
 20
172.8784325367
 30
0.0
 10
127.9295693778
 20
172.7817292829
 30
0.0
 10
128.5111239749
 20
172.7490637879
 30
0.0
 10
129.0926781071
 20
172.7817320431
 30
0.0
 10
129.6525539478
 20
172.8784379553
 30
0.0
 10
130.1696598236
 20
173.0356404944
 30
0.0
 10
130.4872303161
 20
173.1835001118
 30
0.0
 10
130.632440741
 20
173.2673368893
 30
0.0
  0
SPLINE
  5
336
100
AcDbEntity
  8
_1
100
AcDbSpline
 62
7
  6
CONTINUOUS
 70
0
 71
3
 72
11
 73
7
 74
0
 42
0.0000001
 43
0.0000001
 44
0.0000000001
 40
0.0
 40
0.0
 40
0.0
 40
0.0
 40
0.2177723091
 40
0.4509273687
 40
0.7102218233
 40
1.0
 40
1.0
 40
1.0
 40
1.0
 10
111.368939115
 20
182.6568742433
 30
0.0
 10
111.3689391164
 20
182.5426131131
 30
0.0
 10
111.4111368013
 20
182.3044290065
 30
0.0
 10
111.5917063152
 20
181.9726378136
 30
0.0
 10
111.8770776733
 20
181.6726062348
 30
0.0
 10
112.11593319
 20
181.5081611349
 30
0.0
 10
112.247605551
 20
181.4321417817
 30
0.0
  0
SPLINE
  5
337
100
AcDbEntity
  8
_1
100
AcDbSpline
 62
7
  6
CONTINUOUS
 70
0
 71
3
 72
16
 73
12
 74
0
 42
0.0000001
 43
0.0000001
 44
0.0000000001
 40
0.0
 40
0.0
 40
0.0
 40
0.0
 40
0.1177924577
 40
0.2458368837
 40
0.380459786
 40
0.5172316403
 40
0.6514925293
 40
0.7788527188
 40
0.8388274144
 40
0.8958297154
 40
1.0
 40
1.0
 40
1.0
 40
1.0
 10
159.2703257301
 20
167.8378441168
 30
0.0
 10
158.4820801393
 20
167.3827530293
 30
0.0
 10
156.7382225912
 20
166.6000189741
 30
0.0
 10
153.8907731853
 20
165.831432181
 30
0.0
 10
150.8190492477
 20
165.4453048222
 30
0.0
 10
147.6757829372
 20
165.4612921904
 30
0.0
 10
144.6168512568
 20
165.8783775388
 30
0.0
 10
142.2154963597
 20
166.5564831454
 30
0.0
 10
140.4732312469
 20
167.2904183056
 30
0.0
 10
138.9631638257
 20
168.0919967639
 30
0.0
 10
137.9469910054
 20
168.835712636
 30
0.0
 10
137.3668852289
 20
169.3937316218
 30
0.0
  0
SPLINE
  5
338
100
AcDbEntity
  8
_1
100
AcDbSpline
 62
7
  6
CONTINUOUS
 70
0
 71
3
 72
11
 73
7
 74
0
 42
0.0000001
 43
0.0000001
 44
0.0000000001
 40
0.0
 40
0.0
 40
0.0
 40
0.0
 40
0.274201297
 40
0.5287762501
 40
0.7684440553
 40
1.0
 40
1.0
 40
1.0
 40
1.0
 10
137.3668852289
 20
169.3937316218
 30
0.0
 10
137.0549782139
 20
169.6937631732
 30
0.0
 10
136.4944037363
 20
170.3179529659
 30
0.0
 10
135.853128072
 20
171.3560698161
 30
0.0
 10
135.4598104135
 20
172.4412686066
 30
0.0
 10
135.3707954207
 20
173.1877368641
 30
0.0
 10
135.3707957185
 20
173.5532146797
 30
0.0
  0
SPLINE
  5
339
100
AcDbEntity
  8
_1
100
AcDbSpline
 62
7
  6
CONTINUOUS
 70
0
 71
3
 72
9
 73
5
 74
0
 42
0.0000001
 43
0.0000001
 44
0.0000000001
 40
0.0
 40
0.0
 40
0.0
 40
0.0
 40
0.5137302264
 40
1.0
 40
1.0
 40
1.0
 40
1.0
 10
132.4083478274
 20
171.2042012188
 30
0.0
 10
132.3515745472
 20
171.1137973186
 30
0.0
 10
132.2611193975
 20
170.9236777026
 30
0.0
 10
132.2286760055
 20
170.714818123
 30
0.0
 10
132.2286760068
 20
170.6137719849
 30
0.0
  0
SPLINE
  5
33A
100
AcDbEntity
  8
_1
100
AcDbSpline
 62
7
  6
CONTINUOUS
 70
0
 71
3
 72
11
 73
7
 74
0
 42
0.0000001
 43
0.0000001
 44
0.0000000001
 40
0.0
 40
0.0
 40
0.0
 40
0.0
 40
0.2897781767
 40
0.5490726313
 40
0.7822276909
 40
1.0
 40
1.0
 40
1.0
 40
1.0
 10
133.1073424428
 20
165.6331284045
 30
0.0
 10
132.9756700819
 20
165.7091477578
 30
0.0
 10
132.7368145651
 20
165.8735928577
 30
0.0
 10
132.451443207
 20
166.1736244364
 30
0.0
 10
132.2708736931
 20
166.5054156293
 30
0.0
 10
132.2286760083
 20
166.743599736
 30
0.0
 10
132.2286760068
 20
166.8578608662
 30
0.0
  0
SPLINE
  5
33B
100
AcDbEntity
  8
_1
100
AcDbSpline
 62
7
  6
CONTINUOUS
 70
0
 71
3
 72
15
 73
11
 74
0
 42
0.0000001
 43
0.0000001
 44
0.0000000001
 40
0.0
 40
0.0
 40
0.0
 40
0.0
 40
0.1141464977
 40
0.2373352781
 40
0.3669759338
 40
0.4999994786
 40
0.633023096
 40
0.7626639634
 40
0.8858530776
 40
1.0
 40
1.0
 40
1.0
 40
1.0
 10
151.4921776328
 20
157.4683235122
 30
0.0
 10
151.3469672079
 20
157.3844867347
 30
0.0
 10
151.0293967155
 20
157.2366271172
 30
0.0
 10
150.5122908397
 20
157.0794245781
 30
0.0
 10
149.9524149989
 20
156.982718666
 30
0.0
 10
149.3708608667
 20
156.9500504107
 30
0.0
 10
148.7893062697
 20
156.9827159058
 30
0.0
 10
148.2294290554
 20
157.0794191596
 30
0.0
 10
147.7123209534
 20
157.2366192405
 30
0.0
 10
147.3947485155
 20
157.3844772719
 30
0.0
 10
147.2495369457
 20
157.4683133141
 30
0.0
  0
SPLINE
  5
33C
100
AcDbEntity
  8
_1
100
AcDbSpline
 62
7
  6
CONTINUOUS
 70
0
 71
3
 72
23
 73
19
 74
0
 42
0.0000001
 43
0.0000001
 44
0.0000000001
 40
0.0
 40
0.0
 40
0.0
 40
0.0
 40
0.0428152591
 40
0.0873978504
 40
0.1351811794
 40
0.1870906066
 40
0.2435371748
 40
0.3044944781
 40
0.3695922247
 40
0.4382000348
 40
0.5094974685
 40
0.5825329869
 40
0.6562764513
 40
0.7296642613
 40
0.8016519869
 40
0.8712539643
 40
0.9376082071
 40
1.0
 40
1.0
 40
1.0
 40
1.0
 10
169.7483126655
 20
212.6409667035
 30
0.0
 10
170.0318280953
 20
212.8046782313
 30
0.0
 10
170.6568321088
 20
213.0644075233
 30
0.0
 10
171.6884993597
 20
213.2156076822
 30
0.0
 10
172.7963458198
 20
213.134049869
 30
0.0
 10
173.9557696731
 20
212.8259994705
 30
0.0
 10
175.1440082555
 20
212.300851493
 30
0.0
 10
176.3374088277
 20
211.5707365588
 30
0.0
 10
177.51173094
 20
210.6513779332
 30
0.0
 10
178.6425910864
 20
209.5622564319
 30
0.0
 10
179.7061912961
 20
208.3264599426
 30
0.0
 10
180.679974733
 20
206.9702594327
 30
0.0
 10
181.5431807856
 20
205.5225589117
 30
0.0
 10
182.2774292943
 20
204.0142436613
 30
0.0
 10
182.8669988078
 20
202.4774892427
 30
0.0
 10
183.2994482897
 20
200.944843686
 30
0.0
 10
183.5653852587
 20
199.4491017547
 30
0.0
 10
183.6300382023
 20
198.4639885643
 30
0.0
 10
183.6300382023
 20
197.9869090633
 30
0.0
  0
SPLINE
  5
33D
100
AcDbEntity
  8
_1
100
AcDbSpline
 62
7
  6
CONTINUOUS
 70
0
 71
3
 72
12
 73
8
 74
0
 42
0.0000001
 43
0.0000001
 44
0.0000000001
 40
0.0
 40
0.0
 40
0.0
 40
0.0
 40
0.1182388074
 40
0.2363329245
 40
0.4766788567
 40
0.7291892445
 40
1.0
 40
1.0
 40
1.0
 40
1.0
 10
152.1208484574
 20
164.0819617288
 30
0.0
 10
152.1208484574
 20
164.162978195
 30
0.0
 10
152.1049767309
 20
164.3253700661
 30
0.0
 10
152.0114484605
 20
164.6400295427
 30
0.0
 10
151.7846733992
 20
165.0019772757
 30
0.0
 10
151.3854106396
 20
165.3484664993
 30
0.0
 10
151.0662547219
 20
165.5180664461
 30
0.0
 10
150.8953556638
 20
165.5903519984
 30
0.0
  0
SPLINE
  5
33E
100
AcDbEntity
  8
_1
100
AcDbSpline
 62
7
  6
CONTINUOUS
 70
0
 71
3
 72
9
 73
5
 74
0
 42
0.0000001
 43
0.0000001
 44
0.0000000001
 40
0.0
 40
0.0
 40
0.0
 40
0.0
 40
0.2552683965
 40
1.0
 40
1.0
 40
1.0
 40
1.0
 10
147.8917751143
 20
165.6091225221
 30
0.0
 10
147.8600332593
 20
165.5962718676
 30
0.0
 10
147.7365095845
 20
165.5439376653
 30
0.0
 10
147.6163743145
 20
165.4834697567
 30
0.0
 10
147.529852695
 20
165.4335167745
 30
0.0
  0
SPLINE
  5
33F
100
AcDbEntity
  8
_1
100
AcDbSpline
 62
7
  6
CONTINUOUS
 70
0
 71
3
 72
11
 73
7
 74
0
 42
0.0000001
 43
0.0000001
 44
0.0000000001
 40
0.0
 40
0.0
 40
0.0
 40
0.0
 40
0.2652883108
 40
0.5168487599
 40
0.7600871689
 40
1.0
 40
1.0
 40
1.0
 40
1.0
 10
147.529852695
 20
165.4335167745
 30
0.0
 10
147.3994687443
 20
165.3582400149
 30
0.0
 10
147.157137932
 20
165.1892492642
 30
0.0
 10
146.8617714894
 20
164.8692741154
 30
0.0
 10
146.6670253007
 20
164.4942063539
 30
0.0
 10
146.6208484574
 20
164.2181150431
 30
0.0
 10
146.6208484574
 20
164.0819617288
 30
0.0
  0
SPLINE
  5
340
100
AcDbEntity
  8
_1
100
AcDbSpline
 62
7
  6
CONTINUOUS
 70
0
 71
3
 72
14
 73
10
 74
0
 42
0.0000001
 43
0.0000001
 44
0.0000000001
 40
0.0
 40
0.0
 40
0.0
 40
0.0
 40
0.2892799053
 40
0.4225416139
 40
0.5484929597
 40
0.667893569
 40
0.7818667798
 40
0.8919504998
 40
1.0
 40
1.0
 40
1.0
 40
1.0
 10
183.6300382023
 20
197.9869090633
 30
0.0
 10
183.6300382023
 20
197.4040054519
 30
0.0
 10
183.5619831441
 20
196.5483936371
 30
0.0
 10
183.2989559366
 20
195.4729796695
 30
0.0
 10
183.0313035042
 20
194.7563929521
 30
0.0
 10
182.6902802768
 20
194.115090948
 30
0.0
 10
182.2782847953
 20
193.5556206238
 30
0.0
 10
181.7993201063
 20
193.0841898519
 30
0.0
 10
181.4367855184
 20
192.8312613876
 30
0.0
 10
181.2482400607
 20
192.7223887771
 30
0.0
  0
SPLINE
  5
341
100
AcDbEntity
  8
_1
100
AcDbSpline
 62
7
  6
CONTINUOUS
 70
0
 71
3
 72
10
 73
6
 74
0
 42
0.0000001
 43
0.0000001
 44
0.0000000001
 40
0.0
 40
0.0
 40
0.0
 40
0.0
 40
0.5179543848
 40
0.7656358978
 40
1.0
 40
1.0
 40
1.0
 40
1.0
 10
135.3739154088
 20
174.0433897851
 30
0.0
 10
135.0189508508
 20
174.0551416749
 30
0.0
 10
134.4884549324
 20
174.0099166339
 30
0.0
 10
133.8286346276
 20
173.8179453165
 30
0.0
 10
133.5268307891
 20
173.6786827217
 30
0.0
 10
133.3876581921
 20
173.5983318649
 30
0.0
  0
SPLINE
  5
342
100
AcDbEntity
  8
_1
100
AcDbSpline
 62
7
  6
CONTINUOUS
 70
0
 71
3
 72
11
 73
7
 74
0
 42
0.0000001
 43
0.0000001
 44
0.0000000001
 40
0.0
 40
0.0
 40
0.0
 40
0.0
 40
0.2652883108
 40
0.5168487599
 40
0.7600871689
 40
1.0
 40
1.0
 40
1.0
 40
1.0
 10
133.3876581921
 20
173.5983318649
 30
0.0
 10
133.2572742414
 20
173.5230551053
 30
0.0
 10
133.0149434291
 20
173.3540643546
 30
0.0
 10
132.7195769864
 20
173.0340892058
 30
0.0
 10
132.5248307978
 20
172.6590214443
 30
0.0
 10
132.4786539544
 20
172.3829301335
 30
0.0
 10
132.4786539544
 20
172.2467768192
 30
0.0
  0
SPLINE
  5
343
100
AcDbEntity
  8
_1
100
AcDbSpline
 62
7
  6
CONTINUOUS
 70
0
 71
3
 72
9
 73
5
 74
0
 42
0.0000001
 43
0.0000001
 44
0.0000000001
 40
0.0
 40
0.0
 40
0.0
 40
0.0
 40
0.48626979
 40
1.0
 40
1.0
 40
1.0
 40
1.0
 10
166.5129031493
 20
170.613839972
 30
0.0
 10
166.512903148
 20
170.7148860251
 30
0.0
 10
166.4804598242
 20
170.9237454227
 30
0.0
 10
166.3900048105
 20
171.1138648962
 30
0.0
 10
166.333231621
 20
171.204268739
 30
0.0
  0
SPLINE
  5
344
100
AcDbEntity
  8
_1
100
AcDbSpline
 62
7
  6
CONTINUOUS
 70
0
 71
3
 72
11
 73
7
 74
0
 42
0.0000001
 43
0.0000001
 44
0.0000000001
 40
0.0
 40
0.0
 40
0.0
 40
0.0
 40
0.2177727701
 40
0.4509280213
 40
0.7102223029
 40
1.0
 40
1.0
 40
1.0
 40
1.0
 10
166.5129031493
 20
166.8579288532
 30
0.0
 10
166.5129031508
 20
166.743668953
 30
0.0
 10
166.4707064295
 20
166.5054875945
 30
0.0
 10
166.2901408219
 20
166.1736996141
 30
0.0
 10
166.0047752595
 20
165.8736702593
 30
0.0
 10
165.7659242757
 20
165.7092257873
 30
0.0
 10
165.6342543771
 20
165.6332065896
 30
0.0
  0
SPLINE
  5
345
100
AcDbEntity
  8
_1
100
AcDbSpline
 62
7
  6
CONTINUOUS
 70
0
 71
3
 72
9
 73
5
 74
0
 42
0.0000001
 43
0.0000001
 44
0.0000000001
 40
0.0
 40
0.0
 40
0.0
 40
0.0
 40
0.2547179658
 40
1.0
 40
1.0
 40
1.0
 40
1.0
 10
133.6376570729
 20
173.5735697254
 30
0.0
 10
133.6243886962
 20
173.5659092703
 30
0.0
 10
133.5726296366
 20
173.5352663766
 30
0.0
 10
133.5222239064
 20
173.5023238679
 30
0.0
 10
133.4856290842
 20
173.4764327086
 30
0.0
  0
SPLINE
  5
346
100
AcDbEntity
  8
_1
100
AcDbSpline
 62
7
  6
CONTINUOUS
 70
0
 71
3
 72
19
 73
15
 74
0
 42
0.0000001
 43
0.0000001
 44
0.0000000001
 40
0.0
 40
0.0
 40
0.0
 40
0.0
 40
0.0587602322
 40
0.1122165376
 40
0.161297994
 40
0.2076810979
 40
0.2536092251
 40
0.3014523915
 40
0.3531299491
 40
0.4098236905
 40
0.5390553386
 40
0.686597076
 40
0.8438688494
 40
1.0
 40
1.0
 40
1.0
 40
1.0
 10
133.4856290842
 20
173.4764327086
 30
0.0
 10
133.4115862749
 20
173.4240467685
 30
0.0
 10
133.2771899108
 20
173.3132319434
 30
0.0
 10
133.1170682211
 20
173.1203244871
 30
0.0
 10
133.0129146857
 20
172.9127578066
 30
0.0
 10
132.9693502033
 20
172.6959609315
 30
0.0
 10
132.9893050013
 20
172.4775344172
 30
0.0
 10
133.0713756915
 20
172.2657996649
 30
0.0
 10
133.2111645283
 20
172.0668881111
 30
0.0
 10
133.4795982236
 20
171.8140662628
 30
0.0
 10
133.9382833692
 20
171.5637003667
 30
0.0
 10
134.588872418
 20
171.3865126942
 30
0.0
 10
135.3024777378
 20
171.3343794688
 30
0.0
 10
135.7867807845
 20
171.3882460546
 30
0.0
 10
136.0222679542
 20
171.439497903
 30
0.0
  0
SPLINE
  5
347
100
AcDbEntity
  8
_1
100
AcDbSpline
 62
7
  6
CONTINUOUS
 70
0
 71
3
 72
10
 73
6
 74
0
 42
0.0000001
 43
0.0000001
 44
0.0000000001
 40
0.0
 40
0.0
 40
0.0
 40
0.0
 40
0.5246615395
 40
0.7718802283
 40
1.0
 40
1.0
 40
1.0
 40
1.0
 10
135.3740103552
 20
173.9513203685
 30
0.0
 10
135.0601626182
 20
173.9630531069
 30
0.0
 10
134.593064696
 20
173.9255269353
 30
0.0
 10
134.0162449706
 20
173.7607376291
 30
0.0
 10
133.7559168995
 20
173.6418466606
 30
0.0
 10
133.6376570729
 20
173.5735697254
 30
0.0
  0
SPLINE
  5
348
100
AcDbEntity
  8
_1
100
AcDbSpline
 62
7
  6
CONTINUOUS
 70
0
 71
3
 72
11
 73
7
 74
0
 42
0.0000001
 43
0.0000001
 44
0.0000000001
 40
0.0
 40
0.0
 40
0.0
 40
0.0
 40
0.2177718384
 40
0.4509299156
 40
0.7102268825
 40
1.0
 40
1.0
 40
1.0
 40
1.0
 10
152.1208282482
 20
162.4489568944
 30
0.0
 10
152.1208308793
 20
162.3442190279
 30
0.0
 10
152.0821484667
 20
162.1258848226
 30
0.0
 10
151.9166301604
 20
161.8217433029
 30
0.0
 10
151.6550420313
 20
161.5467177489
 30
0.0
 10
151.4360957851
 20
161.3959780313
 30
0.0
 10
151.3154002015
 20
161.3262948196
 30
0.0
  0
SPLINE
  5
349
100
AcDbEntity
  8
_1
100
AcDbSpline
 62
7
  6
CONTINUOUS
 70
0
 71
3
 72
17
 73
13
 74
0
 42
0.0000001
 43
0.0000001
 44
0.0000000001
 40
0.0
 40
0.0
 40
0.0
 40
0.0
 40
0.1286914424
 40
0.270275894
 40
0.4174292768
 40
0.5617752962
 40
0.6954478949
 40
0.8127150858
 40
0.8646785489
 40
0.9125125227
 40
0.9571418263
 40
1.0
 40
1.0
 40
1.0
 40
1.0
 10
151.3154002015
 20
161.3262948196
 30
0.0
 10
151.1118303227
 20
161.2087643968
 30
0.0
 10
150.6509280779
 20
161.0185957944
 30
0.0
 10
149.8997519587
 20
160.8683195675
 30
0.0
 10
149.1052470547
 20
160.846301945
 30
0.0
 10
148.3322407111
 20
160.9549227225
 30
0.0
 10
147.643415954
 20
161.1850157316
 30
0.0
 10
147.1643251509
 20
161.4766156761
 30
0.0
 10
146.8831815968
 20
161.7587914461
 30
0.0
 10
146.733832508
 20
161.9784738375
 30
0.0
 10
146.6417842599
 20
162.2101903446
 30
0.0
 10
146.6208706331
 20
162.3706741164
 30
0.0
 10
146.6208686666
 20
162.4489568946
 30
0.0
  0
SPLINE
  5
34A
100
AcDbEntity
  8
_1
100
AcDbSpline
 62
7
  6
CONTINUOUS
 70
0
 71
3
 72
12
 73
8
 74
0
 42
0.0000001
 43
0.0000001
 44
0.0000000001
 40
0.0
 40
0.0
 40
0.0
 40
0.0
 40
0.1131537806
 40
0.2348697706
 40
0.4943044345
 40
0.7569555653
 40
1.0
 40
1.0
 40
1.0
 40
1.0
 10
165.4574769458
 20
169.491177897
 30
0.0
 10
165.3332087341
 20
169.4194320398
 30
0.0
 10
165.0627519522
 20
169.2916179198
 30
0.0
 10
164.4641960196
 20
169.1011185051
 30
0.0
 10
163.6472802813
 20
168.9940487117
 30
0.0
 10
162.6739064963
 20
169.0660612364
 30
0.0
 10
162.0518990304
 20
169.2528229875
 30
0.0
 10
161.7731365282
 20
169.3842926928
 30
0.0
  0
SPLINE
  5
34B
100
AcDbEntity
  8
_1
100
AcDbSpline
 62
7
  6
CONTINUOUS
 70
0
 71
3
 72
11
 73
7
 74
0
 42
0.0000001
 43
0.0000001
 44
0.0000000001
 40
0.0
 40
0.0
 40
0.0
 40
0.0
 40
0.2897730581
 40
0.5490651526
 40
0.7822233799
 40
1.0
 40
1.0
 40
1.0
 40
1.0
 10
151.3154002015
 20
162.9592996539
 30
0.0
 10
151.436096055
 20
163.0289830214
 30
0.0
 10
151.6550425966
 20
163.1797199706
 30
0.0
 10
151.9166274418
 20
163.4547452413
 30
0.0
 10
152.0821563023
 20
163.758883051
 30
0.0
 10
152.1208335994
 20
163.9772213068
 30
0.0
 10
152.1208328397
 20
164.0819617288
 30
0.0
  0
SPLINE
  5
34C
100
AcDbEntity
  8
_1
100
AcDbSpline
 62
7
  6
CONTINUOUS
 70
0
 71
3
 72
9
 73
5
 74
0
 42
0.0000001
 43
0.0000001
 44
0.0000000001
 40
0.0
 40
0.0
 40
0.0
 40
0.0
 40
0.2547179658
 40
1.0
 40
1.0
 40
1.0
 40
1.0
 10
147.7798515758
 20
165.408754635
 30
0.0
 10
147.7665831991
 20
165.4010941799
 30
0.0
 10
147.7148241396
 20
165.3704512862
 30
0.0
 10
147.6644184094
 20
165.3375087775
 30
0.0
 10
147.6278235871
 20
165.3116176182
 30
0.0
  0
SPLINE
  5
34D
100
AcDbEntity
  8
_1
100
AcDbSpline
 62
7
  6
CONTINUOUS
 70
0
 71
3
 72
21
 73
17
 74
0
 42
0.0000001
 43
0.0000001
 44
0.0000000001
 40
0.0
 40
0.0
 40
0.0
 40
0.0
 40
0.0572184076
 40
0.1085116422
 40
0.1553614426
 40
0.2003267629
 40
0.2465532831
 40
0.2967908918
 40
0.3527130383
 40
0.4148507434
 40
0.4828242001
 40
0.5556053216
 40
0.7092154041
 40
0.8618479954
 40
0.9335082289
 40
1.0
 40
1.0
 40
1.0
 40
1.0
 10
147.6278235871
 20
165.3116176182
 30
0.0
 10
147.542440948
 20
165.2512086486
 30
0.0
 10
147.3896210102
 20
165.1223483574
 30
0.0
 10
147.2171841077
 20
164.8930439283
 30
0.0
 10
147.1225458385
 20
164.644716301
 30
0.0
 10
147.1136068547
 20
164.3877212424
 30
0.0
 10
147.191352593
 20
164.1366014557
 30
0.0
 10
147.348706001
 20
163.9028709711
 30
0.0
 10
147.5769760691
 20
163.6933003577
 30
0.0
 10
147.867446666
 20
163.513394428
 30
0.0
 10
148.2101674838
 20
163.3683795365
 30
0.0
 10
148.7302263631
 20
163.2254688262
 30
0.0
 10
149.4261216512
 20
163.1619344022
 30
0.0
 10
150.1181962699
 20
163.2449431998
 30
0.0
 10
150.626906866
 20
163.4031589911
 30
0.0
 10
150.8565859286
 20
163.5109000536
 30
0.0
 10
150.961845339
 20
163.5716712397
 30
0.0
  0
SPLINE
  5
34E
100
AcDbEntity
  8
_1
100
AcDbSpline
 62
7
  6
CONTINUOUS
 70
0
 71
3
 72
16
 73
12
 74
0
 42
0.0000001
 43
0.0000001
 44
0.0000000001
 40
0.0
 40
0.0
 40
0.0
 40
0.0
 40
0.1386248727
 40
0.2605782108
 40
0.3695207669
 40
0.4217535909
 40
0.4740166238
 40
0.5831975674
 40
0.7055159254
 40
0.8445578936
 40
1.0
 40
1.0
 40
1.0
 40
1.0
 10
150.961845339
 20
163.5716712397
 30
0.0
 10
151.0741571421
 20
163.6365141024
 30
0.0
 10
151.275239769
 20
163.7781456046
 30
0.0
 10
151.504229418
 20
164.0428242693
 30
0.0
 10
151.6069767412
 20
164.2937910026
 30
0.0
 10
151.6256235897
 20
164.493810962
 30
0.0
 10
151.605052854
 20
164.6938709629
 30
0.0
 10
151.4998641203
 20
164.9444017201
 30
0.0
 10
151.2684060845
 20
165.2082838302
 30
0.0
 10
150.9461404373
 20
165.4328442036
 30
0.0
 10
150.6929636385
 20
165.5453972854
 30
0.0
 10
150.5560436218
 20
165.5943834181
 30
0.0
  0
SPLINE
  5
34F
100
AcDbEntity
  8
_1
100
AcDbSpline
 62
7
  6
CONTINUOUS
 70
0
 71
3
 72
9
 73
5
 74
0
 42
0.0000001
 43
0.0000001
 44
0.0000000001
 40
0.0
 40
0.0
 40
0.0
 40
0.0
 40
0.2600606229
 40
1.0
 40
1.0
 40
1.0
 40
1.0
 10
148.2138853755
 20
165.6043386789
 30
0.0
 10
148.1748563431
 20
165.5908248829
 30
0.0
 10
148.0259339852
 20
165.5356553876
 30
0.0
 10
147.8816235233
 20
165.4675123456
 30
0.0
 10
147.7798515758
 20
165.408754635
 30
0.0
  0
SPLINE
  5
350
100
AcDbEntity
  8
_1
100
AcDbSpline
 62
7
  6
CONTINUOUS
 70
0
 71
3
 72
13
 73
9
 74
0
 42
0.0000001
 43
0.0000001
 44
0.0000000001
 40
0.0
 40
0.0
 40
0.0
 40
0.0
 40
0.2105442143
 40
0.3261131914
 40
0.4486331635
 40
0.5778740051
 40
0.7133487016
 40
1.0
 40
1.0
 40
1.0
 40
1.0
 10
136.2576296174
 20
196.1970509236
 30
0.0
 10
136.6276522691
 20
195.6257615846
 30
0.0
 10
137.3418749841
 20
194.8286716692
 30
0.0
 10
138.4782751691
 20
193.9260353867
 30
0.0
 10
139.4809130574
 20
193.2854504934
 30
0.0
 10
140.5948542126
 20
192.710840186
 30
0.0
 10
142.2428558286
 20
192.0276845328
 30
0.0
 10
143.5614998838
 20
191.6528446369
 30
0.0
 10
144.4673249856
 20
191.4572883206
 30
0.0
  0
SPLINE
  5
351
100
AcDbEntity
  8
_1
100
AcDbSpline
 62
7
  6
CONTINUOUS
 70
0
 71
3
 72
17
 73
13
 74
0
 42
0.0000001
 43
0.0000001
 44
0.0000000001
 40
0.0
 40
0.0
 40
0.0
 40
0.0
 40
0.1286914424
 40
0.270275894
 40
0.4174292768
 40
0.5617752962
 40
0.6954478949
 40
0.8127150858
 40
0.8646785489
 40
0.9125125227
 40
0.9571418263
 40
1.0
 40
1.0
 40
1.0
 40
1.0
 10
137.1732056986
 20
169.49110991
 30
0.0
 10
136.9696358197
 20
169.3735794872
 30
0.0
 10
136.508733575
 20
169.1834108848
 30
0.0
 10
135.7575574558
 20
169.0331346579
 30
0.0
 10
134.9630525518
 20
169.0111170354
 30
0.0
 10
134.1900462082
 20
169.1197378129
 30
0.0
 10
133.5012214511
 20
169.349830822
 30
0.0
 10
133.022130648
 20
169.6414307665
 30
0.0
 10
132.7409870939
 20
169.9236065365
 30
0.0
 10
132.5916380051
 20
170.1432889279
 30
0.0
 10
132.499589757
 20
170.375005435
 30
0.0
 10
132.4786761301
 20
170.5354892068
 30
0.0
 10
132.4786741636
 20
170.613771985
 30
0.0
  0
SPLINE
  5
352
100
AcDbEntity
  8
_1
100
AcDbSpline
 62
7
  6
CONTINUOUS
 70
0
 71
3
 72
10
 73
6
 74
0
 42
0.0000001
 43
0.0000001
 44
0.0000000001
 40
0.0
 40
0.0
 40
0.0
 40
0.0
 40
0.2316290797
 40
0.4771628687
 40
1.0
 40
1.0
 40
1.0
 40
1.0
 10
157.8561062798
 20
165.7149169242
 30
0.0
 10
157.4546746315
 20
165.4831516375
 30
0.0
 10
156.5979068011
 20
165.0559651368
 30
0.0
 10
154.7217485058
 20
164.3531133313
 30
0.0
 10
153.209515196
 20
164.0210049991
 30
0.0
 10
152.1731385513
 20
163.8772891027
 30
0.0
  0
SPLINE
  5
353
100
AcDbEntity
  8
_1
100
AcDbSpline
 62
7
  6
CONTINUOUS
 70
0
 71
3
 72
11
 73
7
 74
0
 42
0.0000001
 43
0.0000001
 44
0.0000000001
 40
0.0
 40
0.0
 40
0.0
 40
0.0
 40
0.2237396927
 40
0.4637615565
 40
0.7223439804
 40
1.0
 40
1.0
 40
1.0
 40
1.0
 10
160.9389495876
 20
168.7720179499
 30
0.0
 10
160.797457504
 20
168.4757418736
 30
0.0
 10
160.4412940988
 20
167.8904181288
 30
0.0
 10
159.7406819836
 20
167.0894032537
 30
0.0
 10
158.8701480253
 20
166.3492506612
 30
0.0
 10
158.2089673573
 20
165.9186401462
 30
0.0
 10
157.8561062798
 20
165.7149169242
 30
0.0
  0
SPLINE
  5
354
100
AcDbEntity
  8
_1
100
AcDbSpline
 62
7
  6
CONTINUOUS
 70
0
 71
3
 72
11
 73
7
 74
0
 42
0.0000001
 43
0.0000001
 44
0.0000000001
 40
0.0
 40
0.0
 40
0.0
 40
0.0
 40
0.2976699746
 40
0.5686197247
 40
0.8038536187
 40
1.0
 40
1.0
 40
1.0
 40
1.0
 10
144.4673249856
 20
191.4572883206
 30
0.0
 10
145.9569860386
 20
190.5480725943
 30
0.0
 10
148.7902605584
 20
188.7910087863
 30
0.0
 10
152.7673898203
 20
186.262199895
 30
0.0
 10
156.2180658699
 20
184.0152390245
 30
0.0
 10
158.3206092001
 20
182.6093742123
 30
0.0
 10
159.2703257301
 20
181.9609059188
 30
0.0
  0
SPLINE
  5
355
100
AcDbEntity
  8
_1
100
AcDbSpline
 62
7
  6
CONTINUOUS
 70
0
 71
3
 72
14
 73
10
 74
0
 42
0.0000001
 43
0.0000001
 44
0.0000000001
 40
0.0
 40
0.0
 40
0.0
 40
0.0
 40
0.4174172873
 40
0.5810646274
 40
0.7161347399
 40
0.823853176
 40
0.905623678
 40
0.9632781527
 40
1.0
 40
1.0
 40
1.0
 40
1.0
 10
136.2576296174
 20
196.1970509236
 30
0.0
 10
136.1404055135
 20
196.254379605
 30
0.0
 10
135.9762283475
 20
196.3322726318
 30
0.0
 10
135.7706330272
 20
196.4208986929
 30
0.0
 10
135.6524448614
 20
196.4676910437
 30
0.0
 10
135.55662817
 20
196.5009604188
 30
0.0
 10
135.4817956075
 20
196.5213258726
 30
0.0
 10
135.4276235918
 20
196.5296165079
 30
0.0
 10
135.3969703763
 20
196.5272154979
 30
0.0
 10
135.3866356629
 20
196.5222173984
 30
0.0
  0
SPLINE
  5
356
100
AcDbEntity
  8
_1
100
AcDbSpline
 62
7
  6
CONTINUOUS
 70
0
 71
3
 72
16
 73
12
 74
0
 42
0.0000001
 43
0.0000001
 44
0.0000000001
 40
0.0
 40
0.0
 40
0.0
 40
0.0
 40
0.0431158799
 40
0.0875378877
 40
0.1841206038
 40
0.295464219
 40
0.4220826351
 40
0.5611494716
 40
0.7078007606
 40
0.8561300753
 40
1.0
 40
1.0
 40
1.0
 40
1.0
 10
132.4786695722
 20
172.2467768192
 30
0.0
 10
132.4786700545
 20
172.1802887109
 30
0.0
 10
132.4935792264
 20
172.0448624271
 30
0.0
 10
132.5841733666
 20
171.7738338293
 30
0.0
 10
132.8158323713
 20
171.4504571092
 30
0.0
 10
133.2290354565
 20
171.1333403434
 30
0.0
 10
133.7590876901
 20
170.8855821454
 30
0.0
 10
134.375917198
 20
170.7203012091
 30
0.0
 10
135.0435955353
 20
170.6464265368
 30
0.0
 10
135.7221200887
 20
170.6683739831
 30
0.0
 10
136.1677163192
 20
170.7483080575
 30
0.0
 10
136.3820796206
 20
170.8054895254
 30
0.0
  0
SPLINE
  5
357
100
AcDbEntity
  8
_1
100
AcDbSpline
 62
7
  6
CONTINUOUS
 70
0
 71
3
 72
15
 73
11
 74
0
 42
0.0000001
 43
0.0000001
 44
0.0000000001
 40
0.0
 40
0.0
 40
0.0
 40
0.0
 40
0.1141469224
 40
0.2373360366
 40
0.366976904
 40
0.5000005214
 40
0.6330240662
 40
0.7626647219
 40
0.8858535023
 40
1.0
 40
1.0
 40
1.0
 40
1.0
 10
147.2495369457
 20
161.2242244329
 30
0.0
 10
147.3947485155
 20
161.1403883907
 30
0.0
 10
147.7123209534
 20
160.9925303593
 30
0.0
 10
148.2294290554
 20
160.8353302784
 30
0.0
 10
148.7893062697
 20
160.7386270246
 30
0.0
 10
149.3708608667
 20
160.7059615295
 30
0.0
 10
149.9524149989
 20
160.7386297848
 30
0.0
 10
150.5122908397
 20
160.8353356969
 30
0.0
 10
151.0293967155
 20
160.992538236
 30
0.0
 10
151.3469672079
 20
161.1403978535
 30
0.0
 10
151.4921776328
 20
161.224234631
 30
0.0
  0
SPLINE
  5
358
100
AcDbEntity
  8
_1
100
AcDbSpline
 62
7
  6
CONTINUOUS
 70
0
 71
3
 72
9
 73
5
 74
0
 42
0.0000001
 43
0.0000001
 44
0.0000000001
 40
0.0
 40
0.0
 40
0.0
 40
0.0
 40
0.5245221438
 40
1.0
 40
1.0
 40
1.0
 40
1.0
 10
163.9284053793
 20
170.6773848426
 30
0.0
 10
164.2074295312
 20
170.7020257919
 30
0.0
 10
164.7364400761
 20
170.7962536471
 30
0.0
 10
165.2375763142
 20
170.9972238003
 30
0.0
 10
165.4574769458
 20
171.1241827313
 30
0.0
  0
SPLINE
  5
359
100
AcDbEntity
  8
_1
100
AcDbSpline
 62
7
  6
CONTINUOUS
 70
0
 71
3
 72
11
 73
7
 74
0
 42
0.0000001
 43
0.0000001
 44
0.0000000001
 40
0.0
 40
0.0
 40
0.0
 40
0.0
 40
0.2177718384
 40
0.4509299156
 40
0.7102268825
 40
1.0
 40
1.0
 40
1.0
 40
1.0
 10
166.2629049925
 20
170.6138399719
 30
0.0
 10
166.2629076236
 20
170.5091021054
 30
0.0
 10
166.224225211
 20
170.2907679
 30
0.0
 10
166.0587069046
 20
169.9866263804
 30
0.0
 10
165.7971187755
 20
169.7116008263
 30
0.0
 10
165.5781725293
 20
169.5608611087
 30
0.0
 10
165.4574769458
 20
169.491177897
 30
0.0
  0
SPLINE
  5
35A
100
AcDbEntity
  8
_1
100
AcDbSpline
 62
7
  6
CONTINUOUS
 70
0
 71
3
 72
15
 73
11
 74
0
 42
0.0000001
 43
0.0000001
 44
0.0000000001
 40
0.0
 40
0.0
 40
0.0
 40
0.0
 40
0.1513449186
 40
0.2973056089
 40
0.4362733665
 40
0.5669171716
 40
0.6884025017
 40
0.8005193077
 40
0.9038587919
 40
1.0
 40
1.0
 40
1.0
 40
1.0
 10
146.5685353592
 20
163.8772769244
 30
0.0
 10
146.020982677
 20
163.9532045771
 30
0.0
 10
144.9509569321
 20
164.1476211252
 30
0.0
 10
143.4129795514
 20
164.5730540448
 30
0.0
 10
141.99405673
 20
165.1197570262
 30
0.0
 10
140.7222715471
 20
165.7773356706
 30
0.0
 10
139.6226860491
 20
166.5333543477
 30
0.0
 10
138.7171461234
 20
167.3745256627
 30
0.0
 10
138.0247491747
 20
168.2856200282
 30
0.0
 10
137.7075808981
 20
168.9492270892
 30
0.0
 10
137.5946987566
 20
169.2817478598
 30
0.0
  0
SPLINE
  5
35B
100
AcDbEntity
  8
_1
100
AcDbSpline
 62
7
  6
CONTINUOUS
 70
0
 71
3
 72
11
 73
7
 74
0
 42
0.0000001
 43
0.0000001
 44
0.0000000001
 40
0.0
 40
0.0
 40
0.0
 40
0.0
 40
0.2177723091
 40
0.4509273687
 40
0.7102218233
 40
1.0
 40
1.0
 40
1.0
 40
1.0
 10
132.2286760068
 20
170.6137719849
 30
0.0
 10
132.2286760083
 20
170.4995108548
 30
0.0
 10
132.2708736931
 20
170.2613267481
 30
0.0
 10
132.451443207
 20
169.9295355552
 30
0.0
 10
132.7368145651
 20
169.6295039765
 30
0.0
 10
132.9756700819
 20
169.4650588766
 30
0.0
 10
133.1073424428
 20
169.3890395233
 30
0.0
  0
SPLINE
  5
35C
100
AcDbEntity
  8
_1
100
AcDbSpline
 62
7
  6
CONTINUOUS
 70
0
 71
3
 72
17
 73
13
 74
0
 42
0.0000001
 43
0.0000001
 44
0.0000000001
 40
0.0
 40
0.0
 40
0.0
 40
0.0
 40
0.0428588705
 40
0.0874882997
 40
0.1353223328
 40
0.1872856408
 40
0.3045518466
 40
0.4382226938
 40
0.5825694618
 40
0.7297273024
 40
0.8713109533
 40
1.0
 40
1.0
 40
1.0
 40
1.0
 10
146.6208640751
 20
164.0819617288
 30
0.0
 10
146.620864643
 20
164.0036775373
 30
0.0
 10
146.6417793244
 20
163.8431919564
 30
0.0
 10
146.7338256931
 20
163.611472533
 30
0.0
 10
146.8831776486
 20
163.3917911546
 30
0.0
 10
147.1643200309
 20
163.109616394
 30
0.0
 10
147.6434073482
 20
162.8180189333
 30
0.0
 10
148.3322291676
 20
162.5879247615
 30
0.0
 10
149.1052433575
 20
162.4793039883
 30
0.0
 10
149.8997580496
 20
162.5013212502
 30
0.0
 10
150.6509367637
 20
162.6516037306
 30
0.0
 10
151.1118337471
 20
162.8417712081
 30
0.0
 10
151.3154002015
 20
162.9592996539
 30
0.0
  0
SPLINE
  5
35D
100
AcDbEntity
  8
_1
100
AcDbSpline
 62
7
  6
CONTINUOUS
 70
0
 71
3
 72
11
 73
7
 74
0
 42
0.0000001
 43
0.0000001
 44
0.0000000001
 40
0.0
 40
0.0
 40
0.0
 40
0.0
 40
0.2875022507
 40
0.5471892705
 40
0.7819963901
 40
1.0
 40
1.0
 40
1.0
 40
1.0
 10
165.4574769458
 20
171.1241827313
 30
0.0
 10
165.5691406978
 20
171.1886514437
 30
0.0
 10
165.7731789777
 20
171.3274242243
 30
0.0
 10
166.0229829033
 20
171.5771625463
 30
0.0
 10
166.1924884204
 20
171.8520045903
 30
0.0
 10
166.2472178072
 20
172.0513619492
 30
0.0
 10
166.257645918
 20
172.1485737216
 30
0.0
  0
SPLINE
  5
35E
100
AcDbEntity
  8
_1
100
AcDbSpline
 62
7
  6
CONTINUOUS
 70
0
 71
3
 72
11
 73
7
 74
0
 42
0.0000001
 43
0.0000001
 44
0.0000000001
 40
0.0
 40
0.0
 40
0.0
 40
0.0
 40
0.2897776971
 40
0.5490719787
 40
0.7822272299
 40
1.0
 40
1.0
 40
1.0
 40
1.0
 10
165.6342543771
 20
169.3891177084
 30
0.0
 10
165.7659242757
 20
169.4651369061
 30
0.0
 10
166.0047752595
 20
169.6295813781
 30
0.0
 10
166.2901408219
 20
169.9296107329
 30
0.0
 10
166.4707064295
 20
170.2613987133
 30
0.0
 10
166.5129031508
 20
170.4995800718
 30
0.0
 10
166.5129031493
 20
170.613839972
 30
0.0
  0
SPLINE
  5
35F
100
AcDbEntity
  8
_1
100
AcDbSpline
 62
7
  6
CONTINUOUS
 70
0
 71
3
 72
9
 73
5
 74
0
 42
0.0000001
 43
0.0000001
 44
0.0000000001
 40
0.0
 40
0.0
 40
0.0
 40
0.0
 40
0.4794757256
 40
1.0
 40
1.0
 40
1.0
 40
1.0
 10
166.7565178682
 20
167.1671487704
 30
0.0
 10
166.7556159071
 20
167.2510191405
 30
0.0
 10
166.7192120304
 20
167.4267638948
 30
0.0
 10
166.6256201262
 20
167.5782181181
 30
0.0
 10
166.5683119852
 20
167.6489779352
 30
0.0
  0
SPLINE
  5
360
100
AcDbEntity
  8
_1
100
AcDbSpline
 62
7
  6
CONTINUOUS
 70
0
 71
3
 72
8
 73
4
 74
0
 42
0.0000001
 43
0.0000001
 44
0.0000000001
 40
0.0
 40
0.0
 40
0.0
 40
0.0
 40
1.0
 40
1.0
 40
1.0
 40
1.0
 10
162.1795752262
 20
128.40087425
 30
0.0
 10
162.1645874401
 20
128.3820384327
 30
0.0
 10
162.14772468
 20
128.3645233956
 30
0.0
 10
162.1292860092
 20
128.3490496383
 30
0.0
  0
SPLINE
  5
361
100
AcDbEntity
  8
_1
100
AcDbSpline
 62
7
  6
CONTINUOUS
 70
0
 71
3
 72
9
 73
5
 74
0
 42
0.0000001
 43
0.0000001
 44
0.0000000001
 40
0.0
 40
0.0
 40
0.0
 40
0.0
 40
0.5328772855
 40
1.0
 40
1.0
 40
1.0
 40
1.0
 10
168.5146811329
 20
132.2867261772
 30
0.0
 10
168.5019045276
 20
132.2232274871
 30
0.0
 10
168.4609940935
 20
132.1054686677
 30
0.0
 10
168.3715871366
 20
132.0151448117
 30
0.0
 10
168.3224015788
 20
131.9867790085
 30
0.0
  0
SPLINE
  5
362
100
AcDbEntity
  8
_1
100
AcDbSpline
 62
7
  6
CONTINUOUS
 70
0
 71
3
 72
9
 73
5
 74
0
 42
0.0000001
 43
0.0000001
 44
0.0000000001
 40
0.0
 40
0.0
 40
0.0
 40
0.0
 40
0.2586176962
 40
1.0
 40
1.0
 40
1.0
 40
1.0
 10
169.2989459539
 20
139.1741077418
 30
0.0
 10
169.2776597509
 20
138.5765545137
 30
0.0
 10
169.1528578255
 20
136.2679022791
 30
0.0
 10
168.8527993771
 20
133.9671463791
 30
0.0
 10
168.5146811329
 20
132.2867261772
 30
0.0
  0
SPLINE
  5
363
100
AcDbEntity
  8
_1
100
AcDbSpline
 62
7
  6
CONTINUOUS
 70
0
 71
3
 72
10
 73
6
 74
0
 42
0.0000001
 43
0.0000001
 44
0.0000000001
 40
0.0
 40
0.0
 40
0.0
 40
0.0
 40
0.2382017876
 40
0.5020193254
 40
1.0
 40
1.0
 40
1.0
 40
1.0
 10
168.9665598514
 20
168.1183407088
 30
0.0
 10
168.9966812111
 20
168.100950527
 30
0.0
 10
169.0537542395
 20
168.0528487822
 30
0.0
 10
169.1401296171
 20
167.9349413504
 30
0.0
 10
169.1781540801
 20
167.8235746953
 30
0.0
 10
169.1787012139
 20
167.7508642736
 30
0.0
  0
SPLINE
  5
364
100
AcDbEntity
  8
_1
100
AcDbSpline
 62
7
  6
CONTINUOUS
 70
0
 71
3
 72
10
 73
6
 74
0
 42
0.0000001
 43
0.0000001
 44
0.0000000001
 40
0.0
 40
0.0
 40
0.0
 40
0.0
 40
0.3740805066
 40
0.7484098142
 40
1.0
 40
1.0
 40
1.0
 40
1.0
 10
114.6468930382
 20
144.5897157671
 30
0.0
 10
114.6358640595
 20
144.6130130306
 30
0.0
 10
114.6107763597
 20
144.6582030787
 30
0.0
 10
114.5695995185
 20
144.7139436315
 30
0.0
 10
114.5376602027
 20
144.7432272902
 30
0.0
 10
114.5241059959
 20
144.7540353053
 30
0.0
  0
SPLINE
  5
365
100
AcDbEntity
  8
_1
100
AcDbSpline
 62
7
  6
CONTINUOUS
 70
0
 71
3
 72
11
 73
7
 74
0
 42
0.0000001
 43
0.0000001
 44
0.0000000001
 40
0.0
 40
0.0
 40
0.0
 40
0.0
 40
0.2584843975
 40
0.5050118777
 40
0.7519341516
 40
1.0
 40
1.0
 40
1.0
 40
1.0
 10
114.4003370985
 20
144.8832307091
 30
0.0
 10
114.3949432877
 20
144.9176737536
 30
0.0
 10
114.3970750637
 20
144.9883829956
 30
0.0
 10
114.4428614534
 20
145.0804463598
 30
0.0
 10
114.4975564921
 20
145.1640096352
 30
0.0
 10
114.538636328
 20
145.2168048506
 30
0.0
 10
114.5601111141
 20
145.2424611705
 30
0.0
  0
SPLINE
  5
366
100
AcDbEntity
  8
_1
100
AcDbSpline
 62
7
  6
CONTINUOUS
 70
0
 71
3
 72
11
 73
7
 74
0
 42
0.0000001
 43
0.0000001
 44
0.0000000001
 40
0.0
 40
0.0
 40
0.0
 40
0.0
 40
0.2900003862
 40
0.5491989466
 40
0.7822116309
 40
1.0
 40
1.0
 40
1.0
 40
1.0
 10
126.9201558995
 20
165.8576451313
 30
0.0
 10
126.6990577286
 20
165.985293332
 30
0.0
 10
126.2982845886
 20
166.2615046615
 30
0.0
 10
125.820715783
 20
166.7662489154
 30
0.0
 10
125.5207575803
 20
167.3245981503
 30
0.0
 10
125.4537075115
 20
167.7249608383
 30
0.0
 10
125.4557684449
 20
167.9166789208
 30
0.0
  0
SPLINE
  5
367
100
AcDbEntity
  8
_1
100
AcDbSpline
 62
7
  6
CONTINUOUS
 70
0
 71
3
 72
11
 73
7
 74
0
 42
0.0000001
 43
0.0000001
 44
0.0000000001
 40
0.0
 40
0.0
 40
0.0
 40
0.0
 40
0.2622163023
 40
0.5231983104
 40
0.7721708653
 40
1.0
 40
1.0
 40
1.0
 40
1.0
 10
131.5728007252
 20
165.0851286944
 30
0.0
 10
131.1577534071
 20
165.0302021311
 30
0.0
 10
130.3202134219
 20
164.9831300616
 30
0.0
 10
129.0877856245
 20
165.0912002279
 30
0.0
 10
127.9385878372
 20
165.3698413037
 30
0.0
 10
127.2351847533
 20
165.6757672524
 30
0.0
 10
126.9201558995
 20
165.8576451313
 30
0.0
  0
SPLINE
  5
368
100
AcDbEntity
  8
_1
100
AcDbSpline
 62
7
  6
CONTINUOUS
 70
0
 71
3
 72
11
 73
7
 74
0
 42
0.0000001
 43
0.0000001
 44
0.0000000001
 40
0.0
 40
0.0
 40
0.0
 40
0.0
 40
0.2278174169
 40
0.476800511
 40
0.7377975221
 40
1.0
 40
1.0
 40
1.0
 40
1.0
 10
134.3643876206
 20
164.6216188322
 30
0.0
 10
134.1753800179
 20
164.7307399538
 30
0.0
 10
133.7533360465
 20
164.9142836303
 30
0.0
 10
133.0638131594
 20
165.0815111156
 30
0.0
 10
132.324340087
 20
165.1463136258
 30
0.0
 10
131.8218160027
 20
165.1180828969
 30
0.0
 10
131.5728007252
 20
165.0851286944
 30
0.0
  0
SPLINE
  5
369
100
AcDbEntity
  8
_1
100
AcDbSpline
 62
7
  6
CONTINUOUS
 70
0
 71
3
 72
9
 73
5
 74
0
 42
0.0000001
 43
0.0000001
 44
0.0000000001
 40
0.0
 40
0.0
 40
0.0
 40
0.0
 40
0.2463437212
 40
1.0
 40
1.0
 40
1.0
 40
1.0
 10
91.2132023293
 20
158.7215003055
 30
0.0
 10
91.1889296976
 20
158.7147305683
 30
0.0
 10
91.090252377
 20
158.6877811339
 30
0.0
 10
90.991248706
 20
158.6619782199
 30
0.0
 10
90.91628199
 20
158.6439968172
 30
0.0
  0
SPLINE
  5
36A
100
AcDbEntity
  8
_1
100
AcDbSpline
 62
7
  6
CONTINUOUS
 70
0
 71
3
 72
8
 73
4
 74
0
 42
0.0000001
 43
0.0000001
 44
0.0000000001
 40
0.0
 40
0.0
 40
0.0
 40
0.0
 40
1.0
 40
1.0
 40
1.0
 40
1.0
 10
90.91628199
 20
158.6439968172
 30
0.0
 10
90.8886171955
 20
158.6373611816
 30
0.0
 10
90.8608931568
 20
158.6309524837
 30
0.0
 10
90.8330566511
 20
158.625078689
 30
0.0
  0
SPLINE
  5
36B
100
AcDbEntity
  8
_1
100
AcDbSpline
 62
7
  6
CONTINUOUS
 70
0
 71
3
 72
9
 73
5
 74
0
 42
0.0000001
 43
0.0000001
 44
0.0000000001
 40
0.0
 40
0.0
 40
0.0
 40
0.0
 40
0.7525520684
 40
1.0
 40
1.0
 40
1.0
 40
1.0
 10
90.8330566511
 20
158.625078689
 30
0.0
 10
90.787481797
 20
158.6154619168
 30
0.0
 10
90.7263935971
 20
158.6050837758
 30
0.0
 10
90.6650106617
 20
158.5971648594
 30
0.0
 10
90.6498098547
 20
158.5952937715
 30
0.0
  0
SPLINE
  5
36C
100
AcDbEntity
  8
_1
100
AcDbSpline
 62
7
  6
CONTINUOUS
 70
0
 71
3
 72
8
 73
4
 74
0
 42
0.0000001
 43
0.0000001
 44
0.0000000001
 40
0.0
 40
0.0
 40
0.0
 40
0.0
 40
1.0
 40
1.0
 40
1.0
 40
1.0
 10
114.7519185447
 20
100.9955141962
 30
0.0
 10
114.7685019492
 20
101.0092795449
 30
0.0
 10
114.7838261844
 20
101.0246846127
 30
0.0
 10
114.797658234
 20
101.0412124236
 30
0.0
  0
SPLINE
  5
36D
100
AcDbEntity
  8
_1
100
AcDbSpline
 62
7
  6
CONTINUOUS
 70
0
 71
3
 72
11
 73
7
 74
0
 42
0.0000001
 43
0.0000001
 44
0.0000000001
 40
0.0
 40
0.0
 40
0.0
 40
0.0
 40
0.2856914132
 40
0.5453986492
 40
0.7813513707
 40
1.0
 40
1.0
 40
1.0
 40
1.0
 10
112.9230647728
 20
176.7963465702
 30
0.0
 10
112.7699900405
 20
176.8847140121
 30
0.0
 10
112.4651615697
 20
177.0331436806
 30
0.0
 10
111.997751691
 20
177.1675583693
 30
0.0
 10
111.5528928676
 20
177.1967816164
 30
0.0
 10
111.2727435035
 20
177.1419573211
 30
0.0
 10
111.1452654903
 20
177.0967021631
 30
0.0
  0
SPLINE
  5
36E
100
AcDbEntity
  8
_1
100
AcDbSpline
 62
7
  6
CONTINUOUS
 70
0
 71
3
 72
9
 73
5
 74
0
 42
0.0000001
 43
0.0000001
 44
0.0000000001
 40
0.0
 40
0.0
 40
0.0
 40
0.0
 40
0.4696685927
 40
1.0
 40
1.0
 40
1.0
 40
1.0
 10
120.9906318981
 20
104.6648878306
 30
0.0
 10
121.0285231762
 20
104.6957448812
 30
0.0
 10
121.0949109228
 20
104.7797877234
 30
0.0
 10
121.1278398236
 20
104.8802741991
 30
0.0
 10
121.1387240395
 20
104.9343678678
 30
0.0
  0
SPLINE
  5
36F
100
AcDbEntity
  8
_1
100
AcDbSpline
 62
7
  6
CONTINUOUS
 70
0
 71
3
 72
9
 73
5
 74
0
 42
0.0000001
 43
0.0000001
 44
0.0000000001
 40
0.0
 40
0.0
 40
0.0
 40
0.0
 40
0.2435328487
 40
1.0
 40
1.0
 40
1.0
 40
1.0
 10
121.9143415445
 20
124.6564947674
 30
0.0
 10
121.8905917367
 20
125.2727821507
 30
0.0
 10
121.7507229839
 20
127.8016729113
 30
0.0
 10
121.447465244
 20
130.3208087165
 30
0.0
 10
121.1387607434
 20
132.2115192397
 30
0.0
  0
SPLINE
  5
370
100
AcDbEntity
  8
_1
100
AcDbSpline
 62
7
  6
CONTINUOUS
 70
0
 71
3
 72
9
 73
5
 74
0
 42
0.0000001
 43
0.0000001
 44
0.0000000001
 40
0.0
 40
0.0
 40
0.0
 40
0.0
 40
0.2418356969
 40
1.0
 40
1.0
 40
1.0
 40
1.0
 10
121.1387240395
 20
104.9343678678
 30
0.0
 10
121.2451819301
 20
105.4634549344
 30
0.0
 10
121.6376509508
 20
107.660753085
 30
0.0
 10
121.8451292133
 20
109.889707396
 30
0.0
 10
121.9137851763
 20
111.5802662005
 30
0.0
  0
SPLINE
  5
371
100
AcDbEntity
  8
_1
100
AcDbSpline
 62
7
  6
CONTINUOUS
 70
0
 71
3
 72
11
 73
7
 74
0
 42
0.0000001
 43
0.0000001
 44
0.0000000001
 40
0.0
 40
0.0
 40
0.0
 40
0.0
 40
0.2178337101
 40
0.4519884996
 40
0.7116465568
 40
1.0
 40
1.0
 40
1.0
 40
1.0
 10
125.6556614688
 20
168.9974943836
 30
0.0
 10
125.648377972
 20
169.1067491109
 30
0.0
 10
125.5948060833
 20
169.3321328753
 30
0.0
 10
125.4110666808
 20
169.6439111154
 30
0.0
 10
125.1335018378
 20
169.9266799408
 30
0.0
 10
124.9047297117
 20
170.0830313187
 30
0.0
 10
124.7792029575
 20
170.1555025844
 30
0.0
  0
SPLINE
  5
372
100
AcDbEntity
  8
_1
100
AcDbSpline
 62
7
  6
CONTINUOUS
 70
0
 71
3
 72
11
 73
7
 74
0
 42
0.0000001
 43
0.0000001
 44
0.0000000001
 40
0.0
 40
0.0
 40
0.0
 40
0.0
 40
0.2177883691
 40
0.4508010534
 40
0.7099996138
 40
1.0
 40
1.0
 40
1.0
 40
1.0
 10
125.4566411154
 20
167.9983260535
 30
0.0
 10
125.4545805417
 20
167.806641433
 30
0.0
 10
125.5216189078
 20
167.4063486232
 30
0.0
 10
125.8215247565
 20
166.8480968411
 30
0.0
 10
126.2990102086
 20
166.3434406839
 30
0.0
 10
126.6997133987
 20
166.0672775636
 30
0.0
 10
126.9207729797
 20
165.9396516423
 30
0.0
  0
SPLINE
  5
373
100
AcDbEntity
  8
_1
100
AcDbSpline
 62
7
  6
CONTINUOUS
 70
0
 71
3
 72
9
 73
5
 74
0
 42
0.0000001
 43
0.0000001
 44
0.0000000001
 40
0.0
 40
0.0
 40
0.0
 40
0.0
 40
0.2561435295
 40
1.0
 40
1.0
 40
1.0
 40
1.0
 10
90.526035579
 20
158.6090265877
 30
0.0
 10
90.5182091044
 20
158.6088575937
 30
0.0
 10
90.4876808969
 20
158.6073526046
 30
0.0
 10
90.4573030154
 20
158.6023671411
 30
0.0
 10
90.4353155754
 20
158.5965895283
 30
0.0
  0
SPLINE
  5
374
100
AcDbEntity
  8
_1
100
AcDbSpline
 62
7
  6
CONTINUOUS
 70
0
 71
3
 72
9
 73
5
 74
0
 42
0.0000001
 43
0.0000001
 44
0.0000000001
 40
0.0
 40
0.0
 40
0.0
 40
0.0
 40
0.2601804394
 40
1.0
 40
1.0
 40
1.0
 40
1.0
 10
90.6498013658
 20
158.5953315936
 30
0.0
 10
90.6392685918
 20
158.5977922384
 30
0.0
 10
90.5985405154
 20
158.6061215003
 30
0.0
 10
90.5567711442
 20
158.609725556
 30
0.0
 10
90.5260220132
 20
158.609064625
 30
0.0
  0
SPLINE
  5
375
100
AcDbEntity
  8
_1
100
AcDbSpline
 62
7
  6
CONTINUOUS
 70
0
 71
3
 72
9
 73
5
 74
0
 42
0.0000001
 43
0.0000001
 44
0.0000000001
 40
0.0
 40
0.0
 40
0.0
 40
0.0
 40
0.2612333556
 40
1.0
 40
1.0
 40
1.0
 40
1.0
 10
114.4003430048
 20
144.8832502019
 30
0.0
 10
114.3842036168
 20
144.8981176651
 30
0.0
 10
114.321039844
 20
144.9534825412
 30
0.0
 10
114.2522706095
 20
145.002674594
 30
0.0
 10
114.198527908
 20
145.0337022552
 30
0.0
  0
SPLINE
  5
376
100
AcDbEntity
  8
_1
100
AcDbSpline
 62
7
  6
CONTINUOUS
 70
0
 71
3
 72
9
 73
5
 74
0
 42
0.0000001
 43
0.0000001
 44
0.0000000001
 40
0.0
 40
0.0
 40
0.0
 40
0.0
 40
0.2546222419
 40
1.0
 40
1.0
 40
1.0
 40
1.0
 10
114.5241250753
 20
144.7540667697
 30
0.0
 10
114.5142853376
 20
144.7656399627
 30
0.0
 10
114.4749844265
 20
144.8105278886
 30
0.0
 10
114.4330546533
 20
144.8531318366
 30
0.0
 10
114.4003455874
 20
144.8832587292
 30
0.0
  0
SPLINE
  5
377
100
AcDbEntity
  8
_1
100
AcDbSpline
 62
7
  6
CONTINUOUS
 70
0
 71
3
 72
9
 73
5
 74
0
 42
0.0000001
 43
0.0000001
 44
0.0000000001
 40
0.0
 40
0.0
 40
0.0
 40
0.0
 40
0.2452153803
 40
1.0
 40
1.0
 40
1.0
 40
1.0
 10
114.8768905784
 20
144.0561136185
 30
0.0
 10
114.8737924439
 20
144.0700614697
 30
0.0
 10
114.8602529366
 20
144.1267380059
 30
0.0
 10
114.8432175455
 20
144.1825681193
 30
0.0
 10
114.828631689
 20
144.2240574138
 30
0.0
  0
SPLINE
  5
378
100
AcDbEntity
  8
_1
100
AcDbSpline
 62
7
  6
CONTINUOUS
 70
0
 71
3
 72
9
 73
5
 74
0
 42
0.0000001
 43
0.0000001
 44
0.0000000001
 40
0.0
 40
0.0
 40
0.0
 40
0.0
 40
0.2390817464
 40
1.0
 40
1.0
 40
1.0
 40
1.0
 10
114.9056111497
 20
143.8160996146
 30
0.0
 10
114.9054687461
 20
143.8353837113
 30
0.0
 10
114.902411843
 20
143.9160187536
 30
0.0
 10
114.8901993476
 20
143.9961973277
 30
0.0
 10
114.8768905784
 20
144.0561136185
 30
0.0
  0
SPLINE
  5
379
100
AcDbEntity
  8
_1
100
AcDbSpline
 62
7
  6
CONTINUOUS
 70
0
 71
3
 72
9
 73
5
 74
0
 42
0.0000001
 43
0.0000001
 44
0.0000000001
 40
0.0
 40
0.0
 40
0.0
 40
0.0
 40
0.255362613
 40
1.0
 40
1.0
 40
1.0
 40
1.0
 10
115.2696516554
 20
138.5870923011
 30
0.0
 10
115.2448774204
 20
138.6619011756
 30
0.0
 10
115.1524440216
 20
138.9563400957
 30
0.0
 10
115.0784231904
 20
139.2566403057
 30
0.0
 10
115.0352274383
 20
139.4823374809
 30
0.0
  0
SPLINE
  5
37A
100
AcDbEntity
  8
_1
100
AcDbSpline
 62
7
  6
CONTINUOUS
 70
0
 71
3
 72
9
 73
5
 74
0
 42
0.0000001
 43
0.0000001
 44
0.0000000001
 40
0.0
 40
0.0
 40
0.0
 40
0.0
 40
0.2582046885
 40
1.0
 40
1.0
 40
1.0
 40
1.0
 10
115.0070953297
 20
139.639933333
 30
0.0
 10
114.9950549768
 20
139.7126770921
 30
0.0
 10
114.9534149015
 20
139.995183649
 30
0.0
 10
114.9321857025
 20
140.2808988082
 30
0.0
 10
114.9306388923
 20
140.4927217784
 30
0.0
  0
SPLINE
  5
37B
100
AcDbEntity
  8
_1
100
AcDbSpline
 62
7
  6
CONTINUOUS
 70
0
 71
3
 72
9
 73
5
 74
0
 42
0.0000001
 43
0.0000001
 44
0.0000000001
 40
0.0
 40
0.0
 40
0.0
 40
0.0
 40
0.2530966036
 40
1.0
 40
1.0
 40
1.0
 40
1.0
 10
115.7006237695
 20
137.5395536897
 30
0.0
 10
115.6583188743
 20
137.6252901238
 30
0.0
 10
115.4968994111
 20
137.9668259069
 30
0.0
 10
115.3583492236
 20
138.3192590954
 30
0.0
 10
115.2696516554
 20
138.587092301
 30
0.0
  0
SPLINE
  5
37C
100
AcDbEntity
  8
_1
100
AcDbSpline
 62
7
  6
CONTINUOUS
 70
0
 71
3
 72
9
 73
5
 74
0
 42
0.0000001
 43
0.0000001
 44
0.0000000001
 40
0.0
 40
0.0
 40
0.0
 40
0.0
 40
0.2391938373
 40
1.0
 40
1.0
 40
1.0
 40
1.0
 10
118.4660312246
 20
134.4048943973
 30
0.0
 10
118.3851028483
 20
134.4515896913
 30
0.0
 10
118.0526574317
 20
134.6569696073
 30
0.0
 10
117.7436172503
 20
134.8992393858
 30
0.0
 10
117.5223342954
 20
135.0976153527
 30
0.0
  0
SPLINE
  5
37D
100
AcDbEntity
  8
_1
100
AcDbSpline
 62
7
  6
CONTINUOUS
 70
0
 71
3
 72
9
 73
5
 74
0
 42
0.0000001
 43
0.0000001
 44
0.0000000001
 40
0.0
 40
0.0
 40
0.0
 40
0.0
 40
0.2418141757
 40
1.0
 40
1.0
 40
1.0
 40
1.0
 10
117.5223342954
 20
135.0976153527
 30
0.0
 10
117.4133883972
 20
135.1952832816
 30
0.0
 10
116.9763362787
 20
135.6141010662
 30
0.0
 10
116.591901452
 20
136.0867749663
 30
0.0
 10
116.3315858572
 20
136.4645253311
 30
0.0
  0
LINE
  5
37E
100
AcDbEntity
  8
_1
100
AcDbLine
 62
7
  6
CONTINUOUS
 10
116.2564397315
 20
136.5754409074
 11
116.247309446
 21
136.5891784217
  0
SPLINE
  5
37F
100
AcDbEntity
  8
_1
100
AcDbSpline
 62
7
  6
CONTINUOUS
 70
0
 71
3
 72
15
 73
11
 74
0
 42
0.0000001
 43
0.0000001
 44
0.0000000001
 40
0.0
 40
0.0
 40
0.0
 40
0.0
 40
0.1140671226
 40
0.2370678258
 40
0.3665618164
 40
0.4994550629
 40
0.6324242298
 40
0.7621391498
 40
0.8854886617
 40
1.0
 40
1.0
 40
1.0
 40
1.0
 10
145.8669723527
 20
157.7766029449
 30
0.0
 10
146.0595061639
 20
157.6654356986
 30
0.0
 10
146.4395954764
 20
157.3988756145
 30
0.0
 10
146.9635260575
 20
156.9104352427
 30
0.0
 10
147.4461494014
 20
156.3325036707
 30
0.0
 10
147.8709043902
 20
155.6876399892
 30
0.0
 10
148.2206450079
 20
154.9987209759
 30
0.0
 10
148.4839916711
 20
154.291995632
 30
0.0
 10
148.6495387092
 20
153.5930773057
 30
0.0
 10
148.6936028845
 20
153.1294041472
 30
0.0
 10
148.6952916594
 20
152.9062219419
 30
0.0
  0
SPLINE
  5
380
100
AcDbEntity
  8
_1
100
AcDbSpline
 62
7
  6
CONTINUOUS
 70
0
 71
3
 72
9
 73
5
 74
0
 42
0.0000001
 43
0.0000001
 44
0.0000000001
 40
0.0
 40
0.0
 40
0.0
 40
0.0
 40
0.5224366977
 40
1.0
 40
1.0
 40
1.0
 40
1.0
 10
147.4334486963
 20
156.6489425697
 30
0.0
 10
147.2297445926
 20
156.9014827119
 30
0.0
 10
146.8031060832
 20
157.3568090475
 30
0.0
 10
146.3008201857
 20
157.7302580066
 30
0.0
 10
146.0439721898
 20
157.8785600855
 30
0.0
  0
SPLINE
  5
381
100
AcDbEntity
  8
_1
100
AcDbSpline
 62
7
  6
CONTINUOUS
 70
0
 71
3
 72
9
 73
5
 74
0
 42
0.0000001
 43
0.0000001
 44
0.0000000001
 40
0.0
 40
0.0
 40
0.0
 40
0.0
 40
0.4639909793
 40
1.0
 40
1.0
 40
1.0
 40
1.0
 10
111.7037372157
 20
177.2770344537
 30
0.0
 10
111.9292426618
 20
177.2947491433
 30
0.0
 10
112.4241294422
 20
177.2320087862
 30
0.0
 10
112.8733105389
 20
177.0292047852
 30
0.0
 10
113.099618041
 20
176.8985615316
 30
0.0
  0
SPLINE
  5
382
100
AcDbEntity
  8
_1
100
AcDbSpline
 62
7
  6
CONTINUOUS
 70
0
 71
3
 72
9
 73
5
 74
0
 42
0.0000001
 43
0.0000001
 44
0.0000000001
 40
0.0
 40
0.0
 40
0.0
 40
0.0
 40
0.2556845549
 40
1.0
 40
1.0
 40
1.0
 40
1.0
 10
166.551877137
 20
166.6512761508
 30
0.0
 10
166.5596364475
 20
166.6604000703
 30
0.0
 10
166.5893922991
 20
166.6965805953
 30
0.0
 10
166.6167154107
 20
166.7347810261
 30
0.0
 10
166.6353492277
 20
166.7642504418
 30
0.0
  0
SPLINE
  5
383
100
AcDbEntity
  8
_1
100
AcDbSpline
 62
7
  6
CONTINUOUS
 70
0
 71
3
 72
9
 73
5
 74
0
 42
0.0000001
 43
0.0000001
 44
0.0000000001
 40
0.0
 40
0.0
 40
0.0
 40
0.0
 40
0.5138528618
 40
1.0
 40
1.0
 40
1.0
 40
1.0
 10
166.6353492277
 20
166.7642504418
 30
0.0
 10
166.6742708779
 20
166.8258051032
 30
0.0
 10
166.7360559994
 20
166.9555317663
 30
0.0
 10
166.7572588022
 20
167.0982517682
 30
0.0
 10
166.7565178682
 20
167.1671487704
 30
0.0
  0
SPLINE
  5
384
100
AcDbEntity
  8
_1
100
AcDbSpline
 62
7
  6
CONTINUOUS
 70
0
 71
3
 72
11
 73
7
 74
0
 42
0.0000001
 43
0.0000001
 44
0.0000000001
 40
0.0
 40
0.0
 40
0.0
 40
0.0
 40
0.2622024779
 40
0.523199489
 40
0.7721825831
 40
1.0
 40
1.0
 40
1.0
 40
1.0
 10
131.572605745
 20
165.1672700383
 30
0.0
 10
131.82169346
 20
165.2002338271
 30
0.0
 10
132.3243637263
 20
165.2284727682
 30
0.0
 10
133.0640519082
 20
165.1636514072
 30
0.0
 10
133.7537753745
 20
164.9963752762
 30
0.0
 10
134.1759421166
 20
164.8127782077
 30
0.0
 10
134.3650047007
 20
164.7036253432
 30
0.0
  0
SPLINE
  5
385
100
AcDbEntity
  8
_1
100
AcDbSpline
 62
7
  6
CONTINUOUS
 70
0
 71
3
 72
11
 73
7
 74
0
 42
0.0000001
 43
0.0000001
 44
0.0000000001
 40
0.0
 40
0.0
 40
0.0
 40
0.0
 40
0.2278291347
 40
0.4768016896
 40
0.7377836977
 40
1.0
 40
1.0
 40
1.0
 40
1.0
 10
126.9207729797
 20
165.9396516423
 30
0.0
 10
127.2357468492
 20
165.7578055078
 30
0.0
 10
127.9390271629
 20
165.4519329547
 30
0.0
 10
129.0880243723
 20
165.1733405121
 30
0.0
 10
130.320237065
 20
165.0652892081
 30
0.0
 10
131.1576308682
 20
165.1123530618
 30
0.0
 10
131.572605745
 20
165.1672700383
 30
0.0
  0
SPLINE
  5
386
100
AcDbEntity
  8
_1
100
AcDbSpline
 62
7
  6
CONTINUOUS
 70
0
 71
3
 72
13
 73
9
 74
0
 42
0.0000001
 43
0.0000001
 44
0.0000000001
 40
0.0
 40
0.0
 40
0.0
 40
0.0
 40
0.2531415944
 40
0.3794362688
 40
0.5048975152
 40
0.629413125
 40
0.7532326189
 40
1.0
 40
1.0
 40
1.0
 40
1.0
 10
120.4474910602
 20
133.2609188167
 30
0.0
 10
122.8057368974
 20
134.6727452625
 30
0.0
 10
126.3587733437
 20
136.7590151825
 30
0.0
 10
131.1363468785
 20
139.4476384207
 30
0.0
 10
134.7079363983
 20
141.4312871069
 30
0.0
 10
138.2511253371
 20
143.4107242274
 30
0.0
 10
142.9291094832
 20
146.0593597841
 30
0.0
 10
146.4091787232
 20
148.0794233787
 30
0.0
 10
148.7214411891
 20
149.4330683393
 30
0.0
  0
SPLINE
  5
387
100
AcDbEntity
  8
_1
100
AcDbSpline
 62
7
  6
CONTINUOUS
 70
0
 71
3
 72
11
 73
7
 74
0
 42
0.0000001
 43
0.0000001
 44
0.0000000001
 40
0.0
 40
0.0
 40
0.0
 40
0.0
 40
0.2899165831
 40
0.5492110408
 40
0.7821518887
 40
1.0
 40
1.0
 40
1.0
 40
1.0
 10
124.7798200377
 20
170.2375090954
 30
0.0
 10
124.9124773234
 20
170.1609211085
 30
0.0
 10
125.1529834873
 20
169.995111166
 30
0.0
 10
125.439628201
 20
169.6922397671
 30
0.0
 10
125.6196589374
 20
169.3571048648
 30
0.0
 10
125.6599612765
 20
169.1168233296
 30
0.0
 10
125.6586793414
 20
169.0017295576
 30
0.0
  0
LINE
  5
388
100
AcDbEntity
  8
_1
100
AcDbLine
 62
7
  6
CONTINUOUS
 10
115.7120853071
 20
137.5172527083
 11
115.7194235419
 21
137.5025137904
  0
SPLINE
  5
389
100
AcDbEntity
  8
_1
100
AcDbSpline
 62
7
  6
CONTINUOUS
 70
0
 71
3
 72
13
 73
9
 74
0
 42
0.0000001
 43
0.0000001
 44
0.0000000001
 40
0.0
 40
0.0
 40
0.0
 40
0.0
 40
0.1454546553
 40
0.2909275359
 40
0.5642747568
 40
0.6882321378
 40
0.8025097461
 40
1.0
 40
1.0
 40
1.0
 40
1.0
 10
147.4334486963
 20
156.6490162936
 30
0.0
 10
147.5554825666
 20
156.4977260132
 30
0.0
 10
147.8134182624
 20
156.206328543
 30
0.0
 10
148.3397702929
 20
155.6662641655
 30
0.0
 10
148.8654271108
 20
155.1662702596
 30
0.0
 10
149.3632053451
 20
154.6976981534
 30
0.0
 10
149.786008245
 20
154.2974000935
 30
0.0
 10
150.0815528311
 20
154.0034056501
 30
0.0
 10
150.2617683002
 20
153.8106089874
 30
0.0
  0
SPLINE
  5
38A
100
AcDbEntity
  8
_1
100
AcDbSpline
 62
7
  6
CONTINUOUS
 70
0
 71
3
 72
9
 73
5
 74
0
 42
0.0000001
 43
0.0000001
 44
0.0000000001
 40
0.0
 40
0.0
 40
0.0
 40
0.0
 40
0.4559641848
 40
1.0
 40
1.0
 40
1.0
 40
1.0
 10
166.7033663435
 20
166.8116931275
 30
0.0
 10
166.6479757921
 20
166.6769729084
 30
0.0
 10
166.4949661833
 20
166.3942967876
 30
0.0
 10
166.294577415
 20
166.1426998825
 30
0.0
 10
166.1734933834
 20
166.0180223379
 30
0.0
  0
SPLINE
  5
38B
100
AcDbEntity
  8
_1
100
AcDbSpline
 62
7
  6
CONTINUOUS
 70
0
 71
3
 72
9
 73
5
 74
0
 42
0.0000001
 43
0.0000001
 44
0.0000000001
 40
0.0
 40
0.0
 40
0.0
 40
0.0
 40
0.4455083118
 40
1.0
 40
1.0
 40
1.0
 40
1.0
 10
90.5260410926
 20
158.6090111301
 30
0.0
 10
90.5076739208
 20
158.6124986912
 30
0.0
 10
90.4646970175
 20
158.6081682813
 30
0.0
 10
90.424807381
 20
158.5952388786
 30
0.0
 10
90.4032539183
 20
158.5864706195
 30
0.0
  0
SPLINE
  5
38C
100
AcDbEntity
  8
_1
100
AcDbSpline
 62
7
  6
CONTINUOUS
 70
0
 71
3
 72
9
 73
5
 74
0
 42
0.0000001
 43
0.0000001
 44
0.0000000001
 40
0.0
 40
0.0
 40
0.0
 40
0.0
 40
0.2322921705
 40
1.0
 40
1.0
 40
1.0
 40
1.0
 10
120.474116167
 20
133.2449591998
 30
0.0
 10
120.5112103069
 20
133.2219095384
 30
0.0
 10
120.6643481898
 20
133.1122265393
 30
0.0
 10
120.791504501
 20
132.9686443904
 30
0.0
 10
120.8733547195
 20
132.8497635775
 30
0.0
  0
SPLINE
  5
38D
100
AcDbEntity
  8
_1
100
AcDbSpline
 62
7
  6
CONTINUOUS
 70
0
 71
3
 72
9
 73
5
 74
0
 42
0.0000001
 43
0.0000001
 44
0.0000000001
 40
0.0
 40
0.0
 40
0.0
 40
0.0
 40
0.2555652109
 40
1.0
 40
1.0
 40
1.0
 40
1.0
 10
120.9192549901
 20
132.7794759176
 30
0.0
 10
120.9419285172
 20
132.7428380965
 30
0.0
 10
121.0252236701
 20
132.5962452949
 30
0.0
 10
121.0873045744
 20
132.4371827682
 30
0.0
 10
121.1174030559
 20
132.315339745
 30
0.0
  0
SPLINE
  5
38E
100
AcDbEntity
  8
_1
100
AcDbSpline
 62
7
  6
CONTINUOUS
 70
0
 71
3
 72
9
 73
5
 74
0
 42
0.0000001
 43
0.0000001
 44
0.0000000001
 40
0.0
 40
0.0
 40
0.0
 40
0.0
 40
0.2540130299
 40
1.0
 40
1.0
 40
1.0
 40
1.0
 10
121.1174030559
 20
132.315339745
 30
0.0
 10
121.1195557535
 20
132.3066253126
 30
0.0
 10
121.1277022134
 20
132.2722384182
 30
0.0
 10
121.1345196699
 20
132.2375335332
 30
0.0
 10
121.1387691674
 20
132.211516401
 30
0.0
  0
SPLINE
  5
38F
100
AcDbEntity
  8
_1
100
AcDbSpline
 62
7
  6
CONTINUOUS
 70
0
 71
3
 72
11
 73
7
 74
0
 42
0.0000001
 43
0.0000001
 44
0.0000000001
 40
0.0
 40
0.0
 40
0.0
 40
0.0
 40
0.2494855951
 40
0.4996083612
 40
0.7500796582
 40
1.0
 40
1.0
 40
1.0
 40
1.0
 10
148.7214411891
 20
149.4330683393
 30
0.0
 10
146.4085269289
 20
148.0318084908
 30
0.0
 10
141.7836916265
 20
145.2142636298
 30
0.0
 10
134.8777992405
 20
140.9230265563
 30
0.0
 10
128.0102037615
 20
136.5621697826
 30
0.0
 10
123.4314684708
 20
133.6545083391
 30
0.0
 10
121.1387463201
 20
132.2115821098
 30
0.0
  0
SPLINE
  5
390
100
AcDbEntity
  8
_1
100
AcDbSpline
 62
7
  6
CONTINUOUS
 70
0
 71
3
 72
11
 73
7
 74
0
 42
0.0000001
 43
0.0000001
 44
0.0000000001
 40
0.0
 40
0.0
 40
0.0
 40
0.0
 40
0.2895416688
 40
0.549118971
 40
0.7822562702
 40
1.0
 40
1.0
 40
1.0
 40
1.0
 10
31.8146809623
 20
94.3737811048
 30
0.0
 10
31.7489013929
 20
94.3358034793
 30
0.0
 10
31.6295332243
 20
94.2534950479
 30
0.0
 10
31.4867452948
 20
94.1035914527
 30
0.0
 10
31.3964053172
 20
93.9376322552
 30
0.0
 10
31.3754294617
 20
93.8185407802
 30
0.0
 10
31.3754294795
 20
93.7614199736
 30
0.0
  0
SPLINE
  5
391
100
AcDbEntity
  8
_1
100
AcDbSpline
 62
7
  6
CONTINUOUS
 70
0
 71
3
 72
11
 73
7
 74
0
 42
0.0000001
 43
0.0000001
 44
0.0000000001
 40
0.0
 40
0.0
 40
0.0
 40
0.0
 40
0.2372531816
 40
0.5000006935
 40
0.7627478297
 40
1.0
 40
1.0
 40
1.0
 40
1.0
 10
40.2999358408
 20
98.0479835886
 30
0.0
 10
40.1493436104
 20
98.1349260865
 30
0.0
 10
39.7991657412
 20
98.2618157366
 30
0.0
 10
39.2392736941
 20
98.3224795471
 30
0.0
 10
38.6793826851
 20
98.2618130613
 30
0.0
 10
38.3292064588
 20
98.1349217028
 30
0.0
 10
38.1786154973
 20
98.0479784896
 30
0.0
  0
SPLINE
  5
392
100
AcDbEntity
  8
_1
100
AcDbSpline
 62
7
  6
CONTINUOUS
 70
0
 71
3
 72
17
 73
13
 74
0
 42
0.0000001
 43
0.0000001
 44
0.0000000001
 40
0.0
 40
0.0
 40
0.0
 40
0.0
 40
0.128692495
 40
0.2702767083
 40
0.4174328819
 40
0.5617777392
 40
0.6954482002
 40
0.8127106333
 40
0.8646767596
 40
0.9125094179
 40
0.9571395794
 40
1.0
 40
1.0
 40
1.0
 40
1.0
 10
25.8042806822
 20
88.6990967444
 30
0.0
 10
25.8042806822
 20
88.3144471396
 30
0.0
 10
25.9118776037
 20
87.5056908993
 30
0.0
 10
26.3135410952
 20
86.3182190905
 30
0.0
 10
26.9323993467
 20
85.1742871715
 30
0.0
 10
27.7187790001
 20
84.1677122911
 30
0.0
 10
28.6084087674
 20
83.3797895077
 30
0.0
 10
29.4136627571
 20
82.9395806257
 30
0.0
 10
30.0435339361
 20
82.7719076895
 30
0.0
 10
30.4770609676
 20
82.740121092
 30
0.0
 10
30.8807590689
 20
82.7991881025
 30
0.0
 10
31.1252965766
 20
82.9008836493
 30
0.0
 10
31.236250896
 20
82.9649165528
 30
0.0
  0
SPLINE
  5
393
100
AcDbEntity
  8
_1
100
AcDbSpline
 62
7
  6
CONTINUOUS
 70
0
 71
3
 72
17
 73
13
 74
0
 42
0.0000001
 43
0.0000001
 44
0.0000000001
 40
0.0
 40
0.0
 40
0.0
 40
0.0
 40
0.0428592926
 40
0.087485474
 40
0.1353198781
 40
0.1872819044
 40
0.3045421965
 40
0.4382074305
 40
0.582548911
 40
0.7297129633
 40
0.8713059682
 40
1.0
 40
1.0
 40
1.0
 40
1.0
 10
26.0032964632
 20
124.6882240853
 30
0.0
 10
26.0710899985
 20
124.7273712981
 30
0.0
 10
26.2205529735
 20
124.7894336077
 30
0.0
 10
26.4672283403
 20
124.8256407599
 30
0.0
 10
26.7321500658
 20
124.8061219657
 30
0.0
 10
27.1170751099
 20
124.7037445818
 30
0.0
 10
27.6091420606
 20
124.4346793827
 30
0.0
 10
28.1527978548
 20
123.9532158675
 30
0.0
 10
28.6333880365
 20
123.338105729
 30
0.0
 10
29.0116065897
 20
122.6390260275
 30
0.0
 10
29.2570818417
 20
121.9133197199
 30
0.0
 10
29.3228373604
 20
121.4190624626
 30
0.0
 10
29.3228373604
 20
121.1839967109
 30
0.0
  0
SPLINE
  5
394
100
AcDbEntity
  8
_1
100
AcDbSpline
 62
7
  6
CONTINUOUS
 70
0
 71
3
 72
10
 73
6
 74
0
 42
0.0000001
 43
0.0000001
 44
0.0000000001
 40
0.0
 40
0.0
 40
0.0
 40
0.0
 40
0.2315042821
 40
0.477059812
 40
1.0
 40
1.0
 40
1.0
 40
1.0
 10
27.5719490123
 20
102.3752232091
 30
0.0
 10
27.5719490123
 20
101.5927314772
 30
0.0
 10
27.6718860495
 20
99.9790783287
 30
0.0
 10
28.2345605229
 20
96.6421862694
 30
0.0
 10
29.0342987682
 20
94.1515919223
 30
0.0
 10
29.7061825159
 20
92.5167157219
 30
0.0
  0
SPLINE
  5
395
100
AcDbEntity
  8
_1
100
AcDbSpline
 62
7
  6
CONTINUOUS
 70
0
 71
3
 72
16
 73
12
 74
0
 42
0.0000001
 43
0.0000001
 44
0.0000000001
 40
0.0
 40
0.0
 40
0.0
 40
0.0
 40
0.1570694922
 40
0.3073305927
 40
0.4484969084
 40
0.5789362272
 40
0.6979407281
 40
0.8060531403
 40
0.9053928119
 40
0.9530209097
 40
1.0
 40
1.0
 40
1.0
 40
1.0
 10
34.2584552471
 20
84.6385076877
 30
0.0
 10
34.918893653
 20
83.7841113351
 30
0.0
 10
36.294309252
 20
82.1743309562
 30
0.0
 10
38.5398097736
 20
80.0520755241
 30
0.0
 10
40.8745201062
 20
78.3180327102
 30
0.0
 10
43.2365175195
 20
77.0198103632
 30
0.0
 10
45.5660155172
 20
76.1944977782
 30
0.0
 10
47.8039492898
 20
75.8696977728
 30
0.0
 10
49.5715513955
 20
76.039937593
 30
0.0
 10
50.8463382183
 20
76.4439728326
 30
0.0
 10
51.4343699406
 20
76.7283909549
 30
0.0
 10
51.7140807243
 20
76.8899050936
 30
0.0
  0
SPLINE
  5
396
100
AcDbEntity
  8
_1
100
AcDbSpline
 62
7
  6
CONTINUOUS
 70
0
 71
3
 72
14
 73
10
 74
0
 42
0.0000001
 43
0.0000001
 44
0.0000000001
 40
0.0
 40
0.0
 40
0.0
 40
0.0
 40
0.2892795929
 40
0.4225457951
 40
0.548494157
 40
0.6678935371
 40
0.7818683521
 40
0.8919519086
 40
1.0
 40
1.0
 40
1.0
 40
1.0
 10
54.0885637053
 20
87.0661949146
 30
0.0
 10
54.0885637053
 20
86.1791690575
 30
0.0
 10
53.9850094422
 20
84.8771362421
 30
0.0
 10
53.5847303976
 20
83.2406404554
 30
0.0
 10
53.1774560366
 20
82.1501714539
 30
0.0
 10
52.6584608328
 20
81.1743121179
 30
0.0
 10
52.0315419624
 20
80.3229254314
 30
0.0
 10
51.3026943627
 20
79.6055153507
 30
0.0
 10
50.7509983812
 20
79.2206472713
 30
0.0
 10
50.4640742073
 20
79.0549929353
 30
0.0
  0
SPLINE
  5
397
100
AcDbEntity
  8
_1
100
AcDbSpline
 62
7
  6
CONTINUOUS
 70
0
 71
3
 72
11
 73
7
 74
0
 42
0.0000001
 43
0.0000001
 44
0.0000000001
 40
0.0
 40
0.0
 40
0.0
 40
0.0
 40
0.2897768139
 40
0.5490678485
 40
0.7822253266
 40
1.0
 40
1.0
 40
1.0
 40
1.0
 10
58.8993411831
 20
63.467900624
 30
0.0
 10
59.1187933845
 20
63.3412027027
 30
0.0
 10
59.5551941914
 20
63.1334909799
 30
0.0
 10
60.2260613177
 20
62.9716390513
 30
0.0
 10
60.8554349828
 20
62.9875058462
 30
0.0
 10
61.2343875698
 20
63.1250945502
 30
0.0
 10
61.3993120736
 20
63.2203102817
 30
0.0
  0
SPLINE
  5
398
100
AcDbEntity
  8
_1
100
AcDbSpline
 62
7
  6
CONTINUOUS
 70
0
 71
3
 72
13
 73
9
 74
0
 42
0.0000001
 43
0.0000001
 44
0.0000000001
 40
0.0
 40
0.0
 40
0.0
 40
0.0
 40
0.1145847369
 40
0.2380794901
 40
0.5005460035
 40
0.7627140198
 40
0.8858598322
 40
1.0
 40
1.0
 40
1.0
 40
1.0
 10
23.8219471934
 20
87.7662712356
 30
0.0
 10
23.8240459974
 20
87.4873542213
 30
0.0
 10
23.8787110576
 20
86.9076306415
 30
0.0
 10
24.1611826996
 20
85.7194414586
 30
0.0
 10
24.8079569306
 20
84.2643087518
 30
0.0
 10
25.7506073576
 20
82.9818374622
 30
0.0
 10
26.6413087507
 20
82.150082289
 30
0.0
 10
27.1167409729
 20
81.8171782948
 30
0.0
 10
27.3573611962
 20
81.6782592868
 30
0.0
  0
SPLINE
  5
399
100
AcDbEntity
  8
_1
100
AcDbSpline
 62
7
  6
CONTINUOUS
 70
0
 71
3
 72
11
 73
7
 74
0
 42
0.0000001
 43
0.0000001
 44
0.0000000001
 40
0.0
 40
0.0
 40
0.0
 40
0.0
 40
0.2897016594
 40
0.5490895814
 40
0.7822189142
 40
1.0
 40
1.0
 40
1.0
 40
1.0
 10
60.8229685072
 20
102.9977989406
 30
0.0
 10
60.8229685072
 20
102.8584620343
 30
0.0
 10
60.8018431312
 20
102.5934714092
 30
0.0
 10
60.6945307212
 20
102.2293854928
 30
0.0
 10
60.5138390983
 20
101.9339506173
 30
0.0
 10
60.3441143505
 20
101.7912750819
 30
0.0
 10
60.2534059161
 20
101.7388957161
 30
0.0
  0
SPLINE
  5
39A
100
AcDbEntity
  8
_1
100
AcDbSpline
 62
7
  6
CONTINUOUS
 70
0
 71
3
 72
11
 73
7
 74
0
 42
0.0000001
 43
0.0000001
 44
0.0000000001
 40
0.0
 40
0.0
 40
0.0
 40
0.0
 40
0.2897016594
 40
0.5490895814
 40
0.7822189142
 40
1.0
 40
1.0
 40
1.0
 40
1.0
 10
29.3228373604
 20
121.1839967109
 30
0.0
 10
29.3228373604
 20
121.0446598046
 30
0.0
 10
29.3017119845
 20
120.7796691795
 30
0.0
 10
29.1943995744
 20
120.4155832631
 30
0.0
 10
29.0137079515
 20
120.1201483876
 30
0.0
 10
28.8439832038
 20
119.9774728522
 30
0.0
 10
28.7532747693
 20
119.9250934864
 30
0.0
  0
SPLINE
  5
39B
100
AcDbEntity
  8
_1
100
AcDbSpline
 62
7
  6
CONTINUOUS
 70
0
 71
3
 72
11
 73
7
 74
0
 42
0.0000001
 43
0.0000001
 44
0.0000000001
 40
0.0
 40
0.0
 40
0.0
 40
0.0
 40
0.2897016594
 40
0.5490895814
 40
0.7822189142
 40
1.0
 40
1.0
 40
1.0
 40
1.0
 10
60.8229685072
 20
66.6244719921
 30
0.0
 10
60.8229685072
 20
66.4851350858
 30
0.0
 10
60.8018431312
 20
66.2201444607
 30
0.0
 10
60.6945307212
 20
65.8560585443
 30
0.0
 10
60.5138390983
 20
65.5606236688
 30
0.0
 10
60.3441143505
 20
65.4179481334
 30
0.0
 10
60.2534059161
 20
65.3655687676
 30
0.0
  0
SPLINE
  5
39C
100
AcDbEntity
  8
_1
100
AcDbSpline
 62
7
  6
CONTINUOUS
 70
0
 71
3
 72
17
 73
13
 74
0
 42
0.0000001
 43
0.0000001
 44
0.0000000001
 40
0.0
 40
0.0
 40
0.0
 40
0.0
 40
0.0428592926
 40
0.087485474
 40
0.1353198781
 40
0.1872819044
 40
0.3045421965
 40
0.4382074305
 40
0.582548911
 40
0.7297129633
 40
0.8713059682
 40
1.0
 40
1.0
 40
1.0
 40
1.0
 10
57.50342761
 20
106.502026315
 30
0.0
 10
57.5712211452
 20
106.5411735277
 30
0.0
 10
57.7206841203
 20
106.6032358374
 30
0.0
 10
57.967359487
 20
106.6394429896
 30
0.0
 10
58.2322812125
 20
106.6199241954
 30
0.0
 10
58.6172062566
 20
106.5175468115
 30
0.0
 10
59.1092732073
 20
106.2484816124
 30
0.0
 10
59.6529290016
 20
105.7670180972
 30
0.0
 10
60.1335191832
 20
105.1519079586
 30
0.0
 10
60.5117377365
 20
104.4528282572
 30
0.0
 10
60.7572129884
 20
103.7271219496
 30
0.0
 10
60.8229685072
 20
103.2328646922
 30
0.0
 10
60.8229685072
 20
102.9977989406
 30
0.0
  0
SPLINE
  5
39D
100
AcDbEntity
  8
_1
100
AcDbSpline
 62
7
  6
CONTINUOUS
 70
0
 71
3
 72
17
 73
13
 74
0
 42
0.0000001
 43
0.0000001
 44
0.0000000001
 40
0.0
 40
0.0
 40
0.0
 40
0.0
 40
0.0428592926
 40
0.087485474
 40
0.1353198781
 40
0.1872819044
 40
0.3045421965
 40
0.4382074305
 40
0.582548911
 40
0.7297129633
 40
0.8713059682
 40
1.0
 40
1.0
 40
1.0
 40
1.0
 10
57.50342761
 20
70.1286993665
 30
0.0
 10
57.5712211452
 20
70.1678465793
 30
0.0
 10
57.7206841203
 20
70.2299088889
 30
0.0
 10
57.967359487
 20
70.2661160411
 30
0.0
 10
58.2322812125
 20
70.246597247
 30
0.0
 10
58.6172062566
 20
70.144219863
 30
0.0
 10
59.1092732073
 20
69.8751546639
 30
0.0
 10
59.6529290016
 20
69.3936911488
 30
0.0
 10
60.1335191832
 20
68.7785810102
 30
0.0
 10
60.5117377365
 20
68.0795013087
 30
0.0
 10
60.7572129884
 20
67.3537950011
 30
0.0
 10
60.8229685072
 20
66.8595377438
 30
0.0
 10
60.8229685072
 20
66.6244719921
 30
0.0
  0
SPLINE
  5
39E
100
AcDbEntity
  8
_1
100
AcDbSpline
 62
7
  6
CONTINUOUS
 70
0
 71
3
 72
8
 73
4
 74
0
 42
0.0000001
 43
0.0000001
 44
0.0000000001
 40
0.0
 40
0.0
 40
0.0
 40
0.0
 40
1.0
 40
1.0
 40
1.0
 40
1.0
 10
90.3516486913
 20
158.5622183031
 30
0.0
 10
90.3784723117
 20
158.5777031985
 30
0.0
 10
90.40772864
 20
158.5895014661
 30
0.0
 10
90.437728396
 20
158.5972023254
 30
0.0
  0
SPLINE
  5
39F
100
AcDbEntity
  8
_1
100
AcDbSpline
 62
7
  6
CONTINUOUS
 70
0
 71
3
 72
9
 73
5
 74
0
 42
0.0000001
 43
0.0000001
 44
0.0000000001
 40
0.0
 40
0.0
 40
0.0
 40
0.0
 40
0.456461376
 40
1.0
 40
1.0
 40
1.0
 40
1.0
 10
90.437728396
 20
158.5972023254
 30
0.0
 10
90.5011404941
 20
158.613480046
 30
0.0
 10
90.6503280536
 20
158.6096718227
 30
0.0
 10
90.7841059527
 20
158.5517192557
 30
0.0
 10
90.8516191232
 20
158.5127413903
 30
0.0
  0
SPLINE
  5
3A0
100
AcDbEntity
  8
_1
100
AcDbSpline
 62
7
  6
CONTINUOUS
 70
0
 71
3
 72
11
 73
7
 74
0
 42
0.0000001
 43
0.0000001
 44
0.0000000001
 40
0.0
 40
0.0
 40
0.0
 40
0.0
 40
0.2177746734
 40
0.4509321515
 40
0.7102231861
 40
1.0
 40
1.0
 40
1.0
 40
1.0
 10
31.2213248406
 20
130.5076799561
 30
0.0
 10
31.3862493445
 20
130.6028956876
 30
0.0
 10
31.7652019314
 20
130.7404843916
 30
0.0
 10
32.3945755965
 20
130.7563511865
 30
0.0
 10
33.0654427229
 20
130.5944992579
 30
0.0
 10
33.5018435297
 20
130.3867875351
 30
0.0
 10
33.7212957312
 20
130.2600896138
 30
0.0
  0
SPLINE
  5
3A1
100
AcDbEntity
  8
_1
100
AcDbSpline
 62
7
  6
CONTINUOUS
 70
0
 71
3
 72
11
 73
7
 74
0
 42
0.0000001
 43
0.0000001
 44
0.0000000001
 40
0.0
 40
0.0
 40
0.0
 40
0.0
 40
0.2182576202
 40
0.4516168347
 40
0.7107274315
 40
1.0
 40
1.0
 40
1.0
 40
1.0
 10
24.8573903057
 20
126.8334825713
 30
0.0
 10
24.6943223784
 20
126.7393386957
 30
0.0
 10
24.3889996953
 20
126.4837890055
 30
0.0
 10
24.0620440626
 20
125.9553407628
 30
0.0
 10
23.8651271945
 20
125.3040926799
 30
0.0
 10
23.8238414819
 20
124.8296833606
 30
0.0
 10
23.8219471934
 20
124.5801323797
 30
0.0
  0
SPLINE
  5
3A2
100
AcDbEntity
  8
_1
100
AcDbSpline
 62
7
  6
CONTINUOUS
 70
0
 71
3
 72
14
 73
10
 74
0
 42
0.0000001
 43
0.0000001
 44
0.0000000001
 40
0.0
 40
0.0
 40
0.0
 40
0.0
 40
0.1080478525
 40
0.218130376
 40
0.3321028926
 40
0.4515030816
 40
0.5774541591
 40
0.7107167011
 40
1.0
 40
1.0
 40
1.0
 40
1.0
 10
31.7142063061
 20
111.5309111439
 30
0.0
 10
31.3863059456
 20
111.3415707702
 30
0.0
 10
30.7558189775
 20
110.9017014123
 30
0.0
 10
29.9228439899
 20
110.0818325207
 30
0.0
 10
29.206332139
 20
109.1088495341
 30
0.0
 10
28.6132433622
 20
107.9935498633
 30
0.0
 10
28.1477570291
 20
106.7473129513
 30
0.0
 10
27.6903072467
 20
104.8770163117
 30
0.0
 10
27.5719490123
 20
103.3889804673
 30
0.0
 10
27.5719490123
 20
102.3752232091
 30
0.0
  0
SPLINE
  5
3A3
100
AcDbEntity
  8
_1
100
AcDbSpline
 62
7
  6
CONTINUOUS
 70
0
 71
3
 72
22
 73
18
 74
0
 42
0.0000001
 43
0.0000001
 44
0.0000000001
 40
0.0
 40
0.0
 40
0.0
 40
0.0
 40
0.0428209566
 40
0.087409358
 40
0.1351990446
 40
0.187115643
 40
0.24356997
 40
0.3045353236
 40
0.3696413295
 40
0.4382577949
 40
0.5095644389
 40
0.582609863
 40
0.7296268742
 40
0.8016249621
 40
0.871235111
 40
0.9376016306
 40
1.0
 40
1.0
 40
1.0
 40
1.0
 10
32.9642128232
 20
109.3658233022
 30
0.0
 10
33.3956656237
 20
109.6149205679
 30
0.0
 10
34.346721261
 20
110.0102244411
 30
0.0
 10
35.916656043
 20
110.2403145159
 30
0.0
 10
37.6025087674
 20
110.1162231633
 30
0.0
 10
39.3668508451
 20
109.6474282209
 30
0.0
 10
41.1750330637
 20
108.8482656776
 30
0.0
 10
42.9910631432
 20
107.7372133765
 30
0.0
 10
44.778076759
 20
106.3381902927
 30
0.0
 10
46.4989089402
 20
104.6808931312
 30
0.0
 10
48.1176123532
 20
102.80020464
 30
0.0
 10
50.0963641919
 20
100.0439654815
 30
0.0
 10
51.7231515191
 20
97.0381004822
 30
0.0
 10
52.9273611727
 20
93.8998774701
 30
0.0
 10
53.5855063612
 20
91.5673670468
 30
0.0
 10
53.9901541361
 20
89.2912771118
 30
0.0
 10
54.0885637053
 20
87.7921648072
 30
0.0
 10
54.0885637053
 20
87.0661949146
 30
0.0
  0
SPLINE
  5
3A4
100
AcDbEntity
  8
_1
100
AcDbSpline
 62
7
  6
CONTINUOUS
 70
0
 71
3
 72
11
 73
7
 74
0
 42
0.0000001
 43
0.0000001
 44
0.0000000001
 40
0.0
 40
0.0
 40
0.0
 40
0.0
 40
0.2177807769
 40
0.4509257051
 40
0.710260782
 40
1.0
 40
1.0
 40
1.0
 40
1.0
 10
26.7362979947
 20
90.7591101453
 30
0.0
 10
26.5878443813
 20
90.6734360053
 30
0.0
 10
26.3101293226
 20
90.4399082475
 30
0.0
 10
26.0144680254
 20
89.9565127691
 30
0.0
 10
25.8387976282
 20
89.360748859
 30
0.0
 10
25.8042806822
 20
88.9271324208
 30
0.0
 10
25.8042806822
 20
88.6990967444
 30
0.0
  0
SPLINE
  5
3A5
100
AcDbEntity
  8
_1
100
AcDbSpline
 62
7
  6
CONTINUOUS
 70
0
 71
3
 72
9
 73
5
 74
0
 42
0.0000001
 43
0.0000001
 44
0.0000000001
 40
0.0
 40
0.0
 40
0.0
 40
0.0
 40
0.2546730824
 40
1.0
 40
1.0
 40
1.0
 40
1.0
 10
114.7916060613
 20
101.0364870026
 30
0.0
 10
114.7861529078
 20
101.0298687615
 30
0.0
 10
114.7638764766
 20
101.0046099304
 30
0.0
 10
114.7380042456
 20
100.9824891357
 30
0.0
 10
114.7171990402
 20
100.9684535877
 30
0.0
  0
SPLINE
  5
3A6
100
AcDbEntity
  8
_1
100
AcDbSpline
 62
7
  6
CONTINUOUS
 70
0
 71
3
 72
9
 73
5
 74
0
 42
0.0000001
 43
0.0000001
 44
0.0000000001
 40
0.0
 40
0.0
 40
0.0
 40
0.0
 40
0.5322059943
 40
1.0
 40
1.0
 40
1.0
 40
1.0
 10
121.1452755307
 20
104.9304685633
 30
0.0
 10
121.1329359254
 20
104.8691918602
 30
0.0
 10
121.0938936618
 20
104.755551684
 30
0.0
 10
121.0102354741
 20
104.6663305372
 30
0.0
 10
120.9637197907
 20
104.6370921617
 30
0.0
  0
SPLINE
  5
3A7
100
AcDbEntity
  8
_1
100
AcDbSpline
 62
7
  6
CONTINUOUS
 70
0
 71
3
 72
9
 73
5
 74
0
 42
0.0000001
 43
0.0000001
 44
0.0000000001
 40
0.0
 40
0.0
 40
0.0
 40
0.0
 40
0.258357394
 40
1.0
 40
1.0
 40
1.0
 40
1.0
 10
121.9211752522
 20
111.5828271499
 30
0.0
 10
121.8978217426
 20
111.006190716
 30
0.0
 10
121.7674495216
 20
108.7762364069
 30
0.0
 10
121.4723191841
 20
106.554520251
 30
0.0
 10
121.1452755307
 20
104.9304685633
 30
0.0
  0
SPLINE
  5
3A8
100
AcDbEntity
  8
_1
100
AcDbSpline
 62
7
  6
CONTINUOUS
 70
0
 71
3
 72
9
 73
5
 74
0
 42
0.0000001
 43
0.0000001
 44
0.0000000001
 40
0.0
 40
0.0
 40
0.0
 40
0.0
 40
0.2564204997
 40
1.0
 40
1.0
 40
1.0
 40
1.0
 10
121.1452755307
 20
132.2080712495
 30
0.0
 10
121.249892761
 20
131.56775831
 30
0.0
 10
121.6221277179
 20
129.0650253459
 30
0.0
 10
121.8484367857
 20
126.5398223238
 30
0.0
 10
121.9211752522
 20
124.6598011051
 30
0.0
  0
SPLINE
  5
3A9
100
AcDbEntity
  8
_1
100
AcDbSpline
 62
7
  6
CONTINUOUS
 70
0
 71
3
 72
11
 73
7
 74
0
 42
0.0000001
 43
0.0000001
 44
0.0000000001
 40
0.0
 40
0.0
 40
0.0
 40
0.0
 40
0.2320600978
 40
0.4886112198
 40
0.7512267384
 40
1.0
 40
1.0
 40
1.0
 40
1.0
 10
120.4530257654
 20
133.257723753
 30
0.0
 10
120.5395412718
 20
133.2077751321
 30
0.0
 10
120.7056143858
 20
133.0743266023
 30
0.0
 10
120.909557844
 20
132.8208698176
 30
0.0
 10
121.0648768216
 20
132.5268690131
 30
0.0
 10
121.1280070386
 20
132.3137635807
 30
0.0
 10
121.1452755307
 20
132.2080712495
 30
0.0
  0
SPLINE
  5
3AA
100
AcDbEntity
  8
_1
100
AcDbSpline
 62
7
  6
CONTINUOUS
 70
0
 71
3
 72
13
 73
9
 74
0
 42
0.0000001
 43
0.0000001
 44
0.0000000001
 40
0.0
 40
0.0
 40
0.0
 40
0.0
 40
0.1145847369
 40
0.2380794901
 40
0.5005460035
 40
0.7627140198
 40
0.8858598322
 40
1.0
 40
1.0
 40
1.0
 40
1.0
 10
114.930617222
 20
140.4929015824
 30
0.0
 10
114.932716026
 20
140.213984568
 30
0.0
 10
114.9873810862
 20
139.6342609882
 30
0.0
 10
115.2698527281
 20
138.4460718053
 30
0.0
 10
115.9166269592
 20
136.9909390985
 30
0.0
 10
116.8592773862
 20
135.7084678089
 30
0.0
 10
117.7499787793
 20
134.8767126357
 30
0.0
 10
118.2254110015
 20
134.5438086415
 30
0.0
 10
118.4660312248
 20
134.4048896335
 30
0.0
  0
SPLINE
  5
3AB
100
AcDbEntity
  8
_1
100
AcDbSpline
 62
7
  6
CONTINUOUS
 70
0
 71
3
 72
11
 73
7
 74
0
 42
0.0000001
 43
0.0000001
 44
0.0000000001
 40
0.0
 40
0.0
 40
0.0
 40
0.0
 40
0.2369927091
 40
0.4994505644
 40
0.7622069344
 40
1.0
 40
1.0
 40
1.0
 40
1.0
 10
114.198527908
 20
145.0337022552
 30
0.0
 10
114.2983295197
 20
144.9760830714
 30
0.0
 10
114.487318133
 20
144.8173569567
 30
0.0
 10
114.7083137089
 20
144.516441768
 30
0.0
 10
114.8602491813
 20
144.1749792171
 30
0.0
 10
114.9047406405
 20
143.9317260971
 30
0.0
 10
114.9056107086
 20
143.8160998654
 30
0.0
  0
SPLINE
  5
3AC
100
AcDbEntity
  8
_1
100
AcDbSpline
 62
7
  6
CONTINUOUS
 70
0
 71
3
 72
11
 73
7
 74
0
 42
0.0000001
 43
0.0000001
 44
0.0000000001
 40
0.0
 40
0.0
 40
0.0
 40
0.0
 40
0.2177434119
 40
0.4508805377
 40
0.710457812
 40
1.0
 40
1.0
 40
1.0
 40
1.0
 10
40.7391961555
 20
97.4356173572
 30
0.0
 10
40.7391961378
 20
97.4927388172
 30
0.0
 10
40.7182198419
 20
97.6118317175
 30
0.0
 10
40.6278778288
 20
97.7777924727
 30
0.0
 10
40.4850871103
 20
97.9276972253
 30
0.0
 10
40.3657166505
 20
98.0100058796
 30
0.0
 10
40.2999358408
 20
98.0479835886
 30
0.0
  0
SPLINE
  5
3AD
100
AcDbEntity
  8
_1
100
AcDbSpline
 62
7
  6
CONTINUOUS
 70
0
 71
3
 72
11
 73
7
 74
0
 42
0.0000001
 43
0.0000001
 44
0.0000000001
 40
0.0
 40
0.0
 40
0.0
 40
0.0
 40
0.2742101166
 40
0.5287852025
 40
0.768456899
 40
1.0
 40
1.0
 40
1.0
 40
1.0
 10
43.1378855181
 20
123.2765637159
 30
0.0
 10
42.9817782272
 20
123.1264958708
 30
0.0
 10
42.7011828416
 20
122.8142991646
 30
0.0
 10
42.3802389516
 20
122.2949512159
 30
0.0
 10
42.1833208292
 20
121.7520566217
 30
0.0
 10
42.1387457687
 20
121.3785859005
 30
0.0
 10
42.1387457564
 20
121.1957389306
 30
0.0
  0
SPLINE
  5
3AE
100
AcDbEntity
  8
_1
100
AcDbSpline
 62
7
  6
CONTINUOUS
 70
0
 71
3
 72
11
 73
7
 74
0
 42
0.0000001
 43
0.0000001
 44
0.0000000001
 40
0.0
 40
0.0
 40
0.0
 40
0.0
 40
0.2892725685
 40
0.5483831653
 40
0.7817423798
 40
1.0
 40
1.0
 40
1.0
 40
1.0
 10
68.7986897209
 20
69.147857858
 30
0.0
 10
68.7967954324
 20
68.8983068772
 30
0.0
 10
68.7555097197
 20
68.4238975579
 30
0.0
 10
68.5585928517
 20
67.772649475
 30
0.0
 10
68.2316372189
 20
67.2442012323
 30
0.0
 10
67.9263145358
 20
66.9886515421
 30
0.0
 10
67.7632466086
 20
66.8945076665
 30
0.0
  0
SPLINE
  5
3AF
100
AcDbEntity
  8
_1
100
AcDbSpline
 62
7
  6
CONTINUOUS
 70
0
 71
3
 72
13
 73
9
 74
0
 42
0.0000001
 43
0.0000001
 44
0.0000000001
 40
0.0
 40
0.0
 40
0.0
 40
0.0
 40
0.1141401678
 40
0.2372859802
 40
0.4994539965
 40
0.7619205099
 40
0.8854152631
 40
1.0
 40
1.0
 40
1.0
 40
1.0
 10
65.263275718
 20
112.049730951
 30
0.0
 10
65.5038959414
 20
111.910811943
 30
0.0
 10
65.9793281636
 20
111.5779079488
 30
0.0
 10
66.8700295566
 20
110.7461527756
 30
0.0
 10
67.8126799836
 20
109.463681486
 30
0.0
 10
68.4594542147
 20
108.0085487792
 30
0.0
 10
68.7419258566
 20
106.8203595963
 30
0.0
 10
68.7965909168
 20
106.2406360165
 30
0.0
 10
68.7986897209
 20
105.9617190021
 30
0.0
  0
SPLINE
  5
3B0
100
AcDbEntity
  8
_1
100
AcDbSpline
 62
7
  6
CONTINUOUS
 70
0
 71
3
 72
11
 73
7
 74
0
 42
0.0000001
 43
0.0000001
 44
0.0000000001
 40
0.0
 40
0.0
 40
0.0
 40
0.0
 40
0.2182576202
 40
0.4516168347
 40
0.7107274315
 40
1.0
 40
1.0
 40
1.0
 40
1.0
 10
61.3993120736
 20
63.2203102817
 30
0.0
 10
61.5623800009
 20
63.3144541572
 30
0.0
 10
61.867702684
 20
63.5700038474
 30
0.0
 10
62.1946583167
 20
64.0984520901
 30
0.0
 10
62.3915751848
 20
64.749700173
 30
0.0
 10
62.4328608974
 20
65.2241094923
 30
0.0
 10
62.4347551859
 20
65.4736604732
 30
0.0
  0
SPLINE
  5
3B1
100
AcDbEntity
  8
_1
100
AcDbSpline
 62
7
  6
CONTINUOUS
 70
0
 71
3
 72
11
 73
7
 74
0
 42
0.0000001
 43
0.0000001
 44
0.0000000001
 40
0.0
 40
0.0
 40
0.0
 40
0.0
 40
0.2897768139
 40
0.5490678485
 40
0.7822253266
 40
1.0
 40
1.0
 40
1.0
 40
1.0
 10
27.3573611962
 20
126.5858922289
 30
0.0
 10
27.1379089948
 20
126.7125901502
 30
0.0
 10
26.7015081879
 20
126.920301873
 30
0.0
 10
26.0306410616
 20
127.0821538017
 30
0.0
 10
25.4012673965
 20
127.0662870067
 30
0.0
 10
25.0223148095
 20
126.9286983027
 30
0.0
 10
24.8573903057
 20
126.8334825713
 30
0.0
  0
SPLINE
  5
3B2
100
AcDbEntity
  8
_1
100
AcDbSpline
 62
7
  6
CONTINUOUS
 70
0
 71
3
 72
13
 73
9
 74
0
 42
0.0000001
 43
0.0000001
 44
0.0000000001
 40
0.0
 40
0.0
 40
0.0
 40
0.0
 40
0.1145847369
 40
0.2380794901
 40
0.5005460035
 40
0.7627140198
 40
0.8858598322
 40
1.0
 40
1.0
 40
1.0
 40
1.0
 10
62.4347551859
 20
102.2875216173
 30
0.0
 10
62.4326563819
 20
102.5664386316
 30
0.0
 10
62.3779913217
 20
103.1461622114
 30
0.0
 10
62.0955196797
 20
104.3343513943
 30
0.0
 10
61.4487454487
 20
105.7894841012
 30
0.0
 10
60.5060950217
 20
107.0719553907
 30
0.0
 10
59.6153936286
 20
107.9037105639
 30
0.0
 10
59.1399614064
 20
108.2366145582
 30
0.0
 10
58.8993411831
 20
108.3755335661
 30
0.0
  0
SPLINE
  5
3B3
100
AcDbEntity
  8
_1
100
AcDbSpline
 62
7
  6
CONTINUOUS
 70
0
 71
3
 72
11
 73
7
 74
0
 42
0.0000001
 43
0.0000001
 44
0.0000000001
 40
0.0
 40
0.0
 40
0.0
 40
0.0
 40
0.3216619722
 40
0.5919185718
 40
0.8122157346
 40
1.0
 40
1.0
 40
1.0
 40
1.0
 10
31.8146897942
 20
92.1692508416
 30
0.0
 10
31.7498059145
 20
92.2067107196
 30
0.0
 10
31.6337653761
 20
92.2819612569
 30
0.0
 10
31.4915306583
 20
92.4081402357
 30
0.0
 10
31.398869776
 20
92.5387881332
 30
0.0
 10
31.3753940445
 20
92.6343479577
 30
0.0
 10
31.3753769898
 20
92.6780863856
 30
0.0
  0
SPLINE
  5
3B4
100
AcDbEntity
  8
_1
100
AcDbSpline
 62
7
  6
CONTINUOUS
 70
0
 71
3
 72
23
 73
19
 74
0
 42
0.0000001
 43
0.0000001
 44
0.0000000001
 40
0.0
 40
0.0
 40
0.0
 40
0.0
 40
0.0428152351
 40
0.0873978376
 40
0.135181159
 40
0.1870905607
 40
0.2435370803
 40
0.3044943246
 40
0.3695920194
 40
0.4381998096
 40
0.5094972547
 40
0.582532834
 40
0.6562762518
 40
0.7296640512
 40
0.8016519132
 40
0.871253987
 40
0.9376082358
 40
1.0
 40
1.0
 40
1.0
 40
1.0
 10
33.1284141093
 20
112.3473992547
 30
0.0
 10
33.6214842559
 20
112.6321146065
 30
0.0
 10
34.7084476357
 20
113.0838173622
 30
0.0
 10
36.5026511919
 20
113.3467747988
 30
0.0
 10
38.4293404134
 20
113.2049349698
 30
0.0
 10
40.4457287425
 20
112.6691958173
 30
0.0
 10
42.5122291284
 20
111.7558959713
 30
0.0
 10
44.5877068809
 20
110.4861325152
 30
0.0
 10
46.6300053807
 20
108.8872497124
 30
0.0
 10
48.5967186803
 20
106.9931265221
 30
0.0
 10
50.4464593725
 20
104.8439153139
 30
0.0
 10
52.1399960889
 20
102.4853055349
 30
0.0
 10
53.6412251836
 20
99.9675661337
 30
0.0
 10
54.9181794457
 20
97.3444081527
 30
0.0
 10
55.9435196086
 20
94.6717893314
 30
0.0
 10
56.6956067182
 20
92.0063157638
 30
0.0
 10
57.1581059614
 20
89.4050244727
 30
0.0
 10
57.2705456926
 20
87.6917844354
 30
0.0
 10
57.2705456926
 20
86.8620813361
 30
0.0
  0
SPLINE
  5
3B5
100
AcDbEntity
  8
_1
100
AcDbSpline
 62
7
  6
CONTINUOUS
 70
0
 71
3
 72
11
 73
7
 74
0
 42
0.0000001
 43
0.0000001
 44
0.0000000001
 40
0.0
 40
0.0
 40
0.0
 40
0.0
 40
0.2897016594
 40
0.5490895814
 40
0.7822189142
 40
1.0
 40
1.0
 40
1.0
 40
1.0
 10
56.9338650189
 20
105.2431230905
 30
0.0
 10
56.9338650189
 20
105.3824599968
 30
0.0
 10
56.9549903949
 20
105.6474506219
 30
0.0
 10
57.0623028049
 20
106.0115365383
 30
0.0
 10
57.2429944278
 20
106.3069714138
 30
0.0
 10
57.4127191755
 20
106.4496469492
 30
0.0
 10
57.50342761
 20
106.502026315
 30
0.0
  0
SPLINE
  5
3B6
100
AcDbEntity
  8
_1
100
AcDbSpline
 62
7
  6
CONTINUOUS
 70
0
 71
3
 72
14
 73
10
 74
0
 42
0.0000001
 43
0.0000001
 44
0.0000000001
 40
0.0
 40
0.0
 40
0.0
 40
0.0
 40
0.1080478525
 40
0.218130376
 40
0.3321028926
 40
0.4515030816
 40
0.5774541591
 40
0.7107167011
 40
1.0
 40
1.0
 40
1.0
 40
1.0
 10
51.7140807243
 20
76.8899050936
 30
0.0
 10
52.0419810848
 20
77.0792454672
 30
0.0
 10
52.6724680529
 20
77.5191148251
 30
0.0
 10
53.5054430406
 20
78.3389837167
 30
0.0
 10
54.2219548914
 20
79.3119667034
 30
0.0
 10
54.8150436683
 20
80.4272663741
 30
0.0
 10
55.2805300013
 20
81.6735032862
 30
0.0
 10
55.7379797838
 20
83.5437999257
 30
0.0
 10
55.8563380182
 20
85.0318357702
 30
0.0
 10
55.8563380182
 20
86.0455930283
 30
0.0
  0
SPLINE
  5
3B7
100
AcDbEntity
  8
_1
100
AcDbSpline
 62
7
  6
CONTINUOUS
 70
0
 71
3
 72
11
 73
7
 74
0
 42
0.0000001
 43
0.0000001
 44
0.0000000001
 40
0.0
 40
0.0
 40
0.0
 40
0.0
 40
0.2325165156
 40
0.4911355311
 40
0.757384806
 40
1.0
 40
1.0
 40
1.0
 40
1.0
 10
33.9360101378
 20
91.9591214396
 30
0.0
 10
33.7877383712
 20
91.8735172063
 30
0.0
 10
33.4290908178
 20
91.7707738871
 30
0.0
 10
32.8668600404
 20
91.7935500076
 30
0.0
 10
32.3157406126
 20
91.9301926669
 30
0.0
 10
31.9694019577
 20
92.0799297531
 30
0.0
 10
31.8146897942
 20
92.1692508416
 30
0.0
  0
SPLINE
  5
3B8
100
AcDbEntity
  8
_1
100
AcDbSpline
 62
7
  6
CONTINUOUS
 70
0
 71
3
 72
16
 73
12
 74
0
 42
0.0000001
 43
0.0000001
 44
0.0000000001
 40
0.0
 40
0.0
 40
0.0
 40
0.0
 40
0.0472714359
 40
0.0951675985
 40
0.1948973959
 40
0.3031274537
 40
0.4219866673
 40
0.5521040572
 40
0.6929038952
 40
0.8429098688
 40
1.0
 40
1.0
 40
1.0
 40
1.0
 10
50.4640742073
 20
79.0549929353
 30
0.0
 10
50.2248170424
 20
78.916858925
 30
0.0
 10
49.7225389237
 20
78.6727768659
 30
0.0
 10
48.6353647351
 20
78.3225708953
 30
0.0
 10
47.1303341497
 20
78.1635627876
 30
0.0
 10
45.2228014372
 20
78.4156902023
 30
0.0
 10
43.2347749074
 20
79.0878665363
 30
0.0
 10
41.2146682117
 20
80.1582051109
 30
0.0
 10
39.2113929617
 20
81.5972192228
 30
0.0
 10
37.2757106631
 20
83.3670495673
 30
0.0
 10
36.0838677955
 20
84.7138112345
 30
0.0
 10
35.5093743929
 20
85.4299395522
 30
0.0
  0
SPLINE
  5
3B9
100
AcDbEntity
  8
_1
100
AcDbSpline
 62
7
  6
CONTINUOUS
 70
0
 71
3
 72
9
 73
5
 74
0
 42
0.0000001
 43
0.0000001
 44
0.0000000001
 40
0.0
 40
0.0
 40
0.0
 40
0.0
 40
0.5220676047
 40
1.0
 40
1.0
 40
1.0
 40
1.0
 10
30.860103596
 20
93.6147917746
 30
0.0
 10
30.3794272443
 20
94.9061853854
 30
0.0
 10
29.6376233895
 20
97.4512944277
 30
0.0
 10
29.3397233252
 20
100.0931618617
 30
0.0
 10
29.3397233252
 20
101.3546213228
 30
0.0
  0
SPLINE
  5
3BA
100
AcDbEntity
  8
_1
100
AcDbSpline
 62
7
  6
CONTINUOUS
 70
0
 71
3
 72
11
 73
7
 74
0
 42
0.0000001
 43
0.0000001
 44
0.0000000001
 40
0.0
 40
0.0
 40
0.0
 40
0.0
 40
0.218761885
 40
0.4549521345
 40
0.7146107856
 40
1.0
 40
1.0
 40
1.0
 40
1.0
 10
33.0908973422
 20
109.3092197878
 30
0.0
 10
32.6493690736
 20
108.9232100244
 30
0.0
 10
31.8467112569
 20
107.9812972223
 30
0.0
 10
31.0046520791
 20
106.242547296
 30
0.0
 10
30.5011800044
 20
104.1967435579
 30
0.0
 10
30.400379081
 20
102.7320802023
 30
0.0
 10
30.400379081
 20
101.9669875536
 30
0.0
  0
SPLINE
  5
3BB
100
AcDbEntity
  8
_1
100
AcDbSpline
 62
7
  6
CONTINUOUS
 70
0
 71
3
 72
11
 73
7
 74
0
 42
0.0000001
 43
0.0000001
 44
0.0000000001
 40
0.0
 40
0.0
 40
0.0
 40
0.0
 40
0.2897016594
 40
0.5490895814
 40
0.7822189142
 40
1.0
 40
1.0
 40
1.0
 40
1.0
 10
25.4337338721
 20
123.4293208608
 30
0.0
 10
25.4337338721
 20
123.5686577671
 30
0.0
 10
25.4548592481
 20
123.8336483922
 30
0.0
 10
25.5621716581
 20
124.1977343086
 30
0.0
 10
25.742863281
 20
124.4931691841
 30
0.0
 10
25.9125880288
 20
124.6358447195
 30
0.0
 10
26.0032964632
 20
124.6882240853
 30
0.0
  0
SPLINE
  5
3BC
100
AcDbEntity
  8
_1
100
AcDbSpline
 62
7
  6
CONTINUOUS
 70
0
 71
3
 72
11
 73
7
 74
0
 42
0.0000001
 43
0.0000001
 44
0.0000000001
 40
0.0
 40
0.0
 40
0.0
 40
0.0
 40
0.2177807769
 40
0.4509257051
 40
0.710260782
 40
1.0
 40
1.0
 40
1.0
 40
1.0
 10
31.236250896
 20
82.9649165528
 30
0.0
 10
31.3847045094
 20
83.0505906928
 30
0.0
 10
31.6624195681
 20
83.2841184506
 30
0.0
 10
31.9580808653
 20
83.767513929
 30
0.0
 10
32.1337512626
 20
84.363277839
 30
0.0
 10
32.1682682085
 20
84.7968942773
 30
0.0
 10
32.1682682085
 20
85.0249299537
 30
0.0
  0
SPLINE
  5
3BD
100
AcDbEntity
  8
_1
100
AcDbSpline
 62
7
  6
CONTINUOUS
 70
0
 71
3
 72
11
 73
7
 74
0
 42
0.0000001
 43
0.0000001
 44
0.0000000001
 40
0.0
 40
0.0
 40
0.0
 40
0.0
 40
0.286235522
 40
0.5460979959
 40
0.7816525395
 40
1.0
 40
1.0
 40
1.0
 40
1.0
 10
25.4337338721
 20
87.0559939123
 30
0.0
 10
25.4337338721
 20
87.1800657607
 30
0.0
 10
25.4506704429
 20
87.4173736853
 30
0.0
 10
25.5350530695
 20
87.7477709868
 30
0.0
 10
25.6765388989
 20
88.0261773555
 30
0.0
 10
25.8111547677
 20
88.1739679052
 30
0.0
 10
25.8847720031
 20
88.2334505635
 30
0.0
  0
SPLINE
  5
3BE
100
AcDbEntity
  8
_1
100
AcDbSpline
 62
7
  6
CONTINUOUS
 70
0
 71
3
 72
11
 73
7
 74
0
 42
0.0000001
 43
0.0000001
 44
0.0000000001
 40
0.0
 40
0.0
 40
0.0
 40
0.0
 40
0.2897016594
 40
0.5490895814
 40
0.7822189142
 40
1.0
 40
1.0
 40
1.0
 40
1.0
 10
56.9338650189
 20
68.869796142
 30
0.0
 10
56.9338650189
 20
69.0091330484
 30
0.0
 10
56.9549903949
 20
69.2741236734
 30
0.0
 10
57.0623028049
 20
69.6382095898
 30
0.0
 10
57.2429944278
 20
69.9336444653
 30
0.0
 10
57.4127191755
 20
70.0763200008
 30
0.0
 10
57.50342761
 20
70.1286993665
 30
0.0
  0
SPLINE
  5
3BF
100
AcDbEntity
  8
_1
100
AcDbSpline
 62
7
  6
CONTINUOUS
 70
0
 71
3
 72
17
 73
13
 74
0
 42
0.0000001
 43
0.0000001
 44
0.0000000001
 40
0.0
 40
0.0
 40
0.0
 40
0.0
 40
0.0428585856
 40
0.0874878763
 40
0.1353198881
 40
0.1872854479
 40
0.3045461053
 40
0.4382134391
 40
0.5825572043
 40
0.7297173246
 40
0.8713061651
 40
1.0
 40
1.0
 40
1.0
 40
1.0
 10
40.5248224702
 20
98.7198717453
 30
0.0
 10
40.6357716598
 20
98.7839025906
 30
0.0
 10
40.8802983795
 20
98.8856030814
 30
0.0
 10
41.2839878034
 20
98.9446652534
 30
0.0
 10
41.717508057
 20
98.9128841544
 30
0.0
 10
42.3473745666
 20
98.7452272326
 30
0.0
 10
43.1526181603
 20
98.3050313705
 30
0.0
 10
44.0422396702
 20
97.5171273154
 30
0.0
 10
44.8286308724
 20
96.5105625041
 30
0.0
 10
45.4475119692
 20
95.366616881
 30
0.0
 10
45.8491922287
 20
94.1791187495
 30
0.0
 10
45.9567930342
 20
93.3703446019
 30
0.0
 10
45.9567930342
 20
92.9856909542
 30
0.0
  0
SPLINE
  5
3C0
100
AcDbEntity
  8
_1
100
AcDbSpline
 62
7
  6
CONTINUOUS
 70
0
 71
3
 72
11
 73
7
 74
0
 42
0.0000001
 43
0.0000001
 44
0.0000000001
 40
0.0
 40
0.0
 40
0.0
 40
0.0
 40
0.2177701422
 40
0.4509477659
 40
0.7101977596
 40
1.0
 40
1.0
 40
1.0
 40
1.0
 10
42.1387457564
 20
121.1957389306
 30
0.0
 10
42.1387457385
 20
120.929129833
 30
0.0
 10
42.237151065
 20
120.3733179971
 30
0.0
 10
42.658602539
 20
119.5992241006
 30
0.0
 10
43.324387784
 20
118.899076742
 30
0.0
 10
43.8817431034
 20
118.5154247022
 30
0.0
 10
44.1890069455
 20
118.3380298535
 30
0.0
  0
SPLINE
  5
3C1
100
AcDbEntity
  8
_1
100
AcDbSpline
 62
7
  6
CONTINUOUS
 70
0
 71
3
 72
14
 73
10
 74
0
 42
0.0000001
 43
0.0000001
 44
0.0000000001
 40
0.0
 40
0.0
 40
0.0
 40
0.0
 40
0.2892798616
 40
0.422541573
 40
0.5484929962
 40
0.6678937294
 40
0.781867036
 40
0.8919507086
 40
1.0
 40
1.0
 40
1.0
 40
1.0
 10
57.2705456926
 20
86.8620813361
 30
0.0
 10
57.2705456926
 20
85.8483360803
 30
0.0
 10
57.1521890593
 20
84.3603157004
 30
0.0
 10
56.6947505962
 20
82.490030359
 30
0.0
 10
56.2292676726
 20
81.2437919995
 30
0.0
 10
55.6361833772
 20
80.1284831778
 30
0.0
 10
54.9196684481
 20
79.1554913297
 30
0.0
 10
54.0866869663
 20
78.3356120201
 30
0.0
 10
53.4561928524
 20
77.8957367763
 30
0.0
 10
53.12828827
 20
77.7063935983
 30
0.0
  0
SPLINE
  5
3C2
100
AcDbEntity
  8
_1
100
AcDbSpline
 62
7
  6
CONTINUOUS
 70
0
 71
3
 72
17
 73
13
 74
0
 42
0.0000001
 43
0.0000001
 44
0.0000000001
 40
0.0
 40
0.0
 40
0.0
 40
0.0
 40
0.0428592926
 40
0.087485474
 40
0.1353198781
 40
0.1872819044
 40
0.3045421965
 40
0.4382074305
 40
0.582548911
 40
0.7297129633
 40
0.8713059682
 40
1.0
 40
1.0
 40
1.0
 40
1.0
 10
28.7532747693
 20
119.9250934864
 30
0.0
 10
28.6854812341
 20
119.8859462737
 30
0.0
 10
28.536018259
 20
119.8238839641
 30
0.0
 10
28.2893428923
 20
119.7876768118
 30
0.0
 10
28.0244211668
 20
119.807195606
 30
0.0
 10
27.6394961227
 20
119.9095729899
 30
0.0
 10
27.147429172
 20
120.178638189
 30
0.0
 10
26.6037733777
 20
120.6601017042
 30
0.0
 10
26.1231831961
 20
121.2752118428
 30
0.0
 10
25.7449646429
 20
121.9742915442
 30
0.0
 10
25.4994893909
 20
122.6999978518
 30
0.0
 10
25.4337338721
 20
123.1942551092
 30
0.0
 10
25.4337338721
 20
123.4293208608
 30
0.0
  0
SPLINE
  5
3C3
100
AcDbEntity
  8
_1
100
AcDbSpline
 62
7
  6
CONTINUOUS
 70
0
 71
3
 72
11
 73
7
 74
0
 42
0.0000001
 43
0.0000001
 44
0.0000000001
 40
0.0
 40
0.0
 40
0.0
 40
0.0
 40
0.2895416688
 40
0.549118971
 40
0.7822562702
 40
1.0
 40
1.0
 40
1.0
 40
1.0
 10
40.2999446727
 20
96.823256226
 30
0.0
 10
40.3657242422
 20
96.8612338515
 30
0.0
 10
40.4850924107
 20
96.9435422829
 30
0.0
 10
40.6278803402
 20
97.0934458781
 30
0.0
 10
40.7182203178
 20
97.2594050756
 30
0.0
 10
40.7391961733
 20
97.3784965506
 30
0.0
 10
40.7391961555
 20
97.4356173572
 30
0.0
  0
SPLINE
  5
3C4
100
AcDbEntity
  8
_1
100
AcDbSpline
 62
7
  6
CONTINUOUS
 70
0
 71
3
 72
11
 73
7
 74
0
 42
0.0000001
 43
0.0000001
 44
0.0000000001
 40
0.0
 40
0.0
 40
0.0
 40
0.0
 40
0.2372531816
 40
0.5000006935
 40
0.7627478297
 40
1.0
 40
1.0
 40
1.0
 40
1.0
 10
31.8146897942
 20
93.1490537422
 30
0.0
 10
31.9652820246
 20
93.0621112443
 30
0.0
 10
32.3154598939
 20
92.9352215942
 30
0.0
 10
32.8753519409
 20
92.8745577836
 30
0.0
 10
33.4352429499
 20
92.9352242694
 30
0.0
 10
33.7854191762
 20
93.062115628
 30
0.0
 10
33.9360101378
 20
93.1490588412
 30
0.0
  0
SPLINE
  5
3C5
100
AcDbEntity
  8
_1
100
AcDbSpline
 62
7
  6
CONTINUOUS
 70
0
 71
3
 72
17
 73
13
 74
0
 42
0.0000001
 43
0.0000001
 44
0.0000000001
 40
0.0
 40
0.0
 40
0.0
 40
0.0
 40
0.0428592926
 40
0.087485474
 40
0.1353198781
 40
0.1872819044
 40
0.3045421965
 40
0.4382074305
 40
0.582548911
 40
0.7297129633
 40
0.8713059682
 40
1.0
 40
1.0
 40
1.0
 40
1.0
 10
60.2534059161
 20
101.7388957161
 30
0.0
 10
60.1856123808
 20
101.6997485034
 30
0.0
 10
60.0361494058
 20
101.6376861937
 30
0.0
 10
59.789474039
 20
101.6014790415
 30
0.0
 10
59.5245523136
 20
101.6209978357
 30
0.0
 10
59.1396272694
 20
101.7233752196
 30
0.0
 10
58.6475603188
 20
101.9924404187
 30
0.0
 10
58.1039045245
 20
102.4739039339
 30
0.0
 10
57.6233143428
 20
103.0890140725
 30
0.0
 10
57.2450957896
 20
103.7880937739
 30
0.0
 10
56.9996205376
 20
104.5138000815
 30
0.0
 10
56.9338650189
 20
105.0080573389
 30
0.0
 10
56.9338650189
 20
105.2431230905
 30
0.0
  0
SPLINE
  5
3C6
100
AcDbEntity
  8
_1
100
AcDbSpline
 62
7
  6
CONTINUOUS
 70
0
 71
3
 72
17
 73
13
 74
0
 42
0.0000001
 43
0.0000001
 44
0.0000000001
 40
0.0
 40
0.0
 40
0.0
 40
0.0
 40
0.128692495
 40
0.2702767083
 40
0.4174328819
 40
0.5617777392
 40
0.6954482002
 40
0.8127106333
 40
0.8646767596
 40
0.9125094179
 40
0.9571395794
 40
1.0
 40
1.0
 40
1.0
 40
1.0
 10
32.1682682085
 20
85.0249299537
 30
0.0
 10
32.1682682085
 20
85.4095795585
 30
0.0
 10
32.060671287
 20
86.2183357988
 30
0.0
 10
31.6590077955
 20
87.4058076076
 30
0.0
 10
31.040149544
 20
88.5497395265
 30
0.0
 10
30.2537698907
 20
89.556314407
 30
0.0
 10
29.3641401234
 20
90.3442371904
 30
0.0
 10
28.5588861337
 20
90.7844460723
 30
0.0
 10
27.9290149546
 20
90.9521190086
 30
0.0
 10
27.4954879231
 20
90.9839056061
 30
0.0
 10
27.0917898218
 20
90.9248385956
 30
0.0
 10
26.8472523141
 20
90.8231430488
 30
0.0
 10
26.7362979947
 20
90.7591101453
 30
0.0
  0
SPLINE
  5
3C7
100
AcDbEntity
  8
_1
100
AcDbSpline
 62
7
  6
CONTINUOUS
 70
0
 71
3
 72
11
 73
7
 74
0
 42
0.0000001
 43
0.0000001
 44
0.0000000001
 40
0.0
 40
0.0
 40
0.0
 40
0.0
 40
0.2177434119
 40
0.4508805377
 40
0.710457812
 40
1.0
 40
1.0
 40
1.0
 40
1.0
 10
31.3754294795
 20
93.7614199736
 30
0.0
 10
31.3754294972
 20
93.7042985136
 30
0.0
 10
31.3964057931
 20
93.5852056132
 30
0.0
 10
31.4867478062
 20
93.419244858
 30
0.0
 10
31.6295385248
 20
93.2693401055
 30
0.0
 10
31.7489089845
 20
93.1870314512
 30
0.0
 10
31.8146897942
 20
93.1490537422
 30
0.0
  0
SPLINE
  5
3C8
100
AcDbEntity
  8
_1
100
AcDbSpline
 62
7
  6
CONTINUOUS
 70
0
 71
3
 72
11
 73
7
 74
0
 42
0.0000001
 43
0.0000001
 44
0.0000000001
 40
0.0
 40
0.0
 40
0.0
 40
0.0
 40
0.2383428727
 40
0.4814097738
 40
0.7340248745
 40
1.0
 40
1.0
 40
1.0
 40
1.0
 10
40.7392544204
 20
96.3522849685
 30
0.0
 10
40.7392688826
 20
96.2823157381
 30
0.0
 10
40.719836169
 20
96.1402628179
 30
0.0
 10
40.6331978478
 20
95.9401503527
 30
0.0
 10
40.4912775426
 20
95.7641019321
 30
0.0
 10
40.3675649956
 20
95.672359203
 30
0.0
 10
40.2999446729
 20
95.6333188246
 30
0.0
  0
SPLINE
  5
3C9
100
AcDbEntity
  8
_1
100
AcDbSpline
 62
7
  6
CONTINUOUS
 70
0
 71
3
 72
11
 73
7
 74
0
 42
0.0000001
 43
0.0000001
 44
0.0000000001
 40
0.0
 40
0.0
 40
0.0
 40
0.0
 40
0.2898022491
 40
0.549052252
 40
0.7822298681
 40
1.0
 40
1.0
 40
1.0
 40
1.0
 10
44.1890069455
 20
118.0930791283
 30
0.0
 10
43.8817430944
 20
118.2704739822
 30
0.0
 10
43.3243877632
 20
118.6541260432
 30
0.0
 10
42.6586025114
 20
119.35427341
 30
0.0
 10
42.2371510529
 20
120.1283673097
 30
0.0
 10
42.1387457627
 20
120.6841791207
 30
0.0
 10
42.1387457564
 20
120.9507882054
 30
0.0
  0
SPLINE
  5
3CA
100
AcDbEntity
  8
_1
100
AcDbSpline
 62
7
  6
CONTINUOUS
 70
0
 71
3
 72
15
 73
11
 74
0
 42
0.0000001
 43
0.0000001
 44
0.0000000001
 40
0.0
 40
0.0
 40
0.0
 40
0.0
 40
0.1141545727
 40
0.2373261359
 40
0.366975604
 40
0.4999994966
 40
0.6330234588
 40
0.7626731321
 40
0.8858450149
 40
1.0
 40
1.0
 40
1.0
 40
1.0
 10
54.088501882
 20
118.0931029238
 30
0.0
 10
53.7496529597
 20
117.8974695751
 30
0.0
 10
53.0086985655
 20
117.5524352775
 30
0.0
 10
51.8020970104
 20
117.1857006483
 30
0.0
 10
50.4957618603
 20
116.9599613848
 30
0.0
 10
49.1387625854
 20
116.8837976705
 30
0.0
 10
47.7817622499
 20
116.9599549777
 30
0.0
 10
46.4754239831
 20
117.185688068
 30
0.0
 10
45.2688173472
 20
117.552416944
 30
0.0
 10
44.5278585027
 20
117.8974475163
 30
0.0
 10
44.1890069455
 20
118.0930791283
 30
0.0
  0
SPLINE
  5
3CB
100
AcDbEntity
  8
_1
100
AcDbSpline
 62
7
  6
CONTINUOUS
 70
0
 71
3
 72
17
 73
13
 74
0
 42
0.0000001
 43
0.0000001
 44
0.0000000001
 40
0.0
 40
0.0
 40
0.0
 40
0.0
 40
0.0428592926
 40
0.087485474
 40
0.1353198781
 40
0.1872819044
 40
0.3045421965
 40
0.4382074305
 40
0.582548911
 40
0.7297129633
 40
0.8713059682
 40
1.0
 40
1.0
 40
1.0
 40
1.0
 10
60.2534059161
 20
65.3655687676
 30
0.0
 10
60.1856123808
 20
65.3264215549
 30
0.0
 10
60.0361494058
 20
65.2643592453
 30
0.0
 10
59.789474039
 20
65.2281520931
 30
0.0
 10
59.5245523136
 20
65.2476708872
 30
0.0
 10
59.1396272694
 20
65.3500482711
 30
0.0
 10
58.6475603188
 20
65.6191134702
 30
0.0
 10
58.1039045245
 20
66.1005769854
 30
0.0
 10
57.6233143428
 20
66.715687124
 30
0.0
 10
57.2450957896
 20
67.4147668254
 30
0.0
 10
56.9996205376
 20
68.140473133
 30
0.0
 10
56.9338650189
 20
68.6347303904
 30
0.0
 10
56.9338650189
 20
68.869796142
 30
0.0
  0
SPLINE
  5
3CC
100
AcDbEntity
  8
_1
100
AcDbSpline
 62
7
  6
CONTINUOUS
 70
0
 71
3
 72
9
 73
5
 74
0
 42
0.0000001
 43
0.0000001
 44
0.0000000001
 40
0.0
 40
0.0
 40
0.0
 40
0.0
 40
0.4783058037
 40
1.0
 40
1.0
 40
1.0
 40
1.0
 10
30.400379081
 20
101.9669875536
 30
0.0
 10
30.400379081
 20
100.7456092973
 30
0.0
 10
30.6796762583
 20
98.1897003352
 30
0.0
 10
31.3786402534
 20
95.7225230708
 30
0.0
 10
31.8317326095
 20
94.4697695046
 30
0.0
  0
SPLINE
  5
3CD
100
AcDbEntity
  8
_1
100
AcDbSpline
 62
7
  6
CONTINUOUS
 70
0
 71
3
 72
15
 73
11
 74
0
 42
0.0000001
 43
0.0000001
 44
0.0000000001
 40
0.0
 40
0.0
 40
0.0
 40
0.0
 40
0.1537326278
 40
0.3013441487
 40
0.4410551157
 40
0.5715332669
 40
0.6920567594
 40
0.8027101443
 40
0.9045978654
 40
1.0
 40
1.0
 40
1.0
 40
1.0
 10
36.5704805507
 20
86.0417449177
 30
0.0
 10
37.0948820979
 20
85.3880904165
 30
0.0
 10
38.1802123095
 20
84.1513965228
 30
0.0
 10
39.9342293691
 20
82.5014787957
 30
0.0
 10
41.7514947034
 20
81.1208900415
 30
0.0
 10
43.593274017
 20
80.0398932855
 30
0.0
 10
45.4212424211
 20
79.2824140567
 30
0.0
 10
47.1987045224
 20
78.867157701
 30
0.0
 10
48.8880476364
 20
78.8076808845
 30
0.0
 10
49.9555830977
 20
79.0175876792
 30
0.0
 10
50.4486385985
 20
79.1829467894
 30
0.0
  0
SPLINE
  5
3CE
100
AcDbEntity
  8
_1
100
AcDbSpline
 62
7
  6
CONTINUOUS
 70
0
 71
3
 72
15
 73
11
 74
0
 42
0.0000001
 43
0.0000001
 44
0.0000000001
 40
0.0
 40
0.0
 40
0.0
 40
0.0
 40
0.1141549974
 40
0.2373268943
 40
0.3669765742
 40
0.5000005394
 40
0.633024429
 40
0.7626738905
 40
0.8858454396
 40
1.0
 40
1.0
 40
1.0
 40
1.0
 10
44.1890069455
 20
118.3380298535
 30
0.0
 10
44.5278585392
 20
118.1423982204
 30
0.0
 10
45.2688174731
 20
117.7973676236
 30
0.0
 10
46.4754242225
 20
117.4306387301
 30
0.0
 10
47.7817625777
 20
117.2049056694
 30
0.0
 10
49.1387629372
 20
117.1287483957
 30
0.0
 10
50.495762188
 20
117.2049121434
 30
0.0
 10
51.8020972497
 20
117.4306514364
 30
0.0
 10
53.0086986913
 20
117.7973860482
 30
0.0
 10
53.7496529962
 20
118.1424203213
 30
0.0
 10
54.088501882
 20
118.3380536489
 30
0.0
  0
SPLINE
  5
3CF
100
AcDbEntity
  8
_1
100
AcDbSpline
 62
7
  6
CONTINUOUS
 70
0
 71
3
 72
11
 73
7
 74
0
 42
0.0000001
 43
0.0000001
 44
0.0000000001
 40
0.0
 40
0.0
 40
0.0
 40
0.0
 40
0.2897455618
 40
0.549077671
 40
0.782221071
 40
1.0
 40
1.0
 40
1.0
 40
1.0
 10
45.9567930342
 20
92.9856909542
 30
0.0
 10
45.9567930342
 20
92.7576501208
 30
0.0
 10
45.9222765804
 20
92.324030302
 30
0.0
 10
45.7466024606
 20
91.7282660129
 30
0.0
 10
45.4509444824
 20
91.2448730855
 30
0.0
 10
45.1732280098
 20
91.0113513342
 30
0.0
 10
45.0247760719
 20
90.9256769538
 30
0.0
  0
SPLINE
  5
3D0
100
AcDbEntity
  8
_1
100
AcDbSpline
 62
7
  6
CONTINUOUS
 70
0
 71
3
 72
15
 73
11
 74
0
 42
0.0000001
 43
0.0000001
 44
0.0000000001
 40
0.0
 40
0.0
 40
0.0
 40
0.0
 40
0.0893514884
 40
0.1932124608
 40
0.3138094799
 40
0.4484333583
 40
0.591431232
 40
0.7357275443
 40
0.8740145015
 40
1.0
 40
1.0
 40
1.0
 40
1.0
 10
28.5588716182
 20
83.4675800284
 30
0.0
 10
28.4088742987
 20
83.4218406536
 30
0.0
 10
28.0582078543
 20
83.4050130588
 30
0.0
 10
27.5278512647
 20
83.5800996644
 30
0.0
 10
26.9942287223
 20
83.9251297546
 30
0.0
 10
26.4912615266
 20
84.415835895
 30
0.0
 10
26.0532026669
 20
85.0167729268
 30
0.0
 10
25.7118486277
 20
85.6847551469
 30
0.0
 10
25.4919746317
 20
86.3705394255
 30
0.0
 10
25.4337338721
 20
86.8348834004
 30
0.0
 10
25.4337338721
 20
87.0559939123
 30
0.0
  0
SPLINE
  5
3D1
100
AcDbEntity
  8
_1
100
AcDbSpline
 62
7
  6
CONTINUOUS
 70
0
 71
3
 72
23
 73
19
 74
0
 42
0.0000001
 43
0.0000001
 44
0.0000000001
 40
0.0
 40
0.0
 40
0.0
 40
0.0
 40
0.0623910296
 40
0.1287444457
 40
0.1983465229
 40
0.2703346905
 40
0.3437232526
 40
0.4174677275
 40
0.4905044601
 40
0.5618029113
 40
0.6304113459
 40
0.6955092247
 40
0.75646627
 40
0.8129123029
 40
0.8648210153
 40
0.9126035579
 40
0.9571854098
 40
1.0
 40
1.0
 40
1.0
 40
1.0
 10
55.8563380182
 20
86.0455930283
 30
0.0
 10
55.8563380182
 20
86.8752863816
 30
0.0
 10
55.7439039287
 20
88.5885058464
 30
0.0
 10
55.281409684
 20
91.1897769265
 30
0.0
 10
54.5293327624
 20
93.8552461357
 30
0.0
 10
53.5039900221
 20
96.5278795088
 30
0.0
 10
52.2270256139
 20
99.1510641204
 30
0.0
 10
50.7257758146
 20
101.6688374808
 30
0.0
 10
49.0322112867
 20
104.0274802315
 30
0.0
 10
47.1824405217
 20
106.1767151165
 30
0.0
 10
45.2157009351
 20
108.070846618
 30
0.0
 10
43.173385507
 20
109.6697217083
 30
0.0
 10
41.097904362
 20
110.9394670504
 30
0.0
 10
39.0314137271
 20
111.8527437658
 30
0.0
 10
37.0150465356
 20
112.388461014
 30
0.0
 10
35.0883860999
 20
112.5302848535
 30
0.0
 10
33.2942127961
 20
112.2673219226
 30
0.0
 10
32.2072692782
 20
111.8156218018
 30
0.0
 10
31.7142063061
 20
111.5309111439
 30
0.0
  0
SPLINE
  5
3D2
100
AcDbEntity
  8
_1
100
AcDbSpline
 62
7
  6
CONTINUOUS
 70
0
 71
3
 72
14
 73
10
 74
0
 42
0.0000001
 43
0.0000001
 44
0.0000000001
 40
0.0
 40
0.0
 40
0.0
 40
0.0
 40
0.2892795929
 40
0.4225457951
 40
0.548494157
 40
0.6678935371
 40
0.7818683521
 40
0.8919519086
 40
1.0
 40
1.0
 40
1.0
 40
1.0
 10
29.3397233252
 20
101.3546213228
 30
0.0
 10
29.3397233252
 20
102.24164718
 30
0.0
 10
29.4432775883
 20
103.5436799954
 30
0.0
 10
29.8435566329
 20
105.1801757821
 30
0.0
 10
30.2508309939
 20
106.2706447836
 30
0.0
 10
30.7698261977
 20
107.2465041195
 30
0.0
 10
31.3967450681
 20
108.0978908061
 30
0.0
 10
32.1255926677
 20
108.8153008868
 30
0.0
 10
32.6772886493
 20
109.2001689662
 30
0.0
 10
32.9642128232
 20
109.3658233022
 30
0.0
  0
ELLIPSE
  5
3D3
100
AcDbEntity
  8
_1
100
AcDbEllipse
 62
7
  6
CONTINUOUS
 10
145.4815447793
 20
207.8028055076
 30
0.0
 11
-6.9732295899
 21
12.1706873307
 31
0.0
 40
0.5773483695
 41
4.2785797136
 42
6.2393851432
  0
ELLIPSE
  5
3D4
100
AcDbEntity
  8
_1
100
AcDbEllipse
 62
7
  6
CONTINUOUS
 10
16.1439485213
 20
146.1964017655
 30
0.0
 11
113.9080210456
 21
65.2639215266
 31
0.0
 40
0.0753349731
 41
5.8994267763
 42
6.7545441822
  0
ELLIPSE
  5
3D5
100
AcDbEntity
  8
_1
100
AcDbEllipse
 62
7
  6
CONTINUOUS
 10
411.9943168031
 20
334.7488282475
 30
0.0
 11
273.5438290272
 21
140.9202579684
 31
0.0
 40
0.0331551908
 41
2.7767462179
 42
2.8170317133
  0
ELLIPSE
  5
3D6
100
AcDbEntity
  8
_1
100
AcDbEllipse
 62
7
  6
CONTINUOUS
 10
170.8713130955
 20
179.1028602002
 30
0.0
 11
2.3730687665
 21
4.4026444242
 31
0.0
 40
0.556862072
 41
-2.372483465
 42
-0.8016871382
  0
ELLIPSE
  5
3D7
100
AcDbEntity
  8
_1
100
AcDbEllipse
 62
7
  6
CONTINUOUS
 10
164.9270739968
 20
195.0860843519
 30
0.0
 11
-6.9732295899
 21
12.1706873307
 31
0.0
 40
0.5773483695
 41
4.2636328641
 42
6.2393851482
  0
ELLIPSE
  5
3D8
100
AcDbEntity
  8
_1
100
AcDbEllipse
 62
7
  6
CONTINUOUS
 10
37.0036854131
 20
134.1532995071
 30
0.0
 11
113.9080210456
 21
65.2639215266
 31
0.0
 40
0.0753349731
 41
-0.3837585309
 42
0.471358875
  0
ELLIPSE
  5
3D9
100
AcDbEntity
  8
_1
100
AcDbEllipse
 62
7
  6
CONTINUOUS
 10
432.8540536949
 20
322.7057259892
 30
0.0
 11
273.5438290272
 21
140.9202579684
 31
0.0
 40
0.0331551908
 41
2.7916930674
 42
3.1245139142
  0
ELLIPSE
  5
3DA
100
AcDbEntity
  8
_1
100
AcDbEllipse
 62
7
  6
CONTINUOUS
 10
148.8476024893
 20
157.975307969
 30
0.0
 11
2.0
 21
-0.0000000011
 31
0.0
 40
0.5773859831
 41
-2.3561522499
 42
-1.1143166368
  0
ELLIPSE
  5
3DB
100
AcDbEntity
  8
_1
100
AcDbEllipse
 62
7
  6
CONTINUOUS
 10
113.1257452995
 20
178.5988652663
 30
0.0
 11
2.0001523106
 21
0.0000000011
 31
0.0
 40
0.5772980511
 41
8.9875740773
 42
10.2101422107
  0
ENDSEC
  0
SECTION
  2
OBJECTS
  0
DICTIONARY
  5
C
100
AcDbDictionary
280
0
281
1
  3
ACAD_GROUP
350
D
  3
ACAD_MLINESTYLE
350
17
  3
ACAD_LAYOUT
350
1A
  3
ACAD_PLOTSETTINGS
350
19
  3
ACAD_PLOTSTYLENAME
350
E
  0
DICTIONARY
  5
D
102
{ACAD_REACTORS
330
C
102
}
100
AcDbDictionary
280
0
281
1
  0
ACDBDICTIONARYWDFLT
  5
E
102
{ACAD_REACTORS
330
C
102
}
100
AcDbDictionary
281
1
  3
Normal
350
F
100
AcDbDictionaryWithDefault
340
F
  0
DICTIONARY
  5
17
102
{ACAD_REACTORS
330
C
102
}
100
AcDbDictionary
280
0
281
1
  3
Standard
350
18
  0
DICTIONARY
  5
19
102
{ACAD_REACTORS
330
C
102
}
100
AcDbDictionary
281
1
  0
DICTIONARY
  5
1A
102
{ACAD_REACTORS
330
C
102
}
100
AcDbDictionary
281
1
  3
Model
350
3DC
  3
Layout1
350
3DD
  0
ACDBPLACEHOLDER
  5
F
102
{ACAD_REACTORS
330
E
102
}
  0
MLINESTYLE
  5
18
102
{ACAD_REACTORS
330
17
102
}
100
AcDbMlineStyle
  2
STANDARD
 70
0
  3

 62
256
 51
90.0
 52
90.0
 71
2
 49
0.5
 62
256
  6
BYLAYER
 49
-0.5
 62
256
  6
BYLAYER
  0
LAYOUT
  5
3DC
102
{ACAD_REACTORS
330
1A
102
}
100
AcDbPlotSettings
  1

  2
none_device
  4

  6

 40
0.0
 41
0.0
 42
0.0
 43
0.0
 44
210.0
 45
297.0
 46
0.0
 47
0.0
 48
0.0
 49
0.0
140
0.0
141
0.0
142
1.0
143
1.0
 70
1024
 72
1
 73
0
 74
0
  7

 75
0
147
1.0
148
0.0
149
0.0
100
AcDbLayout
  1
Model
 70
0
 71
0
 10
0.0
 20
0.0
 11
210.0
 21
297.0
 12
0.0
 22
0.0
 32
0.0
 14
0.0
 24
0.0
 34
0.0
 15
0.0
 25
0.0
 35
0.0
146
0.0
 13
0.0
 23
0.0
 33
0.0
 16
1.0
 26
0.0
 36
0.0
 17
0.0
 27
1.0
 37
0.0
 76
0
330
211
345
0
346
0
  0
LAYOUT
  5
3DD
102
{ACAD_REACTORS
330
1A
102
}
100
AcDbPlotSettings
  1

  2
none_device
  4

  6

 40
0.0
 41
0.0
 42
0.0
 43
0.0
 44
210.0
 45
297.0
 46
0.0
 47
0.0
 48
0.0
 49
0.0
140
0.0
141
0.0
142
1.0
143
1.0
 70
0
 72
1
 73
0
 74
0
  7

 75
0
147
1.0
148
0.0
149
0.0
100
AcDbLayout
  1
Layout1
 70
0
 71
1
 10
0.0
 20
0.0
 11
210.0
 21
297.0
 12
0.0
 22
0.0
 32
0.0
 14
0.0
 24
0.0
 34
0.0
 15
0.0
 25
0.0
 35
0.0
146
0.0
 13
0.0
 23
0.0
 33
0.0
 16
1.0
 26
0.0
 36
0.0
 17
0.0
 27
1.0
 37
0.0
 76
0
330
212
345
0
346
0
  0
ENDSEC
  0
EOF
