999
DXF file: C:\Users\sesa63760\Dev\_Creo\CAD\MCADPP0003073_3D-CAD\drw0001_1.dxf
999
Pro/ENGINEER 2019471 by Parametric Technology Corporation
  0
SECTION
  2
HEADER
  9
$ACADVER
  1
AC1024
  9
$DWGCODEPAGE
  3
ANSI_1252
  9
$EXTMAX
 10
198.7436588169
 20
281.0803174697
 30
0.0
  9
$EXTMIN
 10
0.0
 20
0.0
 30
0.0
  9
$LIMMIN
 10
0.0
 20
0.0
  9
$LIMMAX
 10
198.7436588169
 20
281.0803174697
  9
$VIEWCTR
 10
99.3718294085
 20
140.5401587348
  9
$VIEWSIZE
 40
281.0803174697
  9
$CLAYER
  8
0
  9
$LTSCALE
 40
18.3222725462
  9
$CELTYPE
  6
BYLAYER
  9
$DIMSCALE
 40
1.0
  9
$DIMASZ
 40
2.3659959383
  9
$DIMEXO
 40
1.0
  9
$DIMDLI
 40
12.6590246683
  9
$DIMEXE
 40
1.0
  9
$DIMCEN
 40
2.998190053
  9
$DIMLFAC
 40
1.0
  9
$DIMBLK
  1
_FILLED
  9
$DIMALT
 70
0
  9
$DIMALTF
 40
0.0393700787
  9
$DIMTXT
 40
3.3123943136
  9
$DIMTOL
 70
1
  9
$DIMLIM
 70
0
  9
$DIMTFAC
 40
1.0
  9
$DIMTP
 40
0.01
  9
$DIMTM
 40
0.01
  9
$DIMGAP
 40
0.625
  9
$DIMDSEP
 70
46
  9
$AUNITS
 70
0
  9
$PDMODE
 70
3
  9
$PDSIZE
 40
0.3125
  9
$HANDSEED
  5
247
  9
$TILEMODE
 70
1
  9
$MEASUREMENT
 70
1
  9
$INSUNITS
 70
4
  0
ENDSEC
  0
SECTION
  2
CLASSES
  0
CLASS
  1
ACDBDICTIONARYWDFLT
  2
AcDbDictionaryWithDefault
  3
AutoCAD 2000
 90
0
 91
1
280
0
281
0
  0
CLASS
  1
ACDBPLACEHOLDER
  2
AcDbPlaceHolder
  3
AutoCAD 2000
 90
0
 91
1
280
0
281
0
  0
CLASS
  1
LAYOUT
  2
AcDbLayout
  3
AutoCAD 2000
 90
0
 91
0
280
0
281
0
  0
ENDSEC
  0
SECTION
  2
TABLES
  0
TABLE
  2
VPORT
  5
8
100
AcDbSymbolTable
 70
2
  0
VPORT
  5
1F4
100
AcDbSymbolTableRecord
100
AcDbViewportTableRecord
  2
*ACTIVE
 70
0
 10
0.0
 20
0.0
 11
1.0
 21
1.0
 12
99.3718294085
 22
140.5401587348
 13
0.0
 23
0.0
 14
1.0
 24
1.0
 15
0.0
 25
0.0
 16
0.0
 26
0.0
 36
1.0
 17
0.0
 27
0.0
 37
0.0
 40
281.0803174697
 41
0.7070707071
 42
50.0
 43
0.0
 44
0.0
 50
0.0
 51
0.0
 71
0
 72
100
 73
1
 74
1
 75
0
 76
0
 77
0
 78
0
  0
ENDTAB
  0
TABLE
  2
LTYPE
  5
5
100
AcDbSymbolTable
 70
6
  0
LTYPE
  5
14
100
AcDbSymbolTableRecord
100
AcDbLinetypeTableRecord
  2
BYBLOCK
 70
0
  3

 72
65
 73
0
 40
0.0
  0
LTYPE
  5
15
100
AcDbSymbolTableRecord
100
AcDbLinetypeTableRecord
  2
BYLAYER
 70
0
  3

 72
65
 73
0
 40
0.0
  0
LTYPE
  5
16
100
AcDbSymbolTableRecord
100
AcDbLinetypeTableRecord
  2
CONTINUOUS
 70
64
  3
Solid line
 72
65
 73
0
 40
0.0
  0
LTYPE
  5
1F5
100
AcDbSymbolTableRecord
100
AcDbLinetypeTableRecord
  2
CENTER
 70
64
  3
____ _ ____ _ ____ _ ____ _ ____ _ ____ _ ____
 72
65
 73
4
 40
0.6
 49
0.375
 74
0
 49
-0.075
 74
0
 49
0.075
 74
0
 49
-0.075
 74
0
  0
LTYPE
  5
1F6
100
AcDbSymbolTableRecord
100
AcDbLinetypeTableRecord
  2
HIDDEN
 70
64
  3
- - - - - - - - - - - - - - - - - - - -
 72
65
 73
2
 40
0.2
 49
0.1
 74
0
 49
-0.1
 74
0
  0
LTYPE
  5
1F7
100
AcDbSymbolTableRecord
100
AcDbLinetypeTableRecord
  2
PHANTOM
 70
64
  3
_____ _ _ _____ _ _ _____ _ _ _____
 72
65
 73
6
 40
0.8
 49
0.45
 74
0
 49
-0.05
 74
0
 49
0.1
 74
0
 49
-0.05
 74
0
 49
0.1
 74
0
 49
-0.05
 74
0
  0
LTYPE
  5
1F8
100
AcDbSymbolTableRecord
100
AcDbLinetypeTableRecord
  2
DOT
 70
64
  3
. . . . . . . . . . . . . . . . . . . .
 72
65
 73
2
 40
0.2
 49
0.1
 74
0
 49
-0.1
 74
0
  0
LTYPE
  5
1F9
100
AcDbSymbolTableRecord
100
AcDbLinetypeTableRecord
  2
DASHED
 70
64
  3
- - - - - - - - - - - - - - - - - - - -
 72
65
 73
2
 40
0.2
 49
0.1
 74
0
 49
-0.1
 74
0
  0
ENDTAB
  0
TABLE
  2
LAYER
  5
2
100
AcDbSymbolTable
 70
36
  0
LAYER
  5
10
100
AcDbSymbolTableRecord
100
AcDbLayerTableRecord
  2
0
 70
0
 62
7
  6
CONTINUOUS
370
-3
390
F
  0
LAYER
  5
1FA
100
AcDbSymbolTableRecord
100
AcDbLayerTableRecord
  2
DEFAULT_1
 70
0
 62
7
  6
CENTER
370
-3
390
F
  0
LAYER
  5
1FB
100
AcDbSymbolTableRecord
100
AcDbLayerTableRecord
  2
DEFAULT_2
 70
0
 62
8
  6
HIDDEN
370
-3
390
F
  0
LAYER
  5
1FC
100
AcDbSymbolTableRecord
100
AcDbLayerTableRecord
  2
DEFAULT_3
 70
0
 62
7
  6
PHANTOM
370
-3
390
F
  0
LAYER
  5
1FD
100
AcDbSymbolTableRecord
100
AcDbLayerTableRecord
  2
00_COMPONENTS
 70
0
 62
7
  6
CONTINUOUS
370
-3
390
F
  0
LAYER
  5
1FE
100
AcDbSymbolTableRecord
100
AcDbLayerTableRecord
  2
01_1_DEFAULT_DATUMS
 70
0
 62
7
  6
CONTINUOUS
370
-3
390
F
  0
LAYER
  5
1FF
100
AcDbSymbolTableRecord
100
AcDbLayerTableRecord
  2
01_PLANES
 70
0
 62
7
  6
CONTINUOUS
370
-3
390
F
  0
LAYER
  5
200
100
AcDbSymbolTableRecord
100
AcDbLayerTableRecord
  2
02_COORD_SYS
 70
0
 62
7
  6
CONTINUOUS
370
-3
390
F
  0
LAYER
  5
201
100
AcDbSymbolTableRecord
100
AcDbLayerTableRecord
  2
03_AXES
 70
0
 62
7
  6
CONTINUOUS
370
-3
390
F
  0
LAYER
  5
202
100
AcDbSymbolTableRecord
100
AcDbLayerTableRecord
  2
04_POINTS
 70
0
 62
7
  6
CONTINUOUS
370
-3
390
F
  0
LAYER
  5
203
100
AcDbSymbolTableRecord
100
AcDbLayerTableRecord
  2
05_CURVES
 70
0
 62
7
  6
CONTINUOUS
370
-3
390
F
  0
LAYER
  5
204
100
AcDbSymbolTableRecord
100
AcDbLayerTableRecord
  2
06_SURFS
 70
0
 62
7
  6
CONTINUOUS
370
-3
390
F
  0
LAYER
  5
205
100
AcDbSymbolTableRecord
100
AcDbLayerTableRecord
  2
07_COSMETICS
 70
0
 62
7
  6
CONTINUOUS
370
-3
390
F
  0
LAYER
  5
206
100
AcDbSymbolTableRecord
100
AcDbLayerTableRecord
  2
10_NOTES
 70
0
 62
7
  6
CONTINUOUS
370
-3
390
F
  0
LAYER
  5
207
100
AcDbSymbolTableRecord
100
AcDbLayerTableRecord
  2
11_NOTES_PUB
 70
0
 62
7
  6
CONTINUOUS
370
-3
390
F
  0
LAYER
  5
208
100
AcDbSymbolTableRecord
100
AcDbLayerTableRecord
  2
13_REF_GTOL
 70
0
 62
7
  6
CONTINUOUS
370
-3
390
F
  0
LAYER
  5
209
100
AcDbSymbolTableRecord
100
AcDbLayerTableRecord
  2
16_MISC
 70
0
 62
7
  6
CONTINUOUS
370
-3
390
F
  0
LAYER
  5
20A
100
AcDbSymbolTableRecord
100
AcDbLayerTableRecord
  2
17_NO_PRINT
 70
0
 62
7
  6
CONTINUOUS
370
-3
390
F
  0
LAYER
  5
20B
100
AcDbSymbolTableRecord
100
AcDbLayerTableRecord
  2
18_DATUM_CAMS_JOINTS
 70
0
 62
7
  6
CONTINUOUS
370
-3
390
F
  0
LAYER
  5
20C
100
AcDbSymbolTableRecord
100
AcDbLayerTableRecord
  2
19_DATUM_FUNCTIONAL
 70
0
 62
7
  6
CONTINUOUS
370
-3
390
F
  0
LAYER
  5
20D
100
AcDbSymbolTableRecord
100
AcDbLayerTableRecord
  2
20_DATUM_KINEMATIC_SCHEME
 70
0
 62
7
  6
CONTINUOUS
370
-3
390
F
  0
LAYER
  5
20E
100
AcDbSymbolTableRecord
100
AcDbLayerTableRecord
  2
SHELL9
 70
0
 62
7
  6
CONTINUOUS
370
-3
390
F
  0
ENDTAB
  0
TABLE
  2
STYLE
  5
3
100
AcDbSymbolTable
 70
1
  0
STYLE
  5
11
100
AcDbSymbolTableRecord
100
AcDbTextStyleTableRecord
  2
STANDARD
 70
0
 40
0.0
 41
0.8
 50
0.0
 71
0
 42
0.2
  3
txt
  4

  0
STYLE
  5
20F
100
AcDbSymbolTableRecord
100
AcDbTextStyleTableRecord
  2
TEXTSTYLE_1
 70
0
 40
0.0
 41
0.8
 50
0.0
 71
0
 42
0.2
  3
gdt
  4

  0
ENDTAB
  0
TABLE
  2
VIEW
  5
6
100
AcDbSymbolTable
 70
0
  0
ENDTAB
  0
TABLE
  2
UCS
  5
7
100
AcDbSymbolTable
 70
0
  0
ENDTAB
  0
TABLE
  2
APPID
  5
9
100
AcDbSymbolTable
 70
1
  0
APPID
  5
210
100
AcDbSymbolTableRecord
100
AcDbRegAppTableRecord
  2
ACAD
 70
0
  0
ENDTAB
  0
TABLE
  2
BLOCK_RECORD
  5
1
100
AcDbSymbolTable
 70
0
  0
BLOCK_RECORD
  5
211
100
AcDbSymbolTableRecord
100
AcDbBlockTableRecord
  2
*Model_Space
  0
BLOCK_RECORD
  5
212
100
AcDbSymbolTableRecord
100
AcDbBlockTableRecord
  2
*Paper_Space
  0
BLOCK_RECORD
  5
213
100
AcDbSymbolTableRecord
100
AcDbBlockTableRecord
  2
_FILLED
  0
ENDTAB
  0
TABLE
  2
DIMSTYLE
  5
A
100
AcDbSymbolTable
 70
1
100
AcDbDimStyleTable
 71
0
  0
DIMSTYLE
105
214
100
AcDbSymbolTableRecord
100
AcDbDimStyleTableRecord
  2
STANDARD
 70
0
  3

  4

 40
1.0
 41
2.3659959383
 42
1.0
 43
0.38
 44
1.0
 45
0.0
 46
0.0
 47
0.01
 48
0.01
140
3.3123943136
141
0.09
142
0.0
143
25.4
144
1.0
145
0.0
146
1.0
147
0.625
 71
1
 72
0
 73
0
 74
0
 75
0
 76
0
 77
1
 78
8
 79
2
170
0
171
1
172
0
173
0
174
0
175
0
176
0
177
0
178
0
270
2
179
2
271
2
272
2
273
2
274
2
275
0
280
0
281
0
282
0
283
1
284
8
285
0
286
0
287
3
288
0
340
11
278
46
341
213
342
213
343
213
344
213
  0
ENDTAB
  0
ENDSEC
  0
SECTION
  2
BLOCKS
  0
BLOCK
  5
20
100
AcDbEntity
  8
0
100
AcDbBlockBegin
  2
*Model_Space
 70
0
 10
0.0
 20
0.0
 30
0.0
  3
*Model_Space
  1

  0
ENDBLK
  5
21
100
AcDbEntity
  8
0
100
AcDbBlockEnd
  0
BLOCK
  5
1C
100
AcDbEntity
  8
0
100
AcDbBlockBegin
  2
*Paper_Space
 70
0
 10
0.0
 20
0.0
 30
0.0
  3
*Paper_Space
  1

  0
ENDBLK
  5
1D
100
AcDbEntity
  8
0
100
AcDbBlockEnd
  0
BLOCK
  5
215
100
AcDbEntity
  8
0
100
AcDbBlockBegin
  2
_FILLED
 70
64
 10
0.0
 20
0.0
  3
_FILLED
  1

  0
SOLID
  5
216
100
AcDbEntity
  8
0
  6
BYBLOCK
 62
0
100
AcDbTrace
 10
0.0
 20
0.0
 11
-1.0
 21
0.25
 12
-1.0
 22
-0.25
 13
-1.0
 23
-0.25
  0
ENDBLK
  5
217
100
AcDbEntity
  8
0
  6
BYBLOCK
 62
0
100
AcDbBlockEnd
  0
ENDSEC
  0
SECTION
  2
ENTITIES
  0
LINE
  5
218
100
AcDbEntity
  8
0
100
AcDbLine
 62
7
  6
CONTINUOUS
 10
23.0565510229
 20
104.8243507549
 11
23.0565510229
 21
159.160953589
  0
LINE
  5
219
100
AcDbEntity
  8
0
100
AcDbLine
 62
7
  6
CONTINUOUS
 10
29.2529535443
 20
145.2139591596
 11
29.2529535443
 21
101.2469370231
  0
LINE
  5
21A
100
AcDbEntity
  8
0
100
AcDbLine
 62
7
  6
CONTINUOUS
 10
25.6868774979
 20
99.0104666597
 11
31.8832800194
 21
95.4330529279
  0
LINE
  5
21B
100
AcDbEntity
  8
0
100
AcDbLine
 62
7
  6
CONTINUOUS
 10
76.4255358258
 20
69.7171513191
 11
82.6219383473
 21
66.1397375873
  0
LINE
  5
21C
100
AcDbEntity
  8
0
100
AcDbLine
 62
7
  6
CONTINUOUS
 10
79.9916118723
 20
71.9536216614
 11
73.7952093508
 21
75.5310353933
  0
LINE
  5
21D
100
AcDbEntity
  8
0
100
AcDbLine
 62
7
  6
CONTINUOUS
 10
29.2529535443
 20
101.246937002
 11
23.0565510229
 21
104.8243507339
  0
LINE
  5
21E
100
AcDbEntity
  8
0
100
AcDbLine
 62
7
  6
CONTINUOUS
 10
44.0511296775
 20
136.6704214663
 11
44.0511296775
 21
99.4210362796
  0
LINE
  5
21F
100
AcDbEntity
  8
0
100
AcDbLine
 62
7
  6
CONTINUOUS
 10
49.0094497114
 20
110.5794069939
 11
49.0094497114
 21
133.8077988211
  0
LINE
  5
220
100
AcDbEntity
  8
0
100
AcDbLine
 62
7
  6
CONTINUOUS
 10
50.5345293726
 20
109.6989217602
 11
50.5345293726
 21
102.3355359051
  0
LINE
  5
221
100
AcDbEntity
  8
0
100
AcDbLine
 62
7
  6
CONTINUOUS
 10
23.0565510229
 20
159.160953589
 11
121.8389570816
 21
216.1926618849
  0
LINE
  5
222
100
AcDbEntity
  8
0
100
AcDbLine
 62
7
  6
CONTINUOUS
 10
73.7952093508
 20
96.2696657236
 11
49.0094497114
 21
110.5794069939
  0
LINE
  5
223
100
AcDbEntity
  8
0
100
AcDbLine
 62
7
  6
CONTINUOUS
 10
73.7952093508
 20
119.4980575509
 11
29.2529535443
 21
145.2139591596
  0
LINE
  5
224
100
AcDbEntity
  8
0
100
AcDbLine
 62
7
  6
CONTINUOUS
 10
73.7952093508
 20
75.5310354143
 11
73.7952093508
 21
119.4980575509
  0
LINE
  5
225
100
AcDbEntity
  8
0
100
AcDbLine
 62
7
  6
CONTINUOUS
 10
79.9916118723
 20
126.2902245166
 11
79.9916118723
 21
71.9536216824
  0
LINE
  5
226
100
AcDbEntity
  8
0
100
AcDbLine
 62
7
  6
CONTINUOUS
 10
79.9916118723
 20
126.2902245166
 11
23.0565510229
 21
159.160953589
  0
LINE
  5
227
100
AcDbEntity
  8
0
100
AcDbLine
 62
7
  6
CONTINUOUS
 10
178.774017931
 20
183.3219328124
 11
79.9916118723
 21
126.2902245166
  0
LINE
  5
228
100
AcDbEntity
  8
0
100
AcDbLine
 62
7
  6
CONTINUOUS
 10
38.2331722969
 20
96.0620570702
 11
44.0511296775
 21
99.4210362796
  0
LINE
  5
229
100
AcDbEntity
  8
0
100
AcDbLine
 62
7
  6
CONTINUOUS
 10
50.5345293726
 20
103.1642064951
 11
56.1938397032
 21
106.4315913343
  0
LINE
  5
22A
100
AcDbEntity
  8
0
100
AcDbLine
 62
7
  6
CONTINUOUS
 10
88.9718306231
 20
66.7687417286
 11
169.7937991802
 21
113.4310484951
  0
LINE
  5
22B
100
AcDbEntity
  8
0
100
AcDbLine
 62
7
  6
CONTINUOUS
 10
178.774017931
 20
128.9853299783
 11
178.774017931
 21
183.3219328124
  0
LINE
  5
22C
100
AcDbEntity
  8
0
100
AcDbLine
 62
7
  6
CONTINUOUS
 10
178.774017931
 20
183.3219328124
 11
121.8389570816
 21
216.1926618849
  0
SPLINE
  5
22D
100
AcDbEntity
  8
0
100
AcDbSpline
 62
7
  6
CONTINUOUS
 70
0
 71
3
 72
12
 73
8
 74
0
 42
0.0000001
 43
0.0000001
 44
0.0000000001
 40
0.0
 40
0.0
 40
0.0
 40
0.0
 40
0.1081620389
 40
0.218363705
 40
0.4513660652
 40
0.7104193096
 40
1.0
 40
1.0
 40
1.0
 40
1.0
 10
31.8832908599
 20
95.4330717047
 30
0.0
 10
32.0915058704
 20
95.3128614379
 30
0.0
 10
32.5336705109
 20
95.1059554869
 30
0.0
 10
33.5044207186
 20
94.8370681066
 30
0.0
 10
34.8641978708
 20
94.8010375311
 30
0.0
 10
36.5670428056
 20
95.2127350317
 30
0.0
 10
37.6757235347
 20
95.7402157985
 30
0.0
 10
38.2331722969
 20
96.0620570702
 30
0.0
  0
SPLINE
  5
22E
100
AcDbEntity
  8
0
100
AcDbSpline
 62
7
  6
CONTINUOUS
 70
0
 71
3
 72
12
 73
8
 74
0
 42
0.0000001
 43
0.0000001
 44
0.0000000001
 40
0.0
 40
0.0
 40
0.0
 40
0.0
 40
0.1081612896
 40
0.2183623225
 40
0.4513640815
 40
0.710417852
 40
1.0
 40
1.0
 40
1.0
 40
1.0
 10
25.6868883385
 20
99.0104854366
 30
0.0
 10
25.4786665024
 20
99.1306996189
 30
0.0
 10
25.0783802286
 20
99.4101752046
 30
0.0
 10
24.3601082293
 20
100.1164427235
 30
0.0
 10
23.6489833366
 20
101.276071419
 30
0.0
 10
23.154081243
 20
102.9566972078
 30
0.0
 10
23.056551023
 20
104.1806365629
 30
0.0
 10
23.0565510229
 20
104.8243507549
 30
0.0
  0
SPLINE
  5
22F
100
AcDbEntity
  8
0
100
AcDbSpline
 62
7
  6
CONTINUOUS
 70
0
 71
3
 72
11
 73
7
 74
0
 42
0.0000001
 43
0.0000001
 44
0.0000000001
 40
0.0
 40
0.0
 40
0.0
 40
0.0
 40
0.2177648073
 40
0.4508950352
 40
0.7103684932
 40
1.0
 40
1.0
 40
1.0
 40
1.0
 10
61.5611762811
 20
146.6141148413
 30
0.0
 10
61.5611263286
 20
146.4883587041
 30
0.0
 10
61.5148503397
 20
146.2262103466
 30
0.0
 10
61.3160127408
 20
145.8609375614
 30
0.0
 10
61.0018057151
 20
145.5308355531
 30
0.0
 10
60.7389718467
 20
145.3497323558
 30
0.0
 10
60.5941218095
 20
145.266103647
 30
0.0
  0
SPLINE
  5
230
100
AcDbEntity
  8
0
100
AcDbSpline
 62
7
  6
CONTINUOUS
 70
0
 71
3
 72
11
 73
7
 74
0
 42
0.0000001
 43
0.0000001
 44
0.0000000001
 40
0.0
 40
0.0
 40
0.0
 40
0.0
 40
0.2177648073
 40
0.4508950352
 40
0.7103684932
 40
1.0
 40
1.0
 40
1.0
 40
1.0
 10
146.8732542409
 20
195.8687720059
 30
0.0
 10
146.8732042884
 20
195.7430158687
 30
0.0
 10
146.8269282996
 20
195.4808675111
 30
0.0
 10
146.6280907006
 20
195.115594726
 30
0.0
 10
146.3138836749
 20
194.7854927177
 30
0.0
 10
146.0510498065
 20
194.6043895204
 30
0.0
 10
145.9061997693
 20
194.5207608116
 30
0.0
  0
SPLINE
  5
231
100
AcDbEntity
  8
0
100
AcDbSpline
 62
7
  6
CONTINUOUS
 70
0
 71
3
 72
12
 73
8
 74
0
 42
0.0000001
 43
0.0000001
 44
0.0000000001
 40
0.0
 40
0.0
 40
0.0
 40
0.0
 40
0.1081620389
 40
0.218363705
 40
0.4513660652
 40
0.7104193096
 40
1.0
 40
1.0
 40
1.0
 40
1.0
 10
82.6219491879
 20
66.1397563641
 30
0.0
 10
82.8301641983
 20
66.0195460974
 30
0.0
 10
83.2723288386
 20
65.8126401464
 30
0.0
 10
84.243079046
 20
65.5437527661
 30
0.0
 10
85.6028561978
 20
65.5077221904
 30
0.0
 10
87.3057011321
 20
65.9194196906
 30
0.0
 10
88.414381861
 20
66.446900457
 30
0.0
 10
88.9718306231
 20
66.7687417286
 30
0.0
  0
SPLINE
  5
232
100
AcDbEntity
  8
0
100
AcDbSpline
 62
7
  6
CONTINUOUS
 70
0
 71
3
 72
12
 73
8
 74
0
 42
0.0000001
 43
0.0000001
 44
0.0000000001
 40
0.0
 40
0.0
 40
0.0
 40
0.0
 40
0.1081612896
 40
0.2183623225
 40
0.4513640815
 40
0.710417852
 40
1.0
 40
1.0
 40
1.0
 40
1.0
 10
76.4255466664
 20
69.717170096
 30
0.0
 10
76.2173248303
 20
69.8373842783
 30
0.0
 10
75.8170385565
 20
70.116859864
 30
0.0
 10
75.0987665573
 20
70.8231273829
 30
0.0
 10
74.3876416646
 20
71.9827560784
 30
0.0
 10
73.8927395709
 20
73.6633818672
 30
0.0
 10
73.7952093509
 20
74.8873212223
 30
0.0
 10
73.7952093508
 20
75.5310354143
 30
0.0
  0
SPLINE
  5
233
100
AcDbEntity
  8
0
100
AcDbSpline
 62
7
  6
CONTINUOUS
 70
0
 71
3
 72
11
 73
7
 74
0
 42
0.0000001
 43
0.0000001
 44
0.0000000001
 40
0.0
 40
0.0
 40
0.0
 40
0.0
 40
0.2178078669
 40
0.4509177269
 40
0.7102935976
 40
1.0
 40
1.0
 40
1.0
 40
1.0
 10
50.5345139322
 20
102.3355359034
 30
0.0
 10
50.5345872405
 20
102.1371872178
 30
0.0
 10
50.4612460314
 20
101.7237859643
 30
0.0
 10
50.1477869462
 20
101.1478952346
 30
0.0
 10
49.6524635415
 20
100.6272078237
 30
0.0
 10
49.2379281213
 20
100.3417375804
 30
0.0
 10
49.0094497114
 20
100.2098262963
 30
0.0
  0
SPLINE
  5
234
100
AcDbEntity
  8
0
100
AcDbSpline
 62
7
  6
CONTINUOUS
 70
0
 71
3
 72
9
 73
5
 74
0
 42
0.0000001
 43
0.0000001
 44
0.0000000001
 40
0.0
 40
0.0
 40
0.0
 40
0.0
 40
0.4879671329
 40
1.0
 40
1.0
 40
1.0
 40
1.0
 10
54.4405119992
 20
129.1705543556
 30
0.0
 10
54.7204867619
 20
129.3322347482
 30
0.0
 10
55.3447653441
 20
129.582039784
 30
0.0
 10
56.0110986227
 20
129.655376505
 30
0.0
 10
56.3503478567
 20
129.6545076187
 30
0.0
  0
SPLINE
  5
235
100
AcDbEntity
  8
0
100
AcDbSpline
 62
7
  6
CONTINUOUS
 70
0
 71
3
 72
11
 73
7
 74
0
 42
0.0000001
 43
0.0000001
 44
0.0000000001
 40
0.0
 40
0.0
 40
0.0
 40
0.0
 40
0.2594115655
 40
0.5209899143
 40
0.7716143186
 40
1.0
 40
1.0
 40
1.0
 40
1.0
 10
62.8727216953
 20
125.882750011
 30
0.0
 10
63.4879207165
 20
125.1725245647
 30
0.0
 10
64.6018922104
 20
123.637142342
 30
0.0
 10
65.8747711506
 20
121.1362717648
 30
0.0
 10
66.69468467
 20
118.5697966256
 30
0.0
 10
66.9116648224
 20
116.8327972699
 30
0.0
 10
66.9116648224
 20
116.0055547636
 30
0.0
  0
SPLINE
  5
236
100
AcDbEntity
  8
0
100
AcDbSpline
 62
7
  6
CONTINUOUS
 70
0
 71
3
 72
12
 73
8
 74
0
 42
0.0000001
 43
0.0000001
 44
0.0000000001
 40
0.0
 40
0.0
 40
0.0
 40
0.0
 40
0.2895703458
 40
0.5486412611
 40
0.7816370556
 40
0.8918395047
 40
1.0
 40
1.0
 40
1.0
 40
1.0
 10
66.9116648224
 20
116.0055547636
 30
0.0
 10
66.9116648224
 20
115.4819156386
 30
0.0
 10
66.8322924044
 20
114.4862458397
 30
0.0
 10
66.4297691617
 20
113.1190157065
 30
0.0
 10
65.8511568483
 20
112.1757256869
 30
0.0
 10
65.2669429588
 20
111.6010821657
 30
0.0
 10
64.9412563602
 20
111.3738048004
 30
0.0
 10
64.7718801058
 20
111.2759930583
 30
0.0
  0
SPLINE
  5
237
100
AcDbEntity
  8
0
100
AcDbSpline
 62
7
  6
CONTINUOUS
 70
0
 71
3
 72
17
 73
13
 74
0
 42
0.0000001
 43
0.0000001
 44
0.0000000001
 40
0.0
 40
0.0
 40
0.0
 40
0.0
 40
0.128688448
 40
0.2702796817
 40
0.4174325464
 40
0.5617749928
 40
0.6954478191
 40
0.8127119577
 40
0.8646769781
 40
0.912510124
 40
0.9571398159
 40
1.0
 40
1.0
 40
1.0
 40
1.0
 10
60.5941218095
 20
145.266103647
 30
0.0
 10
60.3496969096
 20
145.1249857076
 30
0.0
 10
59.7962745829
 20
144.8966454964
 30
0.0
 10
58.8943173452
 20
144.7161847751
 30
0.0
 10
57.9403306529
 20
144.68977611
 30
0.0
 10
57.0121777792
 20
144.8201973809
 30
0.0
 10
56.1850953536
 20
145.0964522429
 30
0.0
 10
55.6098588307
 20
145.4466056765
 30
0.0
 10
55.2722827037
 20
145.7854078207
 30
0.0
 10
55.0929409442
 20
146.0491817311
 30
0.0
 10
54.9824301144
 20
146.3274103293
 30
0.0
 10
54.9572773745
 20
146.5201142339
 30
0.0
 10
54.957314713
 20
146.6141143956
 30
0.0
  0
SPLINE
  5
238
100
AcDbEntity
  8
0
100
AcDbSpline
 62
7
  6
CONTINUOUS
 70
0
 71
3
 72
17
 73
13
 74
0
 42
0.0000001
 43
0.0000001
 44
0.0000000001
 40
0.0
 40
0.0
 40
0.0
 40
0.0
 40
0.128688448
 40
0.2702796817
 40
0.4174325464
 40
0.5617749928
 40
0.6954478191
 40
0.8127119577
 40
0.8646769781
 40
0.912510124
 40
0.9571398159
 40
1.0
 40
1.0
 40
1.0
 40
1.0
 10
145.9061997693
 20
194.5207608116
 30
0.0
 10
145.6617748694
 20
194.3796428722
 30
0.0
 10
145.1083525427
 20
194.151302661
 30
0.0
 10
144.206395305
 20
193.9708419397
 30
0.0
 10
143.2524086128
 20
193.9444332746
 30
0.0
 10
142.324255739
 20
194.0748545455
 30
0.0
 10
141.4971733134
 20
194.3511094075
 30
0.0
 10
140.9219367906
 20
194.7012628411
 30
0.0
 10
140.5843606635
 20
195.0400649853
 30
0.0
 10
140.4050189041
 20
195.3038388957
 30
0.0
 10
140.2945080742
 20
195.5820674939
 30
0.0
 10
140.2693553344
 20
195.7747713985
 30
0.0
 10
140.2693926728
 20
195.8687715602
 30
0.0
  0
SPLINE
  5
239
100
AcDbEntity
  8
0
100
AcDbSpline
 62
7
  6
CONTINUOUS
 70
0
 71
3
 72
15
 73
11
 74
0
 42
0.0000001
 43
0.0000001
 44
0.0000000001
 40
0.0
 40
0.0
 40
0.0
 40
0.0
 40
0.1141543519
 40
0.237325601
 40
0.366974755
 40
0.4999984147
 40
0.6330222943
 40
0.7626720931
 40
0.8858443543
 40
1.0
 40
1.0
 40
1.0
 40
1.0
 10
169.7937991802
 20
113.4310484951
 30
0.0
 10
170.4085675149
 20
113.7859830401
 30
0.0
 10
171.6228450459
 20
114.637183003
 30
0.0
 10
173.2936246268
 20
116.200332879
 30
0.0
 10
174.8333383003
 20
118.0480926708
 30
0.0
 10
176.1839919326
 20
120.1111469938
 30
0.0
 10
177.2953135157
 20
122.312383551
 30
0.0
 10
178.1256581606
 20
124.5697089415
 30
0.0
 10
178.6439943417
 20
126.7982404987
 30
0.0
 10
178.7740179309
 20
128.275449665
 30
0.0
 10
178.774017931
 20
128.9853299783
 30
0.0
  0
SPLINE
  5
23A
100
AcDbEntity
  8
0
100
AcDbSpline
 62
7
  6
CONTINUOUS
 70
0
 71
3
 72
11
 73
7
 74
0
 42
0.0000001
 43
0.0000001
 44
0.0000000001
 40
0.0
 40
0.0
 40
0.0
 40
0.0
 40
0.2279039485
 40
0.4772412914
 40
0.738381785
 40
1.0
 40
1.0
 40
1.0
 40
1.0
 10
49.0094497114
 20
100.2098262963
 30
0.0
 10
48.6737858633
 20
100.0160318401
 30
0.0
 10
47.9228115424
 20
99.6916850277
 30
0.0
 10
46.6959956176
 20
99.4012641855
 30
0.0
 10
45.3823329261
 20
99.2968158653
 30
0.0
 10
44.4913911504
 20
99.3567675525
 30
0.0
 10
44.0511296775
 20
99.4210362796
 30
0.0
  0
SPLINE
  5
23B
100
AcDbEntity
  8
0
100
AcDbSpline
 62
7
  6
CONTINUOUS
 70
0
 71
3
 72
11
 73
7
 74
0
 42
0.0000001
 43
0.0000001
 44
0.0000000001
 40
0.0
 40
0.0
 40
0.0
 40
0.0
 40
0.2177648073
 40
0.4508950352
 40
0.7103684932
 40
1.0
 40
1.0
 40
1.0
 40
1.0
 10
54.957314713
 20
146.6141143956
 30
0.0
 10
54.9573646655
 20
146.7398705328
 30
0.0
 10
55.0036406543
 20
147.0020188903
 30
0.0
 10
55.2024782533
 20
147.3672916755
 30
0.0
 10
55.5166852789
 20
147.6973936838
 30
0.0
 10
55.7795191473
 20
147.8784968811
 30
0.0
 10
55.9243691846
 20
147.9621255899
 30
0.0
  0
SPLINE
  5
23C
100
AcDbEntity
  8
0
100
AcDbSpline
 62
7
  6
CONTINUOUS
 70
0
 71
3
 72
18
 73
14
 74
0
 42
0.0000001
 43
0.0000001
 44
0.0000000001
 40
0.0
 40
0.0
 40
0.0
 40
0.0
 40
0.0428482626
 40
0.0874659161
 40
0.1352877409
 40
0.1872394799
 40
0.2437304931
 40
0.3047358846
 40
0.4383699294
 40
0.5826771127
 40
0.7297922524
 40
0.8713433388
 40
1.0
 40
1.0
 40
1.0
 40
1.0
 10
64.7718801058
 20
111.2759930583
 30
0.0
 10
64.5171878425
 20
111.1289128545
 30
0.0
 10
63.955681239
 20
110.8956492386
 30
0.0
 10
63.0288864872
 20
110.7597159446
 30
0.0
 10
62.0335997611
 20
110.8329912947
 30
0.0
 10
60.9920270054
 20
111.1097936075
 30
0.0
 10
59.9244544848
 20
111.5815165428
 30
0.0
 10
58.450741209
 20
112.4834997166
 30
0.0
 10
56.6952011819
 20
114.03838505
 30
0.0
 10
54.8910427379
 20
116.3481629355
 30
0.0
 10
53.4697661357
 20
118.9748011464
 30
0.0
 10
52.5478203118
 20
121.701062006
 30
0.0
 10
52.3007272826
 20
123.5578945324
 30
0.0
 10
52.3007272826
 20
124.4409926502
 30
0.0
  0
SPLINE
  5
23D
100
AcDbEntity
  8
0
100
AcDbSpline
 62
7
  6
CONTINUOUS
 70
0
 71
3
 72
11
 73
7
 74
0
 42
0.0000001
 43
0.0000001
 44
0.0000000001
 40
0.0
 40
0.0
 40
0.0
 40
0.0
 40
0.2177648073
 40
0.4508950352
 40
0.7103684932
 40
1.0
 40
1.0
 40
1.0
 40
1.0
 10
140.2693926728
 20
195.8687715602
 30
0.0
 10
140.2694426253
 20
195.9945276974
 30
0.0
 10
140.3157186142
 20
196.2566760549
 30
0.0
 10
140.5145562131
 20
196.6219488401
 30
0.0
 10
140.8287632388
 20
196.9520508484
 30
0.0
 10
141.0915971072
 20
197.1331540457
 30
0.0
 10
141.2364471444
 20
197.2167827545
 30
0.0
  0
SPLINE
  5
23E
100
AcDbEntity
  8
0
100
AcDbSpline
 62
7
  6
CONTINUOUS
 70
0
 71
3
 72
17
 73
13
 74
0
 42
0.0000001
 43
0.0000001
 44
0.0000000001
 40
0.0
 40
0.0
 40
0.0
 40
0.0
 40
0.128688448
 40
0.2702796817
 40
0.4174325464
 40
0.5617749928
 40
0.6954478191
 40
0.8127119577
 40
0.8646769781
 40
0.912510124
 40
0.9571398159
 40
1.0
 40
1.0
 40
1.0
 40
1.0
 10
55.9243691846
 20
147.9621255899
 30
0.0
 10
56.1687940845
 20
148.1032435292
 30
0.0
 10
56.7222164112
 20
148.3315837405
 30
0.0
 10
57.6241736489
 20
148.5120444618
 30
0.0
 10
58.5781603411
 20
148.5384531268
 30
0.0
 10
59.5063132148
 20
148.408031856
 30
0.0
 10
60.3333956404
 20
148.1317769939
 30
0.0
 10
60.9086321633
 20
147.7816235603
 30
0.0
 10
61.2462082904
 20
147.4428214162
 30
0.0
 10
61.4255500498
 20
147.1790475058
 30
0.0
 10
61.5360608797
 20
146.9008189076
 30
0.0
 10
61.5612136195
 20
146.708115003
 30
0.0
 10
61.5611762811
 20
146.6141148413
 30
0.0
  0
SPLINE
  5
23F
100
AcDbEntity
  8
0
100
AcDbSpline
 62
7
  6
CONTINUOUS
 70
0
 71
3
 72
10
 73
6
 74
0
 42
0.0000001
 43
0.0000001
 44
0.0000000001
 40
0.0
 40
0.0
 40
0.0
 40
0.0
 40
0.5246320791
 40
0.770601733
 40
1.0
 40
1.0
 40
1.0
 40
1.0
 10
73.734857731
 20
106.6878709768
 30
0.0
 10
73.2117916552
 20
107.7195538686
 30
0.0
 10
72.5853329234
 20
109.3171435889
 30
0.0
 10
72.1384844582
 20
111.479860796
 30
0.0
 10
72.0573730032
 20
112.5289700983
 30
0.0
 10
72.0573730032
 20
113.0347459689
 30
0.0
  0
SPLINE
  5
240
100
AcDbEntity
  8
0
100
AcDbSpline
 62
7
  6
CONTINUOUS
 70
0
 71
3
 72
17
 73
13
 74
0
 42
0.0000001
 43
0.0000001
 44
0.0000000001
 40
0.0
 40
0.0
 40
0.0
 40
0.0
 40
0.128688448
 40
0.2702796817
 40
0.4174325464
 40
0.5617749928
 40
0.6954478191
 40
0.8127119577
 40
0.8646769781
 40
0.912510124
 40
0.9571398159
 40
1.0
 40
1.0
 40
1.0
 40
1.0
 10
141.2364471444
 20
197.2167827545
 30
0.0
 10
141.4808720443
 20
197.3579006938
 30
0.0
 10
142.034294371
 20
197.5862409051
 30
0.0
 10
142.9362516087
 20
197.7667016264
 30
0.0
 10
143.890238301
 20
197.7931102914
 30
0.0
 10
144.8183911747
 20
197.6626890206
 30
0.0
 10
145.6454736003
 20
197.3864341585
 30
0.0
 10
146.2207101232
 20
197.0362807249
 30
0.0
 10
146.5582862502
 20
196.6974785808
 30
0.0
 10
146.7376280097
 20
196.4337046704
 30
0.0
 10
146.8481388395
 20
196.1554760722
 30
0.0
 10
146.8732915794
 20
195.9627721676
 30
0.0
 10
146.8732542409
 20
195.8687720059
 30
0.0
  0
SPLINE
  5
241
100
AcDbEntity
  8
0
100
AcDbSpline
 62
7
  6
CONTINUOUS
 70
0
 71
3
 72
12
 73
8
 74
0
 42
0.0000001
 43
0.0000001
 44
0.0000000001
 40
0.0
 40
0.0
 40
0.0
 40
0.0
 40
0.2895821567
 40
0.5486359364
 40
0.7816376879
 40
0.8918387163
 40
1.0
 40
1.0
 40
1.0
 40
1.0
 10
79.9916118723
 20
71.9536216824
 30
0.0
 10
79.9916118724
 20
71.3099074716
 30
0.0
 10
80.0891421167
 20
70.0859680815
 30
0.0
 10
80.58404421
 20
68.4053422637
 30
0.0
 10
81.2951691426
 20
67.2457136072
 30
0.0
 10
82.0134411032
 20
66.5394461027
 30
0.0
 10
82.4137273743
 20
66.2599705586
 30
0.0
 10
82.6219491879
 20
66.1397563641
 30
0.0
  0
SPLINE
  5
242
100
AcDbEntity
  8
0
100
AcDbSpline
 62
7
  6
CONTINUOUS
 70
0
 71
3
 72
11
 73
7
 74
0
 42
0.0000001
 43
0.0000001
 44
0.0000000001
 40
0.0
 40
0.0
 40
0.0
 40
0.0
 40
0.2865877866
 40
0.5462981506
 40
0.7817198506
 40
1.0
 40
1.0
 40
1.0
 40
1.0
 10
72.0573730032
 20
113.0347459689
 30
0.0
 10
72.0573730032
 20
113.504650074
 30
0.0
 10
72.1216837769
 20
114.4027164871
 30
0.0
 10
72.4441061456
 20
115.6520150946
 30
0.0
 10
72.9842572356
 20
116.7021656802
 30
0.0
 10
73.4976004803
 20
117.2573867938
 30
0.0
 10
73.77820302
 20
117.4795512511
 30
0.0
  0
SPLINE
  5
243
100
AcDbEntity
  8
0
100
AcDbSpline
 62
7
  6
CONTINUOUS
 70
0
 71
3
 72
12
 73
8
 74
0
 42
0.0000001
 43
0.0000001
 44
0.0000000001
 40
0.0
 40
0.0
 40
0.0
 40
0.0
 40
0.2895703458
 40
0.5486412611
 40
0.7816370556
 40
0.8918395047
 40
1.0
 40
1.0
 40
1.0
 40
1.0
 10
52.3007272826
 20
124.4409926502
 30
0.0
 10
52.3007272826
 20
124.9646317753
 30
0.0
 10
52.3800997006
 20
125.9603015741
 30
0.0
 10
52.7826229433
 20
127.3275317074
 30
0.0
 10
53.3612352566
 20
128.2708217269
 30
0.0
 10
53.9454491462
 20
128.8454652482
 30
0.0
 10
54.2711357448
 20
129.0727426134
 30
0.0
 10
54.4405119992
 20
129.1705543556
 30
0.0
  0
SPLINE
  5
244
100
AcDbEntity
  8
0
100
AcDbSpline
 62
7
  6
CONTINUOUS
 70
0
 71
3
 72
12
 73
8
 74
0
 42
0.0000001
 43
0.0000001
 44
0.0000000001
 40
0.0
 40
0.0
 40
0.0
 40
0.0
 40
0.2895821567
 40
0.5486359364
 40
0.7816376879
 40
0.8918387163
 40
1.0
 40
1.0
 40
1.0
 40
1.0
 10
29.2529535443
 20
101.2469370231
 30
0.0
 10
29.2529535444
 20
100.6032228122
 30
0.0
 10
29.3504837888
 20
99.3792834221
 30
0.0
 10
29.845385882
 20
97.6986576043
 30
0.0
 10
30.5565108147
 20
96.5390289478
 30
0.0
 10
31.2747827752
 20
95.8327614433
 30
0.0
 10
31.6750690464
 20
95.5532858992
 30
0.0
 10
31.8832908599
 20
95.4330717047
 30
0.0
  0
ENDSEC
  0
SECTION
  2
OBJECTS
  0
DICTIONARY
  5
C
100
AcDbDictionary
280
0
281
1
  3
ACAD_GROUP
350
D
  3
ACAD_MLINESTYLE
350
17
  3
ACAD_LAYOUT
350
1A
  3
ACAD_PLOTSETTINGS
350
19
  3
ACAD_PLOTSTYLENAME
350
E
  0
DICTIONARY
  5
D
102
{ACAD_REACTORS
330
C
102
}
100
AcDbDictionary
280
0
281
1
  0
ACDBDICTIONARYWDFLT
  5
E
102
{ACAD_REACTORS
330
C
102
}
100
AcDbDictionary
281
1
  3
Normal
350
F
100
AcDbDictionaryWithDefault
340
F
  0
DICTIONARY
  5
17
102
{ACAD_REACTORS
330
C
102
}
100
AcDbDictionary
280
0
281
1
  3
Standard
350
18
  0
DICTIONARY
  5
19
102
{ACAD_REACTORS
330
C
102
}
100
AcDbDictionary
281
1
  0
DICTIONARY
  5
1A
102
{ACAD_REACTORS
330
C
102
}
100
AcDbDictionary
281
1
  3
Model
350
245
  3
Layout1
350
246
  0
ACDBPLACEHOLDER
  5
F
102
{ACAD_REACTORS
330
E
102
}
  0
MLINESTYLE
  5
18
102
{ACAD_REACTORS
330
17
102
}
100
AcDbMlineStyle
  2
STANDARD
 70
0
  3

 62
256
 51
90.0
 52
90.0
 71
2
 49
0.5
 62
256
  6
BYLAYER
 49
-0.5
 62
256
  6
BYLAYER
  0
LAYOUT
  5
245
102
{ACAD_REACTORS
330
1A
102
}
100
AcDbPlotSettings
  1

  2
none_device
  4

  6

 40
0.0
 41
0.0
 42
0.0
 43
0.0
 44
210.0
 45
297.0
 46
0.0
 47
0.0
 48
0.0
 49
0.0
140
0.0
141
0.0
142
1.0
143
1.0
 70
1024
 72
1
 73
0
 74
0
  7

 75
0
147
1.0
148
0.0
149
0.0
100
AcDbLayout
  1
Model
 70
0
 71
0
 10
0.0
 20
0.0
 11
210.0
 21
297.0
 12
0.0
 22
0.0
 32
0.0
 14
0.0
 24
0.0
 34
0.0
 15
0.0
 25
0.0
 35
0.0
146
0.0
 13
0.0
 23
0.0
 33
0.0
 16
1.0
 26
0.0
 36
0.0
 17
0.0
 27
1.0
 37
0.0
 76
0
330
211
345
0
346
0
  0
LAYOUT
  5
246
102
{ACAD_REACTORS
330
1A
102
}
100
AcDbPlotSettings
  1

  2
none_device
  4

  6

 40
0.0
 41
0.0
 42
0.0
 43
0.0
 44
210.0
 45
297.0
 46
0.0
 47
0.0
 48
0.0
 49
0.0
140
0.0
141
0.0
142
1.0
143
1.0
 70
0
 72
1
 73
0
 74
0
  7

 75
0
147
1.0
148
0.0
149
0.0
100
AcDbLayout
  1
Layout1
 70
0
 71
1
 10
0.0
 20
0.0
 11
210.0
 21
297.0
 12
0.0
 22
0.0
 32
0.0
 14
0.0
 24
0.0
 34
0.0
 15
0.0
 25
0.0
 35
0.0
146
0.0
 13
0.0
 23
0.0
 33
0.0
 16
1.0
 26
0.0
 36
0.0
 17
0.0
 27
1.0
 37
0.0
 76
0
330
212
345
0
346
0
  0
ENDSEC
  0
EOF
