999
DXF file: C:\Users\sesa63760\Dev\_Creo\CAD\MCADPP0003181_3D-CAD\drw0001_4.dxf
999
Pro/ENGINEER 2019471 by Parametric Technology Corporation
  0
SECTION
  2
HEADER
  9
$ACADVER
  1
AC1024
  9
$DWGCODEPAGE
  3
ANSI_1252
  9
$EXTMAX
 10
245.9939405695
 20
347.9057159483
 30
0.0
  9
$EXTMIN
 10
0.0
 20
0.0
 30
0.0
  9
$LIMMIN
 10
0.0
 20
0.0
  9
$LIMMAX
 10
245.9939405695
 20
347.9057159483
  9
$VIEWCTR
 10
122.9969702848
 20
173.9528579742
  9
$VIEWSIZE
 40
347.9057159483
  9
$CLAYER
  8
0
  9
$LTSCALE
 40
22.6782985211
  9
$CELTYPE
  6
BYLAYER
  9
$DIMSCALE
 40
1.0
  9
$DIMASZ
 40
2.9284992925
  9
$DIMEXO
 40
1.0
  9
$DIMDLI
 40
15.6686426146
  9
$DIMEXE
 40
1.0
  9
$DIMCEN
 40
3.7109943034
  9
$DIMLFAC
 40
1.0
  9
$DIMBLK
  1
_FILLED
  9
$DIMALT
 70
0
  9
$DIMALTF
 40
0.0393700787
  9
$DIMTXT
 40
4.0998990095
  9
$DIMTOL
 70
1
  9
$DIMLIM
 70
0
  9
$DIMTFAC
 40
1.0
  9
$DIMTP
 40
0.01
  9
$DIMTM
 40
0.01
  9
$DIMGAP
 40
0.625
  9
$DIMDSEP
 70
46
  9
$AUNITS
 70
0
  9
$PDMODE
 70
3
  9
$PDSIZE
 40
0.3125
  9
$HANDSEED
  5
5EE
  9
$TILEMODE
 70
1
  9
$MEASUREMENT
 70
1
  9
$INSUNITS
 70
4
  0
ENDSEC
  0
SECTION
  2
CLASSES
  0
CLASS
  1
ACDBDICTIONARYWDFLT
  2
AcDbDictionaryWithDefault
  3
AutoCAD 2000
 90
0
 91
1
280
0
281
0
  0
CLASS
  1
ACDBPLACEHOLDER
  2
AcDbPlaceHolder
  3
AutoCAD 2000
 90
0
 91
1
280
0
281
0
  0
CLASS
  1
LAYOUT
  2
AcDbLayout
  3
AutoCAD 2000
 90
0
 91
0
280
0
281
0
  0
ENDSEC
  0
SECTION
  2
TABLES
  0
TABLE
  2
VPORT
  5
8
100
AcDbSymbolTable
 70
2
  0
VPORT
  5
1F4
100
AcDbSymbolTableRecord
100
AcDbViewportTableRecord
  2
*ACTIVE
 70
0
 10
0.0
 20
0.0
 11
1.0
 21
1.0
 12
122.9969702848
 22
173.9528579742
 13
0.0
 23
0.0
 14
1.0
 24
1.0
 15
0.0
 25
0.0
 16
0.0
 26
0.0
 36
1.0
 17
0.0
 27
0.0
 37
0.0
 40
347.9057159483
 41
0.7070707071
 42
50.0
 43
0.0
 44
0.0
 50
0.0
 51
0.0
 71
0
 72
100
 73
1
 74
1
 75
0
 76
0
 77
0
 78
0
  0
ENDTAB
  0
TABLE
  2
LTYPE
  5
5
100
AcDbSymbolTable
 70
6
  0
LTYPE
  5
14
100
AcDbSymbolTableRecord
100
AcDbLinetypeTableRecord
  2
BYBLOCK
 70
0
  3

 72
65
 73
0
 40
0.0
  0
LTYPE
  5
15
100
AcDbSymbolTableRecord
100
AcDbLinetypeTableRecord
  2
BYLAYER
 70
0
  3

 72
65
 73
0
 40
0.0
  0
LTYPE
  5
16
100
AcDbSymbolTableRecord
100
AcDbLinetypeTableRecord
  2
CONTINUOUS
 70
64
  3
Solid line
 72
65
 73
0
 40
0.0
  0
LTYPE
  5
1F5
100
AcDbSymbolTableRecord
100
AcDbLinetypeTableRecord
  2
CENTER
 70
64
  3
____ _ ____ _ ____ _ ____ _ ____ _ ____ _ ____
 72
65
 73
4
 40
0.6
 49
0.375
 74
0
 49
-0.075
 74
0
 49
0.075
 74
0
 49
-0.075
 74
0
  0
LTYPE
  5
1F6
100
AcDbSymbolTableRecord
100
AcDbLinetypeTableRecord
  2
HIDDEN
 70
64
  3
- - - - - - - - - - - - - - - - - - - -
 72
65
 73
2
 40
0.2
 49
0.1
 74
0
 49
-0.1
 74
0
  0
LTYPE
  5
1F7
100
AcDbSymbolTableRecord
100
AcDbLinetypeTableRecord
  2
PHANTOM
 70
64
  3
_____ _ _ _____ _ _ _____ _ _ _____
 72
65
 73
6
 40
0.8
 49
0.45
 74
0
 49
-0.05
 74
0
 49
0.1
 74
0
 49
-0.05
 74
0
 49
0.1
 74
0
 49
-0.05
 74
0
  0
LTYPE
  5
1F8
100
AcDbSymbolTableRecord
100
AcDbLinetypeTableRecord
  2
DOT
 70
64
  3
. . . . . . . . . . . . . . . . . . . .
 72
65
 73
2
 40
0.2
 49
0.1
 74
0
 49
-0.1
 74
0
  0
LTYPE
  5
1F9
100
AcDbSymbolTableRecord
100
AcDbLinetypeTableRecord
  2
DASHED
 70
64
  3
- - - - - - - - - - - - - - - - - - - -
 72
65
 73
2
 40
0.2
 49
0.1
 74
0
 49
-0.1
 74
0
  0
ENDTAB
  0
TABLE
  2
LAYER
  5
2
100
AcDbSymbolTable
 70
36
  0
LAYER
  5
10
100
AcDbSymbolTableRecord
100
AcDbLayerTableRecord
  2
0
 70
0
 62
7
  6
CONTINUOUS
370
-3
390
F
  0
LAYER
  5
1FA
100
AcDbSymbolTableRecord
100
AcDbLayerTableRecord
  2
DEFAULT_1
 70
0
 62
7
  6
CENTER
370
-3
390
F
  0
LAYER
  5
1FB
100
AcDbSymbolTableRecord
100
AcDbLayerTableRecord
  2
DEFAULT_2
 70
0
 62
8
  6
HIDDEN
370
-3
390
F
  0
LAYER
  5
1FC
100
AcDbSymbolTableRecord
100
AcDbLayerTableRecord
  2
DEFAULT_3
 70
0
 62
7
  6
PHANTOM
370
-3
390
F
  0
LAYER
  5
1FD
100
AcDbSymbolTableRecord
100
AcDbLayerTableRecord
  2
00_COMPONENTS
 70
0
 62
7
  6
CONTINUOUS
370
-3
390
F
  0
LAYER
  5
1FE
100
AcDbSymbolTableRecord
100
AcDbLayerTableRecord
  2
01_1_DEFAULT_DATUMS
 70
0
 62
7
  6
CONTINUOUS
370
-3
390
F
  0
LAYER
  5
1FF
100
AcDbSymbolTableRecord
100
AcDbLayerTableRecord
  2
01_PLANES
 70
0
 62
7
  6
CONTINUOUS
370
-3
390
F
  0
LAYER
  5
200
100
AcDbSymbolTableRecord
100
AcDbLayerTableRecord
  2
02_COORD_SYS
 70
0
 62
7
  6
CONTINUOUS
370
-3
390
F
  0
LAYER
  5
201
100
AcDbSymbolTableRecord
100
AcDbLayerTableRecord
  2
03_AXES
 70
0
 62
7
  6
CONTINUOUS
370
-3
390
F
  0
LAYER
  5
202
100
AcDbSymbolTableRecord
100
AcDbLayerTableRecord
  2
04_POINTS
 70
0
 62
7
  6
CONTINUOUS
370
-3
390
F
  0
LAYER
  5
203
100
AcDbSymbolTableRecord
100
AcDbLayerTableRecord
  2
05_CURVES
 70
0
 62
7
  6
CONTINUOUS
370
-3
390
F
  0
LAYER
  5
204
100
AcDbSymbolTableRecord
100
AcDbLayerTableRecord
  2
06_SURFS
 70
0
 62
7
  6
CONTINUOUS
370
-3
390
F
  0
LAYER
  5
205
100
AcDbSymbolTableRecord
100
AcDbLayerTableRecord
  2
07_COSMETICS
 70
0
 62
7
  6
CONTINUOUS
370
-3
390
F
  0
LAYER
  5
206
100
AcDbSymbolTableRecord
100
AcDbLayerTableRecord
  2
10_NOTES
 70
0
 62
7
  6
CONTINUOUS
370
-3
390
F
  0
LAYER
  5
207
100
AcDbSymbolTableRecord
100
AcDbLayerTableRecord
  2
11_NOTES_PUB
 70
0
 62
7
  6
CONTINUOUS
370
-3
390
F
  0
LAYER
  5
208
100
AcDbSymbolTableRecord
100
AcDbLayerTableRecord
  2
13_REF_GTOL
 70
0
 62
7
  6
CONTINUOUS
370
-3
390
F
  0
LAYER
  5
209
100
AcDbSymbolTableRecord
100
AcDbLayerTableRecord
  2
16_MISC
 70
0
 62
7
  6
CONTINUOUS
370
-3
390
F
  0
LAYER
  5
20A
100
AcDbSymbolTableRecord
100
AcDbLayerTableRecord
  2
17_NO_PRINT
 70
0
 62
7
  6
CONTINUOUS
370
-3
390
F
  0
LAYER
  5
20B
100
AcDbSymbolTableRecord
100
AcDbLayerTableRecord
  2
18_DATUM_CAMS_JOINTS
 70
0
 62
7
  6
CONTINUOUS
370
-3
390
F
  0
LAYER
  5
20C
100
AcDbSymbolTableRecord
100
AcDbLayerTableRecord
  2
19_DATUM_FUNCTIONAL
 70
0
 62
7
  6
CONTINUOUS
370
-3
390
F
  0
LAYER
  5
20D
100
AcDbSymbolTableRecord
100
AcDbLayerTableRecord
  2
20_DATUM_KINEMATIC_SCHEME
 70
0
 62
7
  6
CONTINUOUS
370
-3
390
F
  0
ENDTAB
  0
TABLE
  2
STYLE
  5
3
100
AcDbSymbolTable
 70
1
  0
STYLE
  5
11
100
AcDbSymbolTableRecord
100
AcDbTextStyleTableRecord
  2
STANDARD
 70
0
 40
0.0
 41
0.8
 50
0.0
 71
0
 42
0.2
  3
txt
  4

  0
STYLE
  5
20E
100
AcDbSymbolTableRecord
100
AcDbTextStyleTableRecord
  2
TEXTSTYLE_1
 70
0
 40
0.0
 41
0.8
 50
0.0
 71
0
 42
0.2
  3
gdt
  4

  0
ENDTAB
  0
TABLE
  2
VIEW
  5
6
100
AcDbSymbolTable
 70
0
  0
ENDTAB
  0
TABLE
  2
UCS
  5
7
100
AcDbSymbolTable
 70
0
  0
ENDTAB
  0
TABLE
  2
APPID
  5
9
100
AcDbSymbolTable
 70
1
  0
APPID
  5
20F
100
AcDbSymbolTableRecord
100
AcDbRegAppTableRecord
  2
ACAD
 70
0
  0
ENDTAB
  0
TABLE
  2
BLOCK_RECORD
  5
1
100
AcDbSymbolTable
 70
0
  0
BLOCK_RECORD
  5
210
100
AcDbSymbolTableRecord
100
AcDbBlockTableRecord
  2
*Model_Space
  0
BLOCK_RECORD
  5
211
100
AcDbSymbolTableRecord
100
AcDbBlockTableRecord
  2
*Paper_Space
  0
BLOCK_RECORD
  5
212
100
AcDbSymbolTableRecord
100
AcDbBlockTableRecord
  2
_FILLED
  0
ENDTAB
  0
TABLE
  2
DIMSTYLE
  5
A
100
AcDbSymbolTable
 70
1
100
AcDbDimStyleTable
 71
0
  0
DIMSTYLE
105
213
100
AcDbSymbolTableRecord
100
AcDbDimStyleTableRecord
  2
STANDARD
 70
0
  3

  4

 40
1.0
 41
2.9284992925
 42
1.0
 43
0.38
 44
1.0
 45
0.0
 46
0.0
 47
0.01
 48
0.01
140
4.0998990095
141
0.09
142
0.0
143
25.4
144
1.0
145
0.0
146
1.0
147
0.625
 71
1
 72
0
 73
0
 74
0
 75
0
 76
0
 77
1
 78
8
 79
2
170
0
171
1
172
0
173
0
174
0
175
0
176
0
177
0
178
0
270
2
179
2
271
2
272
2
273
2
274
2
275
0
280
0
281
0
282
0
283
1
284
8
285
0
286
0
287
3
288
0
340
11
278
46
341
212
342
212
343
212
344
212
  0
ENDTAB
  0
ENDSEC
  0
SECTION
  2
BLOCKS
  0
BLOCK
  5
20
100
AcDbEntity
  8
0
100
AcDbBlockBegin
  2
*Model_Space
 70
0
 10
0.0
 20
0.0
 30
0.0
  3
*Model_Space
  1

  0
ENDBLK
  5
21
100
AcDbEntity
  8
0
100
AcDbBlockEnd
  0
BLOCK
  5
1C
100
AcDbEntity
  8
0
100
AcDbBlockBegin
  2
*Paper_Space
 70
0
 10
0.0
 20
0.0
 30
0.0
  3
*Paper_Space
  1

  0
ENDBLK
  5
1D
100
AcDbEntity
  8
0
100
AcDbBlockEnd
  0
BLOCK
  5
214
100
AcDbEntity
  8
0
100
AcDbBlockBegin
  2
_FILLED
 70
64
 10
0.0
 20
0.0
  3
_FILLED
  1

  0
SOLID
  5
215
100
AcDbEntity
  8
0
  6
BYBLOCK
 62
0
100
AcDbTrace
 10
0.0
 20
0.0
 11
-1.0
 21
0.25
 12
-1.0
 22
-0.25
 13
-1.0
 23
-0.25
  0
ENDBLK
  5
216
100
AcDbEntity
  8
0
  6
BYBLOCK
 62
0
100
AcDbBlockEnd
  0
ENDSEC
  0
SECTION
  2
ENTITIES
  0
LINE
  5
217
100
AcDbEntity
  8
0
100
AcDbLine
 62
7
  6
CONTINUOUS
 10
27.3974192072
 20
136.1020781653
 11
27.3974192072
 21
117.4585101884
  0
LINE
  5
218
100
AcDbEntity
  8
0
100
AcDbLine
 62
7
  6
CONTINUOUS
 10
29.8358192072
 20
117.4585101884
 11
29.8358192072
 21
136.1020781653
  0
LINE
  5
219
100
AcDbEntity
  8
0
100
AcDbLine
 62
7
  6
CONTINUOUS
 10
30.2930192072
 20
114.2327101884
 11
30.2930192072
 21
116.6711101884
  0
LINE
  5
21A
100
AcDbEntity
  8
0
100
AcDbLine
 62
7
  6
CONTINUOUS
 10
31.8170192072
 20
116.6711101884
 11
31.8170192072
 21
114.2327101884
  0
LINE
  5
21B
100
AcDbEntity
  8
0
100
AcDbLine
 62
7
  6
CONTINUOUS
 10
42.3874688069
 20
179.6894537089
 11
42.3874688069
 21
160.6768722889
  0
LINE
  5
21C
100
AcDbEntity
  8
0
100
AcDbLine
 62
7
  6
CONTINUOUS
 10
45.5080135225
 20
116.6711101884
 11
44.8481021648
 21
117.0521101884
  0
LINE
  5
21D
100
AcDbEntity
  8
0
100
AcDbLine
 62
7
  6
CONTINUOUS
 10
45.2790192072
 20
117.7984803995
 11
45.9007968077
 21
117.4394969345
  0
LINE
  5
21E
100
AcDbEntity
  8
0
100
AcDbLine
 62
7
  6
CONTINUOUS
 10
45.9007968077
 20
114.2327101884
 11
45.9007968077
 21
120.9129101884
  0
LINE
  5
21F
100
AcDbEntity
  8
0
100
AcDbLine
 62
7
  6
CONTINUOUS
 10
47.1205302069
 20
215.2623277884
 11
47.1205302069
 21
192.6563277884
  0
LINE
  5
220
100
AcDbEntity
  8
0
100
AcDbLine
 62
7
  6
CONTINUOUS
 10
47.2261688077
 20
120.8621101884
 11
47.2261688077
 21
190.0644101884
  0
LINE
  5
221
100
AcDbEntity
  8
0
100
AcDbLine
 62
7
  6
CONTINUOUS
 10
47.4247968077
 20
116.3409101884
 11
47.4247968077
 21
114.2327101884
  0
LINE
  5
222
100
AcDbEntity
  8
0
100
AcDbLine
 62
7
  6
CONTINUOUS
 10
47.4293688069
 20
192.4531277884
 11
47.4293688069
 21
190.0644101884
  0
LINE
  5
223
100
AcDbEntity
  8
0
100
AcDbLine
 62
7
  6
CONTINUOUS
 10
48.8985302069
 20
195.1455277885
 11
48.8985302069
 21
215.2623277884
  0
LINE
  5
224
100
AcDbEntity
  8
0
100
AcDbLine
 62
7
  6
CONTINUOUS
 10
49.3343633092
 20
172.5638101884
 11
49.3343633092
 21
190.0644101884
  0
LINE
  5
225
100
AcDbEntity
  8
0
100
AcDbLine
 62
7
  6
CONTINUOUS
 10
49.8169688069
 20
190.0644101884
 11
49.8169688069
 21
192.4531277884
  0
LINE
  5
226
100
AcDbEntity
  8
0
100
AcDbLine
 62
7
  6
CONTINUOUS
 10
50.1685302069
 20
192.6563277884
 11
50.1685302069
 21
192.4531277884
  0
LINE
  5
227
100
AcDbEntity
  8
0
100
AcDbLine
 62
7
  6
CONTINUOUS
 10
51.6457688069
 20
216.6786499535
 11
51.6457688069
 21
190.0644101884
  0
LINE
  5
228
100
AcDbEntity
  8
0
100
AcDbLine
 62
7
  6
CONTINUOUS
 10
52.6744633092
 20
173.7957101884
 11
52.6744633092
 21
180.4275580076
  0
LINE
  5
229
100
AcDbEntity
  8
0
100
AcDbLine
 62
7
  6
CONTINUOUS
 10
52.6744633092
 20
182.1075893397
 11
52.6744633092
 21
190.0644101884
  0
LINE
  5
22A
100
AcDbEntity
  8
0
100
AcDbLine
 62
7
  6
CONTINUOUS
 10
53.8301688069
 20
172.5638101884
 11
53.8301688069
 21
179.3807745662
  0
LINE
  5
22B
100
AcDbEntity
  8
0
100
AcDbLine
 62
7
  6
CONTINUOUS
 10
53.8301688069
 20
180.5365707576
 11
53.8301688069
 21
180.7477703147
  0
LINE
  5
22C
100
AcDbEntity
  8
0
100
AcDbLine
 62
7
  6
CONTINUOUS
 10
53.8301688069
 20
183.1448574123
 11
53.8301688069
 21
211.619335032
  0
LINE
  5
22D
100
AcDbEntity
  8
0
100
AcDbLine
 62
7
  6
CONTINUOUS
 10
54.0761628131
 20
172.5638101884
 11
54.0761628131
 21
178.7395734503
  0
LINE
  5
22E
100
AcDbEntity
  8
0
100
AcDbLine
 62
7
  6
CONTINUOUS
 10
54.2619180069
 20
173.1929597132
 11
54.2619180069
 21
172.5638101884
  0
LINE
  5
22F
100
AcDbEntity
  8
0
100
AcDbLine
 62
7
  6
CONTINUOUS
 10
54.5921633092
 20
124.0879101884
 11
54.5921633092
 21
120.8621101884
  0
LINE
  5
230
100
AcDbEntity
  8
0
100
AcDbLine
 62
7
  6
CONTINUOUS
 10
54.6429688069
 20
122.5371445851
 11
54.6429688069
 21
121.2442277884
  0
LINE
  5
231
100
AcDbEntity
  8
0
100
AcDbLine
 62
7
  6
CONTINUOUS
 10
56.023230207
 20
184.0144901343
 11
56.023230207
 21
203.3009872479
  0
LINE
  5
232
100
AcDbEntity
  8
0
100
AcDbLine
 62
7
  6
CONTINUOUS
 10
56.0994302069
 20
191.9959277884
 11
56.0994302069
 21
190.5735277884
  0
LINE
  5
233
100
AcDbEntity
  8
0
100
AcDbLine
 62
7
  6
CONTINUOUS
 10
56.0994302069
 20
187.6779277884
 11
56.0994302069
 21
186.2555277884
  0
LINE
  5
234
100
AcDbEntity
  8
0
100
AcDbLine
 62
7
  6
CONTINUOUS
 10
56.9289180069
 20
173.1929597132
 11
56.9289180069
 21
172.5638101884
  0
LINE
  5
235
100
AcDbEntity
  8
0
100
AcDbLine
 62
7
  6
CONTINUOUS
 10
57.4877180069
 20
176.0483963958
 11
57.4877180069
 21
172.0979213894
  0
LINE
  5
236
100
AcDbEntity
  8
0
100
AcDbLine
 62
7
  6
CONTINUOUS
 10
54.7053581775
 20
179.6674276924
 11
54.7534309035
 21
179.2579034973
  0
LINE
  5
237
100
AcDbEntity
  8
0
100
AcDbLine
 62
7
  6
CONTINUOUS
 10
54.704388558
 20
179.252466404
 11
54.740434028
 21
178.9273378311
  0
LINE
  5
238
100
AcDbEntity
  8
0
100
AcDbLine
 62
7
  6
CONTINUOUS
 10
58.9500025983
 20
179.262446553
 11
58.9500025983
 21
177.7368338213
  0
LINE
  5
239
100
AcDbEntity
  8
0
100
AcDbLine
 62
7
  6
CONTINUOUS
 10
59.0625180069
 20
177.7454762417
 11
59.0625180069
 21
177.6093448834
  0
LINE
  5
23A
100
AcDbEntity
  8
0
100
AcDbLine
 62
7
  6
CONTINUOUS
 10
59.0625180069
 20
166.3188388206
 11
59.0625180069
 21
174.2245442615
  0
LINE
  5
23B
100
AcDbEntity
  8
0
100
AcDbLine
 62
7
  6
CONTINUOUS
 10
59.9769688069
 20
122.5364453785
 11
59.9769688069
 21
124.0879101884
  0
LINE
  5
23C
100
AcDbEntity
  8
0
100
AcDbLine
 62
7
  6
CONTINUOUS
 10
61.4501688069
 20
176.7705073884
 11
61.4501688069
 21
174.9039459683
  0
LINE
  5
23D
100
AcDbEntity
  8
0
100
AcDbLine
 62
7
  6
CONTINUOUS
 10
61.4501688069
 20
171.4592902563
 11
61.4501688069
 21
164.1382417639
  0
LINE
  5
23E
100
AcDbEntity
  8
0
100
AcDbLine
 62
7
  6
CONTINUOUS
 10
61.5009180069
 20
177.211858264
 11
61.5009180069
 21
177.7454762417
  0
LINE
  5
23F
100
AcDbEntity
  8
0
100
AcDbLine
 62
7
  6
CONTINUOUS
 10
62.2970302069
 20
186.2555277884
 11
62.2970302069
 21
187.6779277884
  0
LINE
  5
240
100
AcDbEntity
  8
0
100
AcDbLine
 62
7
  6
CONTINUOUS
 10
62.2970302069
 20
190.5735277884
 11
62.2970302069
 21
191.9959277884
  0
LINE
  5
241
100
AcDbEntity
  8
0
100
AcDbLine
 62
7
  6
CONTINUOUS
 10
62.373230207
 20
184.0144901343
 11
62.373230207
 21
203.3009872479
  0
LINE
  5
242
100
AcDbEntity
  8
0
100
AcDbLine
 62
7
  6
CONTINUOUS
 10
62.5130119868
 20
178.796564482
 11
62.5130119868
 21
179.262446553
  0
LINE
  5
243
100
AcDbEntity
  8
0
100
AcDbLine
 62
7
  6
CONTINUOUS
 10
62.5169688077
 20
164.0294101884
 11
62.5169688077
 21
157.3238101884
  0
LINE
  5
244
100
AcDbEntity
  8
0
100
AcDbLine
 62
7
  6
CONTINUOUS
 10
63.0249180069
 20
164.0294101884
 11
63.0249180069
 21
169.635496956
  0
LINE
  5
245
100
AcDbEntity
  8
0
100
AcDbLine
 62
7
  6
CONTINUOUS
 10
63.0249180069
 20
173.1196294439
 11
63.0249180069
 21
176.7705073884
  0
LINE
  5
246
100
AcDbEntity
  8
0
100
AcDbLine
 62
7
  6
CONTINUOUS
 10
63.1900633092
 20
149.0180101884
 11
63.1900633092
 21
157.3238101884
  0
LINE
  5
247
100
AcDbEntity
  8
0
100
AcDbLine
 62
7
  6
CONTINUOUS
 10
63.6091180069
 20
168.9589066481
 11
63.6091180069
 21
164.0294101884
  0
LINE
  5
248
100
AcDbEntity
  8
0
100
AcDbLine
 62
7
  6
CONTINUOUS
 10
63.6091180069
 20
172.4576842188
 11
63.6091180069
 21
173.1896596626
  0
LINE
  5
249
100
AcDbEntity
  8
0
100
AcDbLine
 62
7
  6
CONTINUOUS
 10
64.4918188077
 20
164.0294101884
 11
64.4918188077
 21
164.6644101884
  0
LINE
  5
24A
100
AcDbEntity
  8
0
100
AcDbLine
 62
7
  6
CONTINUOUS
 10
64.5566032535
 20
164.6644101884
 11
64.5566032535
 21
165.9344101884
  0
LINE
  5
24B
100
AcDbEntity
  8
0
100
AcDbLine
 62
7
  6
CONTINUOUS
 10
64.845760474
 20
174.5267861463
 11
64.845760474
 21
178.739574526
  0
LINE
  5
24C
100
AcDbEntity
  8
0
100
AcDbLine
 62
7
  6
CONTINUOUS
 10
64.9680692792
 20
157.2349101884
 11
64.9680692792
 21
156.384534992
  0
LINE
  5
24D
100
AcDbEntity
  8
0
100
AcDbLine
 62
7
  6
CONTINUOUS
 10
65.7344524939
 20
170.1036242894
 11
65.7344524939
 21
179.0258251396
  0
LINE
  5
24E
100
AcDbEntity
  8
0
100
AcDbLine
 62
7
  6
CONTINUOUS
 10
60.5645900412
 20
160.8066478691
 11
61.0511290874
 21
162.6224363092
  0
LINE
  5
24F
100
AcDbEntity
  8
0
100
AcDbLine
 62
7
  6
CONTINUOUS
 10
57.3607633092
 20
172.5638101884
 11
61.5136633092
 21
157.3238101884
  0
LINE
  5
250
100
AcDbEntity
  8
0
100
AcDbLine
 62
7
  6
CONTINUOUS
 10
65.9667968077
 20
114.2327101884
 11
65.9667968077
 21
116.3409101884
  0
LINE
  5
251
100
AcDbEntity
  8
0
100
AcDbLine
 62
7
  6
CONTINUOUS
 10
66.056230207
 20
195.1455277885
 11
66.056230207
 21
192.4531277884
  0
LINE
  5
252
100
AcDbEntity
  8
0
100
AcDbLine
 62
7
  6
CONTINUOUS
 10
66.1237688077
 20
138.4389101884
 11
66.1237688077
 21
152.6629101884
  0
LINE
  5
253
100
AcDbEntity
  8
0
100
AcDbLine
 62
7
  6
CONTINUOUS
 10
66.7079688072
 20
184.0144901343
 11
66.7079688072
 21
192.4531277884
  0
LINE
  5
254
100
AcDbEntity
  8
0
100
AcDbLine
 62
7
  6
CONTINUOUS
 10
67.4907968077
 20
114.2327101884
 11
67.4907968077
 21
120.9129101884
  0
LINE
  5
255
100
AcDbEntity
  8
0
100
AcDbLine
 62
7
  6
CONTINUOUS
 10
68.8669697507
 20
157.2349101884
 11
68.8669697507
 21
153.9710101884
  0
LINE
  5
256
100
AcDbEntity
  8
0
100
AcDbLine
 62
7
  6
CONTINUOUS
 10
70.767930207
 20
195.1455277885
 11
70.767930207
 21
215.2623277884
  0
LINE
  5
257
100
AcDbEntity
  8
0
100
AcDbLine
 62
7
  6
CONTINUOUS
 10
71.0467968077
 20
118.8047101884
 11
71.0467968077
 21
120.9129101884
  0
LINE
  5
258
100
AcDbEntity
  8
0
100
AcDbLine
 62
7
  6
CONTINUOUS
 10
71.6101688077
 20
138.4389101884
 11
71.6101688077
 21
152.6629101884
  0
LINE
  5
259
100
AcDbEntity
  8
0
100
AcDbLine
 62
7
  6
CONTINUOUS
 10
71.8756417132
 20
177.5267541788
 11
71.8756417132
 21
176.3929656457
  0
LINE
  5
25A
100
AcDbEntity
  8
0
100
AcDbLine
 62
7
  6
CONTINUOUS
 10
71.8756417132
 20
170.4725064905
 11
71.8756417132
 21
169.6749910637
  0
LINE
  5
25B
100
AcDbEntity
  8
0
100
AcDbLine
 62
7
  6
CONTINUOUS
 10
72.0691468077
 20
125.1039101884
 11
72.0691468077
 21
120.9129101884
  0
LINE
  5
25C
100
AcDbEntity
  8
0
100
AcDbLine
 62
7
  6
CONTINUOUS
 10
72.5459302071
 20
195.1455277885
 11
72.5459302071
 21
215.2623277884
  0
LINE
  5
25D
100
AcDbEntity
  8
0
100
AcDbLine
 62
7
  6
CONTINUOUS
 10
72.5707968077
 20
120.9129101884
 11
72.5707968077
 21
118.8047101884
  0
LINE
  5
25E
100
AcDbEntity
  8
0
100
AcDbLine
 62
7
  6
CONTINUOUS
 10
72.7658692792
 20
157.2349101884
 11
72.7658692792
 21
156.3843545403
  0
LINE
  5
25F
100
AcDbEntity
  8
0
100
AcDbLine
 62
7
  6
CONTINUOUS
 10
72.9129108959
 20
184.0144917407
 11
72.9129108959
 21
192.4531277884
  0
LINE
  5
260
100
AcDbEntity
  8
0
100
AcDbLine
 62
7
  6
CONTINUOUS
 10
73.177334362
 20
165.9344101884
 11
73.177334362
 21
164.6644101884
  0
LINE
  5
261
100
AcDbEntity
  8
0
100
AcDbLine
 62
7
  6
CONTINUOUS
 10
73.2421188077
 20
164.0294101884
 11
73.2421188077
 21
164.6644101884
  0
LINE
  5
262
100
AcDbEntity
  8
0
100
AcDbLine
 62
7
  6
CONTINUOUS
 10
62.0325097269
 20
162.3594761594
 11
61.0949388091
 21
158.8604138585
  0
LINE
  5
263
100
AcDbEntity
  8
0
100
AcDbLine
 62
7
  6
CONTINUOUS
 10
62.0325097269
 20
162.0303937594
 11
61.4563157828
 21
159.8800086848
  0
LINE
  5
264
100
AcDbEntity
  8
0
100
AcDbLine
 62
7
  6
CONTINUOUS
 10
128.4507968077
 20
114.2327101884
 11
88.8267968077
 21
114.2327101884
  0
LINE
  5
265
100
AcDbEntity
  8
0
100
AcDbLine
 62
7
  6
CONTINUOUS
 10
30.2930192072
 20
114.2327101884
 11
67.4907968077
 21
114.2327101884
  0
LINE
  5
266
100
AcDbEntity
  8
0
100
AcDbLine
 62
7
  6
CONTINUOUS
 10
149.7867968077
 20
114.2327101884
 11
185.7410192072
 21
114.2327101884
  0
LINE
  5
267
100
AcDbEntity
  8
0
100
AcDbLine
 62
7
  6
CONTINUOUS
 10
86.617049771
 20
114.8677101884
 11
90.7571438445
 21
114.8677101884
  0
LINE
  5
268
100
AcDbEntity
  8
0
100
AcDbLine
 62
7
  6
CONTINUOUS
 10
126.529593771
 20
114.8677101884
 11
130.6696878445
 21
114.8677101884
  0
LINE
  5
269
100
AcDbEntity
  8
0
100
AcDbLine
 62
7
  6
CONTINUOUS
 10
90.8472080577
 20
115.6678101884
 11
126.4395295577
 21
115.6678101884
  0
LINE
  5
26A
100
AcDbEntity
  8
0
100
AcDbLine
 62
7
  6
CONTINUOUS
 10
171.3767968077
 20
116.3409101884
 11
149.7867968077
 21
116.3409101884
  0
LINE
  5
26B
100
AcDbEntity
  8
0
100
AcDbLine
 62
7
  6
CONTINUOUS
 10
67.4907968077
 20
116.3409101884
 11
45.9007968077
 21
116.3409101884
  0
LINE
  5
26C
100
AcDbEntity
  8
0
100
AcDbLine
 62
7
  6
CONTINUOUS
 10
187.1126192072
 20
116.6711101884
 11
171.3767968077
 21
116.6711101884
  0
LINE
  5
26D
100
AcDbEntity
  8
0
100
AcDbLine
 62
7
  6
CONTINUOUS
 10
45.9007968077
 20
116.6711101884
 11
30.2930192072
 21
116.6711101884
  0
LINE
  5
26E
100
AcDbEntity
  8
0
100
AcDbLine
 62
7
  6
CONTINUOUS
 10
45.9007968077
 20
116.7219101884
 11
67.4907968077
 21
116.7219101884
  0
LINE
  5
26F
100
AcDbEntity
  8
0
100
AcDbLine
 62
7
  6
CONTINUOUS
 10
149.7867968077
 20
116.7219101884
 11
171.3767968077
 21
116.7219101884
  0
LINE
  5
270
100
AcDbEntity
  8
0
100
AcDbLine
 62
7
  6
CONTINUOUS
 10
86.2740968077
 20
117.9157101884
 11
91.1000968077
 21
117.9157101884
  0
LINE
  5
271
100
AcDbEntity
  8
0
100
AcDbLine
 62
7
  6
CONTINUOUS
 10
126.1866408077
 20
117.9157101884
 11
131.0126408077
 21
117.9157101884
  0
LINE
  5
272
100
AcDbEntity
  8
0
100
AcDbLine
 62
7
  6
CONTINUOUS
 10
126.1866408077
 20
118.4237101884
 11
91.1000968077
 21
118.4237101884
  0
LINE
  5
273
100
AcDbEntity
  8
0
100
AcDbLine
 62
7
  6
CONTINUOUS
 10
67.4907968077
 20
118.8047101884
 11
149.7867968077
 21
118.8047101884
  0
LINE
  5
274
100
AcDbEntity
  8
0
100
AcDbLine
 62
7
  6
CONTINUOUS
 10
187.1126192072
 20
119.1095101884
 11
171.3767968077
 21
119.1095101884
  0
LINE
  5
275
100
AcDbEntity
  8
0
100
AcDbLine
 62
7
  6
CONTINUOUS
 10
171.3767968077
 20
119.4778101884
 11
149.7867968077
 21
119.4778101884
  0
LINE
  5
276
100
AcDbEntity
  8
0
100
AcDbLine
 62
7
  6
CONTINUOUS
 10
67.4907968077
 20
119.4778101884
 11
45.9007968077
 21
119.4778101884
  0
LINE
  5
277
100
AcDbEntity
  8
0
100
AcDbLine
 62
7
  6
CONTINUOUS
 10
73.6125299759
 20
157.3238101884
 11
73.6125299759
 21
149.0180101884
  0
LINE
  5
278
100
AcDbEntity
  8
0
100
AcDbLine
 62
7
  6
CONTINUOUS
 10
75.2169688077
 20
157.3238101884
 11
75.2169688077
 21
164.0294101884
  0
LINE
  5
279
100
AcDbEntity
  8
0
100
AcDbLine
 62
7
  6
CONTINUOUS
 10
76.4361688069
 20
125.3336277884
 11
76.4361688069
 21
139.5576277884
  0
LINE
  5
27A
100
AcDbEntity
  8
0
100
AcDbLine
 62
7
  6
CONTINUOUS
 10
78.5543275185
 20
192.4531277884
 11
78.5543275185
 21
184.0144932346
  0
LINE
  5
27B
100
AcDbEntity
  8
0
100
AcDbLine
 62
7
  6
CONTINUOUS
 10
80.2860468077
 20
120.9129101884
 11
80.2860468077
 21
172.5638101884
  0
LINE
  5
27C
100
AcDbEntity
  8
0
100
AcDbLine
 62
7
  6
CONTINUOUS
 10
75.2623003511
 20
157.3238101884
 11
79.4152003511
 21
172.5638101884
  0
LINE
  5
27D
100
AcDbEntity
  8
0
100
AcDbLine
 62
7
  6
CONTINUOUS
 10
62.1346016806
 20
178.4228745147
 11
62.5082916479
 21
178.796564482
  0
LINE
  5
27E
100
AcDbEntity
  8
0
100
AcDbLine
 62
7
  6
CONTINUOUS
 10
63.6218180069
 20
177.683038123
 11
63.2464495582
 21
177.3076696742
  0
LINE
  5
27F
100
AcDbEntity
  8
0
100
AcDbLine
 62
7
  6
CONTINUOUS
 10
56.4938648626
 20
180.5198339003
 11
55.0655636501
 21
179.2592861438
  0
LINE
  5
280
100
AcDbEntity
  8
0
100
AcDbLine
 62
7
  6
CONTINUOUS
 10
191.0750192072
 20
120.6589101884
 11
188.6366192072
 21
120.6589101884
  0
LINE
  5
281
100
AcDbEntity
  8
0
100
AcDbLine
 62
7
  6
CONTINUOUS
 10
47.2261688077
 20
120.8621101884
 11
54.5921633092
 21
120.8621101884
  0
LINE
  5
282
100
AcDbEntity
  8
0
100
AcDbLine
 62
7
  6
CONTINUOUS
 10
162.2246633092
 20
120.8621101884
 11
170.0605688077
 21
120.8621101884
  0
LINE
  5
283
100
AcDbEntity
  8
0
100
AcDbLine
 62
7
  6
CONTINUOUS
 10
45.9007968077
 20
120.9129101884
 11
47.2261688077
 21
120.9129101884
  0
LINE
  5
284
100
AcDbEntity
  8
0
100
AcDbLine
 62
7
  6
CONTINUOUS
 10
54.5921633092
 20
120.9129101884
 11
162.2246633092
 21
120.9129101884
  0
LINE
  5
285
100
AcDbEntity
  8
0
100
AcDbLine
 62
7
  6
CONTINUOUS
 10
170.0605688077
 20
120.9129101884
 11
171.3767968077
 21
120.9129101884
  0
LINE
  5
286
100
AcDbEntity
  8
0
100
AcDbLine
 62
7
  6
CONTINUOUS
 10
120.1894468077
 20
121.2420941884
 11
97.0881468077
 21
121.2420941884
  0
LINE
  5
287
100
AcDbEntity
  8
0
100
AcDbLine
 62
7
  6
CONTINUOUS
 10
72.0691468077
 20
121.2420941884
 11
54.5921633092
 21
121.2420941884
  0
LINE
  5
288
100
AcDbEntity
  8
0
100
AcDbLine
 62
7
  6
CONTINUOUS
 10
145.2175908077
 20
121.2420941884
 11
162.2246633092
 21
121.2420941884
  0
LINE
  5
289
100
AcDbEntity
  8
0
100
AcDbLine
 62
7
  6
CONTINUOUS
 10
170.0605688077
 20
121.2442277884
 11
174.0991688069
 21
121.2442277884
  0
LINE
  5
28A
100
AcDbEntity
  8
0
100
AcDbLine
 62
7
  6
CONTINUOUS
 10
188.6366192072
 20
121.8527101884
 11
186.1982192072
 21
121.8527101884
  0
LINE
  5
28B
100
AcDbEntity
  8
0
100
AcDbLine
 62
7
  6
CONTINUOUS
 10
27.3974192072
 20
121.8527101884
 11
29.8358192072
 21
121.8527101884
  0
LINE
  5
28C
100
AcDbEntity
  8
0
100
AcDbLine
 62
7
  6
CONTINUOUS
 10
191.0750192072
 20
122.1829101884
 11
188.6366192072
 21
122.1829101884
  0
LINE
  5
28D
100
AcDbEntity
  8
0
100
AcDbLine
 62
7
  6
CONTINUOUS
 10
152.4421273152
 20
122.5142277884
 11
145.2175908077
 21
122.5142277884
  0
LINE
  5
28E
100
AcDbEntity
  8
0
100
AcDbLine
 62
7
  6
CONTINUOUS
 10
72.0691468077
 20
122.5142277884
 11
65.1359233936
 21
122.5142277884
  0
LINE
  5
28F
100
AcDbEntity
  8
0
100
AcDbLine
 62
7
  6
CONTINUOUS
 10
54.6429688069
 20
122.5364453785
 11
72.0691468077
 21
122.5364453785
  0
LINE
  5
290
100
AcDbEntity
  8
0
100
AcDbLine
 62
7
  6
CONTINUOUS
 10
145.2175908077
 20
122.5364453785
 11
162.2246633092
 21
122.5364453785
  0
LINE
  5
291
100
AcDbEntity
  8
0
100
AcDbLine
 62
7
  6
CONTINUOUS
 10
162.2246633092
 20
124.0879101884
 11
145.2175908077
 21
124.0879101884
  0
LINE
  5
292
100
AcDbEntity
  8
0
100
AcDbLine
 62
7
  6
CONTINUOUS
 10
120.1894468077
 20
124.0879101884
 11
97.0881468077
 21
124.0879101884
  0
LINE
  5
293
100
AcDbEntity
  8
0
100
AcDbLine
 62
7
  6
CONTINUOUS
 10
72.0691468077
 20
124.0879101884
 11
54.5921633092
 21
124.0879101884
  0
LINE
  5
294
100
AcDbEntity
  8
0
100
AcDbLine
 62
7
  6
CONTINUOUS
 10
188.6366192072
 20
124.6467101884
 11
186.1982192072
 21
124.6467101884
  0
LINE
  5
295
100
AcDbEntity
  8
0
100
AcDbLine
 62
7
  6
CONTINUOUS
 10
29.8358192072
 20
124.6467101884
 11
27.3974192072
 21
124.6467101884
  0
LINE
  5
296
100
AcDbEntity
  8
0
100
AcDbLine
 62
7
  6
CONTINUOUS
 10
145.2175908077
 20
125.1039101884
 11
136.9915468077
 21
125.1039101884
  0
LINE
  5
297
100
AcDbEntity
  8
0
100
AcDbLine
 62
7
  6
CONTINUOUS
 10
72.0691468077
 20
125.1039101884
 11
80.2860468077
 21
125.1039101884
  0
LINE
  5
298
100
AcDbEntity
  8
0
100
AcDbLine
 62
7
  6
CONTINUOUS
 10
76.4361688069
 20
125.3336277884
 11
81.9225688069
 21
125.3336277884
  0
LINE
  5
299
100
AcDbEntity
  8
0
100
AcDbLine
 62
7
  6
CONTINUOUS
 10
116.3395688069
 20
125.3336277884
 11
121.8259688069
 21
125.3336277884
  0
LINE
  5
29A
100
AcDbEntity
  8
0
100
AcDbLine
 62
7
  6
CONTINUOUS
 10
156.2429688069
 20
125.3336277884
 11
161.7293688069
 21
125.3336277884
  0
LINE
  5
29B
100
AcDbEntity
  8
0
100
AcDbLine
 62
7
  6
CONTINUOUS
 10
184.6996192072
 20
126.5009160993
 11
179.2894192072
 21
126.5009160993
  0
LINE
  5
29C
100
AcDbEntity
  8
0
100
AcDbLine
 62
7
  6
CONTINUOUS
 10
81.4036468077
 20
127.1867101884
 11
95.9705468077
 21
127.1867101884
  0
LINE
  5
29D
100
AcDbEntity
  8
0
100
AcDbLine
 62
7
  6
CONTINUOUS
 10
121.3070468077
 20
127.1867101884
 11
135.8739468077
 21
127.1867101884
  0
LINE
  5
29E
100
AcDbEntity
  8
0
100
AcDbLine
 62
7
  6
CONTINUOUS
 10
64.1417896736
 20
168.9751976848
 11
53.9310874768
 21
180.5447381909
  0
LINE
  5
29F
100
AcDbEntity
  8
0
100
AcDbLine
 62
7
  6
CONTINUOUS
 10
65.5700908862
 20
170.2357454412
 11
55.3593886893
 21
181.8052859474
  0
LINE
  5
2A0
100
AcDbEntity
  8
0
100
AcDbLine
 62
7
  6
CONTINUOUS
 10
54.7322610867
 20
179.2396244785
 11
54.8666282498
 21
179.0840073608
  0
LINE
  5
2A1
100
AcDbEntity
  8
0
100
AcDbLine
 62
7
  6
CONTINUOUS
 10
55.7418898992
 20
178.070324463
 11
63.8335224627
 21
168.6990129819
  0
LINE
  5
2A2
100
AcDbEntity
  8
0
100
AcDbLine
 62
7
  6
CONTINUOUS
 10
76.1195851721
 20
160.4698095316
 11
75.7014278886
 21
162.0303937594
  0
LINE
  5
2A3
100
AcDbEntity
  8
0
100
AcDbLine
 62
7
  6
CONTINUOUS
 10
76.1640450989
 20
160.6329652261
 11
75.7014278886
 21
162.3594761594
  0
LINE
  5
2A4
100
AcDbEntity
  8
0
100
AcDbLine
 62
7
  6
CONTINUOUS
 10
86.6169968077
 20
114.8677101884
 11
86.2740968077
 21
117.9157101884
  0
LINE
  5
2A5
100
AcDbEntity
  8
0
100
AcDbLine
 62
7
  6
CONTINUOUS
 10
81.4036468077
 20
127.1867101884
 11
81.4036468077
 21
172.5638101884
  0
LINE
  5
2A6
100
AcDbEntity
  8
0
100
AcDbLine
 62
7
  6
CONTINUOUS
 10
81.9225688069
 20
125.3336277884
 11
81.9225688069
 21
139.5576277884
  0
LINE
  5
2A7
100
AcDbEntity
  8
0
100
AcDbLine
 62
7
  6
CONTINUOUS
 10
83.3741056742
 20
184.502111044
 11
83.3741056742
 21
183.2575109959
  0
LINE
  5
2A8
100
AcDbEntity
  8
0
100
AcDbLine
 62
7
  6
CONTINUOUS
 10
83.3741056742
 20
179.2946068295
 11
83.3741056742
 21
172.3953131183
  0
LINE
  5
2A9
100
AcDbEntity
  8
0
100
AcDbLine
 62
7
  6
CONTINUOUS
 10
83.6370633092
 20
195.9064101884
 11
83.6370633092
 21
183.2581535905
  0
LINE
  5
2AA
100
AcDbEntity
  8
0
100
AcDbLine
 62
7
  6
CONTINUOUS
 10
83.6370633092
 20
179.3209899156
 11
83.6370633092
 21
173.7957101884
  0
LINE
  5
2AB
100
AcDbEntity
  8
0
100
AcDbLine
 62
7
  6
CONTINUOUS
 10
83.9037688069
 20
211.619335032
 11
83.9037688069
 21
195.9064101884
  0
LINE
  5
2AC
100
AcDbEntity
  8
0
100
AcDbLine
 62
7
  6
CONTINUOUS
 10
84.0515968077
 20
127.1867101884
 11
84.0515968077
 21
128.7107101884
  0
LINE
  5
2AD
100
AcDbEntity
  8
0
100
AcDbLine
 62
7
  6
CONTINUOUS
 10
86.0881688069
 20
195.9064101884
 11
86.0881688069
 21
216.6786499535
  0
LINE
  5
2AE
100
AcDbEntity
  8
0
100
AcDbLine
 62
7
  6
CONTINUOUS
 10
86.2740968077
 20
118.8047101884
 11
86.2740968077
 21
117.9157101884
  0
LINE
  5
2AF
100
AcDbEntity
  8
0
100
AcDbLine
 62
7
  6
CONTINUOUS
 10
87.4682299759
 20
195.9064101884
 11
87.4682299759
 21
172.5638101884
  0
LINE
  5
2B0
100
AcDbEntity
  8
0
100
AcDbLine
 62
7
  6
CONTINUOUS
 10
88.8267968077
 20
114.8677101884
 11
88.8267968077
 21
114.2327101884
  0
LINE
  5
2B1
100
AcDbEntity
  8
0
100
AcDbLine
 62
7
  6
CONTINUOUS
 10
82.9935035875
 20
179.2564202311
 11
83.032021593
 21
179.6038509668
  0
LINE
  5
2B2
100
AcDbEntity
  8
0
100
AcDbLine
 62
7
  6
CONTINUOUS
 10
82.9805067119
 20
178.9288210973
 11
83.0186164721
 21
179.2534723105
  0
LINE
  5
2B3
100
AcDbEntity
  8
0
100
AcDbLine
 62
7
  6
CONTINUOUS
 10
44.8481021648
 20
117.0521101884
 11
45.9007968077
 21
118.8754307948
  0
LINE
  5
2B4
100
AcDbEntity
  8
0
100
AcDbLine
 62
7
  6
CONTINUOUS
 10
82.4964686318
 20
181.8985049935
 11
72.4585324009
 21
170.2730849921
  0
LINE
  5
2B5
100
AcDbEntity
  8
0
100
AcDbLine
 62
7
  6
CONTINUOUS
 10
64.1417896736
 20
168.9751976848
 11
65.5700908862
 21
170.2357454412
  0
LINE
  5
2B6
100
AcDbEntity
  8
0
100
AcDbLine
 62
7
  6
CONTINUOUS
 10
63.8335224627
 20
168.6990129819
 11
64.1467423189
 21
168.9694617865
  0
LINE
  5
2B7
100
AcDbEntity
  8
0
100
AcDbLine
 62
7
  6
CONTINUOUS
 10
188.6366192072
 20
128.1011101884
 11
186.1982192072
 21
128.1011101884
  0
LINE
  5
2B8
100
AcDbEntity
  8
0
100
AcDbLine
 62
7
  6
CONTINUOUS
 10
29.8358192072
 20
128.1011101884
 11
27.3974192072
 21
128.1011101884
  0
LINE
  5
2B9
100
AcDbEntity
  8
0
100
AcDbLine
 62
7
  6
CONTINUOUS
 10
188.6366192072
 20
128.2789160993
 11
184.6996192072
 21
128.2789160993
  0
LINE
  5
2BA
100
AcDbEntity
  8
0
100
AcDbLine
 62
7
  6
CONTINUOUS
 10
179.2894192072
 20
128.2789160993
 11
170.8566192072
 21
128.2789160993
  0
LINE
  5
2BB
100
AcDbEntity
  8
0
100
AcDbLine
 62
7
  6
CONTINUOUS
 10
136.9915468077
 20
128.3678101884
 11
135.8739468077
 21
128.3678101884
  0
LINE
  5
2BC
100
AcDbEntity
  8
0
100
AcDbLine
 62
7
  6
CONTINUOUS
 10
121.3070468077
 20
128.3678101884
 11
120.1894468077
 21
128.3678101884
  0
LINE
  5
2BD
100
AcDbEntity
  8
0
100
AcDbLine
 62
7
  6
CONTINUOUS
 10
97.0881468077
 20
128.3678101884
 11
95.9705468077
 21
128.3678101884
  0
LINE
  5
2BE
100
AcDbEntity
  8
0
100
AcDbLine
 62
7
  6
CONTINUOUS
 10
81.4036468077
 20
128.3678101884
 11
80.2860468077
 21
128.3678101884
  0
LINE
  5
2BF
100
AcDbEntity
  8
0
100
AcDbLine
 62
7
  6
CONTINUOUS
 10
188.6366192072
 20
128.5329101884
 11
191.0750192072
 21
128.5329101884
  0
LINE
  5
2C0
100
AcDbEntity
  8
0
100
AcDbLine
 62
7
  6
CONTINUOUS
 10
133.2351408077
 20
128.7107101884
 11
123.9641408077
 21
128.7107101884
  0
LINE
  5
2C1
100
AcDbEntity
  8
0
100
AcDbLine
 62
7
  6
CONTINUOUS
 10
93.3225968077
 20
128.7107101884
 11
84.0515968077
 21
128.7107101884
  0
LINE
  5
2C2
100
AcDbEntity
  8
0
100
AcDbLine
 62
7
  6
CONTINUOUS
 10
170.8566192072
 20
128.8642277884
 11
170.1113688069
 21
128.8642277884
  0
LINE
  5
2C3
100
AcDbEntity
  8
0
100
AcDbLine
 62
7
  6
CONTINUOUS
 10
130.9971717785
 20
130.4252101884
 11
126.2705530269
 21
130.4252101884
  0
LINE
  5
2C4
100
AcDbEntity
  8
0
100
AcDbLine
 62
7
  6
CONTINUOUS
 10
91.0846277785
 20
130.4252101884
 11
86.3580090269
 21
130.4252101884
  0
LINE
  5
2C5
100
AcDbEntity
  8
0
100
AcDbLine
 62
7
  6
CONTINUOUS
 10
29.8358192072
 20
130.5141101884
 11
27.3974192072
 21
130.5141101884
  0
LINE
  5
2C6
100
AcDbEntity
  8
0
100
AcDbLine
 62
7
  6
CONTINUOUS
 10
188.6366192072
 20
132.9271101884
 11
186.1982192072
 21
132.9271101884
  0
LINE
  5
2C7
100
AcDbEntity
  8
0
100
AcDbLine
 62
7
  6
CONTINUOUS
 10
29.8358192072
 20
132.9271101884
 11
27.3974192072
 21
132.9271101884
  0
LINE
  5
2C8
100
AcDbEntity
  8
0
100
AcDbLine
 62
7
  6
CONTINUOUS
 10
174.0316192071
 20
133.3147141884
 11
182.7692192071
 21
133.3147141884
  0
LINE
  5
2C9
100
AcDbEntity
  8
0
100
AcDbLine
 62
7
  6
CONTINUOUS
 10
174.0316192071
 20
133.3909141884
 11
182.7692192071
 21
133.3909141884
  0
LINE
  5
2CA
100
AcDbEntity
  8
0
100
AcDbLine
 62
7
  6
CONTINUOUS
 10
191.0750192072
 20
133.8669101884
 11
188.6366192072
 21
133.8669101884
  0
LINE
  5
2CB
100
AcDbEntity
  8
0
100
AcDbLine
 62
7
  6
CONTINUOUS
 10
73.5513646242
 20
168.6821086166
 11
73.5921479418
 21
168.6461152848
  0
LINE
  5
2CC
100
AcDbEntity
  8
0
100
AcDbLine
 62
7
  6
CONTINUOUS
 10
58.0925254665
 20
178.7084238469
 11
58.3780851332
 21
178.4228641802
  0
LINE
  5
2CD
100
AcDbEntity
  8
0
100
AcDbLine
 62
7
  6
CONTINUOUS
 10
62.5082916479
 20
178.796564482
 11
63.6218180069
 21
177.683038123
  0
LINE
  5
2CE
100
AcDbEntity
  8
0
100
AcDbLine
 62
7
  6
CONTINUOUS
 10
89.5764299759
 20
195.9064101884
 11
89.5764299759
 21
190.0644101884
  0
LINE
  5
2CF
100
AcDbEntity
  8
0
100
AcDbLine
 62
7
  6
CONTINUOUS
 10
89.6309553092
 20
172.5638101884
 11
89.6309553092
 21
190.0644101884
  0
LINE
  5
2D0
100
AcDbEntity
  8
0
100
AcDbLine
 62
7
  6
CONTINUOUS
 10
91.1000968077
 20
118.8047101884
 11
91.1000968077
 21
117.9157101884
  0
LINE
  5
2D1
100
AcDbEntity
  8
0
100
AcDbLine
 62
7
  6
CONTINUOUS
 10
91.5491688069
 20
216.6786405675
 11
91.5491688069
 21
195.9064101884
  0
LINE
  5
2D2
100
AcDbEntity
  8
0
100
AcDbLine
 62
7
  6
CONTINUOUS
 10
93.0604633092
 20
195.9064101884
 11
93.0604633092
 21
182.7500367937
  0
LINE
  5
2D3
100
AcDbEntity
  8
0
100
AcDbLine
 62
7
  6
CONTINUOUS
 10
93.0604633092
 20
179.7699869325
 11
93.0604633092
 21
173.7957101885
  0
LINE
  5
2D4
100
AcDbEntity
  8
0
100
AcDbLine
 62
7
  6
CONTINUOUS
 10
93.3225968077
 20
127.1867101884
 11
93.3225968077
 21
128.7107101884
  0
LINE
  5
2D5
100
AcDbEntity
  8
0
100
AcDbLine
 62
7
  6
CONTINUOUS
 10
93.7335688069
 20
172.5638101884
 11
93.7335688069
 21
179.3807745662
  0
LINE
  5
2D6
100
AcDbEntity
  8
0
100
AcDbLine
 62
7
  6
CONTINUOUS
 10
93.7335688069
 20
180.5365707576
 11
93.7335688069
 21
180.7477703147
  0
LINE
  5
2D7
100
AcDbEntity
  8
0
100
AcDbLine
 62
7
  6
CONTINUOUS
 10
93.7335688069
 20
183.1448574123
 11
93.7335688069
 21
211.619325646
  0
LINE
  5
2D8
100
AcDbEntity
  8
0
100
AcDbLine
 62
7
  6
CONTINUOUS
 10
95.926630207
 20
192.4531277884
 11
95.926630207
 21
203.3009872479
  0
LINE
  5
2D9
100
AcDbEntity
  8
0
100
AcDbLine
 62
7
  6
CONTINUOUS
 10
95.9705468077
 20
127.1867101884
 11
95.9705468077
 21
172.5638101884
  0
LINE
  5
2DA
100
AcDbEntity
  8
0
100
AcDbLine
 62
7
  6
CONTINUOUS
 10
83.9383513837
 20
180.6535153833
 11
73.9004151528
 21
169.0280953819
  0
LINE
  5
2DB
100
AcDbEntity
  8
0
100
AcDbLine
 62
7
  6
CONTINUOUS
 10
73.5921479418
 20
168.6461152848
 11
81.9766104096
 21
178.1463804255
  0
LINE
  5
2DC
100
AcDbEntity
  8
0
100
AcDbLine
 62
7
  6
CONTINUOUS
 10
82.8522661484
 20
179.1385682637
 11
82.9725764731
 21
179.2748894636
  0
LINE
  5
2DD
100
AcDbEntity
  8
0
100
AcDbLine
 62
7
  6
CONTINUOUS
 10
27.3974192072
 20
136.1021101884
 11
29.8358192072
 21
136.1021101884
  0
LINE
  5
2DE
100
AcDbEntity
  8
0
100
AcDbLine
 62
7
  6
CONTINUOUS
 10
174.0316192071
 20
137.3147061884
 11
182.7692192071
 21
137.3147061884
  0
LINE
  5
2DF
100
AcDbEntity
  8
0
100
AcDbLine
 62
7
  6
CONTINUOUS
 10
174.0316192071
 20
137.3909061884
 11
182.7692192071
 21
137.3909061884
  0
LINE
  5
2E0
100
AcDbEntity
  8
0
100
AcDbLine
 62
7
  6
CONTINUOUS
 10
136.9915468077
 20
137.5753101884
 11
135.8739468077
 21
137.5753101884
  0
LINE
  5
2E1
100
AcDbEntity
  8
0
100
AcDbLine
 62
7
  6
CONTINUOUS
 10
121.3070468077
 20
137.5753101884
 11
120.1894468077
 21
137.5753101884
  0
LINE
  5
2E2
100
AcDbEntity
  8
0
100
AcDbLine
 62
7
  6
CONTINUOUS
 10
97.0881468077
 20
137.5753101884
 11
95.9705468077
 21
137.5753101884
  0
LINE
  5
2E3
100
AcDbEntity
  8
0
100
AcDbLine
 62
7
  6
CONTINUOUS
 10
81.4036468077
 20
137.5753101884
 11
80.2860468077
 21
137.5753101884
  0
LINE
  5
2E4
100
AcDbEntity
  8
0
100
AcDbLine
 62
7
  6
CONTINUOUS
 10
66.1237688077
 20
138.4389101884
 11
71.6101688077
 21
138.4389101884
  0
LINE
  5
2E5
100
AcDbEntity
  8
0
100
AcDbLine
 62
7
  6
CONTINUOUS
 10
106.0271688077
 20
138.4389101884
 11
111.5135688077
 21
138.4389101884
  0
LINE
  5
2E6
100
AcDbEntity
  8
0
100
AcDbLine
 62
7
  6
CONTINUOUS
 10
145.9305688077
 20
138.4389101884
 11
151.4169688077
 21
138.4389101884
  0
LINE
  5
2E7
100
AcDbEntity
  8
0
100
AcDbLine
 62
7
  6
CONTINUOUS
 10
179.2894192072
 20
138.6967424817
 11
184.6996192072
 21
138.6967424817
  0
LINE
  5
2E8
100
AcDbEntity
  8
0
100
AcDbLine
 62
7
  6
CONTINUOUS
 10
170.8225688078
 20
139.5438101884
 11
170.0605688077
 21
139.5438101884
  0
LINE
  5
2E9
100
AcDbEntity
  8
0
100
AcDbLine
 62
7
  6
CONTINUOUS
 10
76.4361688069
 20
139.5576277884
 11
81.9225688069
 21
139.5576277884
  0
LINE
  5
2EA
100
AcDbEntity
  8
0
100
AcDbLine
 62
7
  6
CONTINUOUS
 10
116.3395688069
 20
139.5576277884
 11
121.8259688069
 21
139.5576277884
  0
LINE
  5
2EB
100
AcDbEntity
  8
0
100
AcDbLine
 62
7
  6
CONTINUOUS
 10
156.2429688069
 20
139.5576277884
 11
161.7293688069
 21
139.5576277884
  0
LINE
  5
2EC
100
AcDbEntity
  8
0
100
AcDbLine
 62
7
  6
CONTINUOUS
 10
170.8566192072
 20
139.6810788498
 11
179.2894192072
 21
139.6810788498
  0
LINE
  5
2ED
100
AcDbEntity
  8
0
100
AcDbLine
 62
7
  6
CONTINUOUS
 10
184.6996192072
 20
139.6810788498
 11
188.6366192072
 21
139.6810788498
  0
LINE
  5
2EE
100
AcDbEntity
  8
0
100
AcDbLine
 62
7
  6
CONTINUOUS
 10
188.6366192072
 20
140.2169101884
 11
191.0750192072
 21
140.2169101884
  0
LINE
  5
2EF
100
AcDbEntity
  8
0
100
AcDbLine
 62
7
  6
CONTINUOUS
 10
188.6914108258
 20
141.7409101884
 11
191.2237499601
 21
141.7409101884
  0
LINE
  5
2F0
100
AcDbEntity
  8
0
100
AcDbLine
 62
7
  6
CONTINUOUS
 10
72.4585324009
 20
170.2730849921
 11
73.9004151528
 21
169.0280953819
  0
LINE
  5
2F1
100
AcDbEntity
  8
0
100
AcDbLine
 62
7
  6
CONTINUOUS
 10
94.6087581775
 20
179.6674276924
 11
94.6568309035
 21
179.2579034973
  0
LINE
  5
2F2
100
AcDbEntity
  8
0
100
AcDbLine
 62
7
  6
CONTINUOUS
 10
94.607788558
 20
179.252466404
 11
94.643834028
 21
178.9273378311
  0
LINE
  5
2F3
100
AcDbEntity
  8
0
100
AcDbLine
 62
7
  6
CONTINUOUS
 10
97.0881468077
 20
120.9129101884
 11
97.0881468077
 21
172.5638101884
  0
LINE
  5
2F4
100
AcDbEntity
  8
0
100
AcDbLine
 62
7
  6
CONTINUOUS
 10
99.2834688069
 20
166.5964212059
 11
99.2834688069
 21
174.3706074601
  0
LINE
  5
2F5
100
AcDbEntity
  8
0
100
AcDbLine
 62
7
  6
CONTINUOUS
 10
99.2834688069
 20
177.2495344832
 11
99.2834688069
 21
192.4531362551
  0
LINE
  5
2F6
100
AcDbEntity
  8
0
100
AcDbLine
 62
7
  6
CONTINUOUS
 10
99.8803688069
 20
121.2420941884
 11
99.8803688069
 21
124.0879101884
  0
LINE
  5
2F7
100
AcDbEntity
  8
0
100
AcDbLine
 62
7
  6
CONTINUOUS
 10
101.3535688069
 20
176.7705073884
 11
101.3535688069
 21
174.9039459683
  0
LINE
  5
2F8
100
AcDbEntity
  8
0
100
AcDbLine
 62
7
  6
CONTINUOUS
 10
101.3535688069
 20
171.4592902563
 11
101.3535688069
 21
164.1382417639
  0
LINE
  5
2F9
100
AcDbEntity
  8
0
100
AcDbLine
 62
7
  6
CONTINUOUS
 10
101.4043180069
 20
177.211858264
 11
101.4043180069
 21
177.7454762417
  0
LINE
  5
2FA
100
AcDbEntity
  8
0
100
AcDbLine
 62
7
  6
CONTINUOUS
 10
102.1370119869
 20
178.5218848209
 11
102.1370119869
 21
179.2624465529
  0
LINE
  5
2FB
100
AcDbEntity
  8
0
100
AcDbLine
 62
7
  6
CONTINUOUS
 10
102.2004302069
 20
186.2555277884
 11
102.2004302069
 21
187.6779277884
  0
LINE
  5
2FC
100
AcDbEntity
  8
0
100
AcDbLine
 62
7
  6
CONTINUOUS
 10
102.2004302069
 20
190.5735277884
 11
102.2004302069
 21
191.9959277884
  0
LINE
  5
2FD
100
AcDbEntity
  8
0
100
AcDbLine
 62
7
  6
CONTINUOUS
 10
102.276630207
 20
184.0144901343
 11
102.276630207
 21
203.3009872479
  0
LINE
  5
2FE
100
AcDbEntity
  8
0
100
AcDbLine
 62
7
  6
CONTINUOUS
 10
102.4203688077
 20
164.0294101884
 11
102.4203688077
 21
157.3238101884
  0
LINE
  5
2FF
100
AcDbEntity
  8
0
100
AcDbLine
 62
7
  6
CONTINUOUS
 10
102.9283180069
 20
164.0294101884
 11
102.9283180069
 21
169.635496956
  0
LINE
  5
300
100
AcDbEntity
  8
0
100
AcDbLine
 62
7
  6
CONTINUOUS
 10
102.9283180069
 20
173.1196294439
 11
102.9283180069
 21
176.7705073884
  0
LINE
  5
301
100
AcDbEntity
  8
0
100
AcDbLine
 62
7
  6
CONTINUOUS
 10
103.4866553092
 20
149.0180101884
 11
103.4866553092
 21
157.3238101884
  0
LINE
  5
302
100
AcDbEntity
  8
0
100
AcDbLine
 62
7
  6
CONTINUOUS
 10
103.5125180069
 20
168.9589066481
 11
103.5125180069
 21
164.0294101884
  0
LINE
  5
303
100
AcDbEntity
  8
0
100
AcDbLine
 62
7
  6
CONTINUOUS
 10
103.5125180069
 20
172.4576842188
 11
103.5125180069
 21
173.1896596626
  0
LINE
  5
304
100
AcDbEntity
  8
0
100
AcDbLine
 62
7
  6
CONTINUOUS
 10
90.7571968077
 20
114.8677101884
 11
91.1000968077
 21
117.9157101884
  0
LINE
  5
305
100
AcDbEntity
  8
0
100
AcDbLine
 62
7
  6
CONTINUOUS
 10
96.3972648626
 20
180.5198339003
 11
94.9689636501
 21
179.2592861438
  0
LINE
  5
306
100
AcDbEntity
  8
0
100
AcDbLine
 62
7
  6
CONTINUOUS
 10
170.8566192072
 20
147.9142277884
 11
170.8225688078
 21
147.9142277884
  0
LINE
  5
307
100
AcDbEntity
  8
0
100
AcDbLine
 62
7
  6
CONTINUOUS
 10
154.2057139759
 20
149.0180101884
 11
143.7832473092
 21
149.0180101884
  0
LINE
  5
308
100
AcDbEntity
  8
0
100
AcDbLine
 62
7
  6
CONTINUOUS
 10
113.9091219759
 20
149.0180101884
 11
103.4866553092
 21
149.0180101884
  0
LINE
  5
309
100
AcDbEntity
  8
0
100
AcDbLine
 62
7
  6
CONTINUOUS
 10
73.6125299759
 20
149.0180101884
 11
63.1900633092
 21
149.0180101884
  0
LINE
  5
30A
100
AcDbEntity
  8
0
100
AcDbLine
 62
7
  6
CONTINUOUS
 10
154.2057139759
 20
150.0340101884
 11
143.7832473092
 21
150.0340101884
  0
LINE
  5
30B
100
AcDbEntity
  8
0
100
AcDbLine
 62
7
  6
CONTINUOUS
 10
113.9091219759
 20
150.0340101884
 11
103.4866553092
 21
150.0340101884
  0
LINE
  5
30C
100
AcDbEntity
  8
0
100
AcDbLine
 62
7
  6
CONTINUOUS
 10
73.6125299759
 20
150.0340101884
 11
63.1900633092
 21
150.0340101884
  0
LINE
  5
30D
100
AcDbEntity
  8
0
100
AcDbLine
 62
7
  6
CONTINUOUS
 10
82.8178607345
 20
179.3558209065
 11
81.3759779825
 21
180.6008105168
  0
LINE
  5
30E
100
AcDbEntity
  8
0
100
AcDbLine
 62
7
  6
CONTINUOUS
 10
97.6573553092
 20
172.5638101884
 11
101.8102553092
 21
157.3238101884
  0
LINE
  5
30F
100
AcDbEntity
  8
0
100
AcDbLine
 62
7
  6
CONTINUOUS
 10
104.3952188077
 20
164.0294101884
 11
104.3952188077
 21
164.6644101884
  0
LINE
  5
310
100
AcDbEntity
  8
0
100
AcDbLine
 62
7
  6
CONTINUOUS
 10
104.4600032535
 20
164.6644101884
 11
104.4600032535
 21
165.9344101884
  0
LINE
  5
311
100
AcDbEntity
  8
0
100
AcDbLine
 62
7
  6
CONTINUOUS
 10
104.469760474
 20
174.4409078197
 11
104.469760474
 21
178.739574526
  0
LINE
  5
312
100
AcDbEntity
  8
0
100
AcDbLine
 62
7
  6
CONTINUOUS
 10
104.8714692792
 20
157.2349101884
 11
104.8714692792
 21
156.384534992
  0
LINE
  5
313
100
AcDbEntity
  8
0
100
AcDbLine
 62
7
  6
CONTINUOUS
 10
105.3584524939
 20
170.3660931209
 11
105.3584524939
 21
179.0258251396
  0
LINE
  5
314
100
AcDbEntity
  8
0
100
AcDbLine
 62
7
  6
CONTINUOUS
 10
105.959630207
 20
192.4531277885
 11
105.959630207
 21
195.1455277885
  0
LINE
  5
315
100
AcDbEntity
  8
0
100
AcDbLine
 62
7
  6
CONTINUOUS
 10
106.0271688077
 20
138.4389101884
 11
106.0271688077
 21
152.6629101884
  0
LINE
  5
316
100
AcDbEntity
  8
0
100
AcDbLine
 62
7
  6
CONTINUOUS
 10
106.2303688072
 20
184.0144901343
 11
106.2303688072
 21
192.4531277884
  0
LINE
  5
317
100
AcDbEntity
  8
0
100
AcDbLine
 62
7
  6
CONTINUOUS
 10
108.7703697507
 20
157.2349101884
 11
108.7703697507
 21
153.9710101884
  0
LINE
  5
318
100
AcDbEntity
  8
0
100
AcDbLine
 62
7
  6
CONTINUOUS
 10
109.3886192071
 20
184.0144909069
 11
109.3886192071
 21
192.4531277884
  0
LINE
  5
319
100
AcDbEntity
  8
0
100
AcDbLine
 62
7
  6
CONTINUOUS
 10
109.8331302069
 20
195.1455277884
 11
109.8331302069
 21
196.3647277884
  0
LINE
  5
31A
100
AcDbEntity
  8
0
100
AcDbLine
 62
7
  6
CONTINUOUS
 10
110.671330207
 20
197.7301506604
 11
110.671330207
 21
215.2623277884
  0
LINE
  5
31B
100
AcDbEntity
  8
0
100
AcDbLine
 62
7
  6
CONTINUOUS
 10
111.4996417132
 20
177.5267541788
 11
111.4996417132
 21
176.3929656457
  0
LINE
  5
31C
100
AcDbEntity
  8
0
100
AcDbLine
 62
7
  6
CONTINUOUS
 10
111.4996417132
 20
170.4725064905
 11
111.4996417132
 21
169.5644129147
  0
LINE
  5
31D
100
AcDbEntity
  8
0
100
AcDbLine
 62
7
  6
CONTINUOUS
 10
111.5135688077
 20
138.4389101884
 11
111.5135688077
 21
152.6629101884
  0
LINE
  5
31E
100
AcDbEntity
  8
0
100
AcDbLine
 62
7
  6
CONTINUOUS
 10
100.6629306209
 20
161.5341760169
 11
100.9545290874
 21
162.6224363092
  0
LINE
  5
31F
100
AcDbEntity
  8
0
100
AcDbLine
 62
7
  6
CONTINUOUS
 10
101.9359097269
 20
162.3594761594
 11
101.1932793888
 21
159.5879420064
  0
LINE
  5
320
100
AcDbEntity
  8
0
100
AcDbLine
 62
7
  6
CONTINUOUS
 10
101.9359097269
 20
162.0303937594
 11
101.4199948756
 21
160.1049733221
  0
LINE
  5
321
100
AcDbEntity
  8
0
100
AcDbLine
 62
7
  6
CONTINUOUS
 10
102.0380016806
 20
178.4228745147
 11
102.4116916479
 21
178.796564482
  0
LINE
  5
322
100
AcDbEntity
  8
0
100
AcDbLine
 62
7
  6
CONTINUOUS
 10
103.5252180069
 20
177.683038123
 11
103.1498495582
 21
177.3076696742
  0
LINE
  5
323
100
AcDbEntity
  8
0
100
AcDbLine
 62
7
  6
CONTINUOUS
 10
66.1237688077
 20
152.6629101884
 11
71.6101688077
 21
152.6629101884
  0
LINE
  5
324
100
AcDbEntity
  8
0
100
AcDbLine
 62
7
  6
CONTINUOUS
 10
106.0271688077
 20
152.6629101884
 11
111.5135688077
 21
152.6629101884
  0
LINE
  5
325
100
AcDbEntity
  8
0
100
AcDbLine
 62
7
  6
CONTINUOUS
 10
145.9305688077
 20
152.6629101884
 11
151.4169688077
 21
152.6629101884
  0
LINE
  5
326
100
AcDbEntity
  8
0
100
AcDbLine
 62
7
  6
CONTINUOUS
 10
197.8060192072
 20
154.6949101884
 11
195.1390192072
 21
154.6949101884
  0
LINE
  5
327
100
AcDbEntity
  8
0
100
AcDbLine
 62
7
  6
CONTINUOUS
 10
202.9114192072
 20
156.4475101884
 11
224.9840192072
 21
156.4475101884
  0
LINE
  5
328
100
AcDbEntity
  8
0
100
AcDbLine
 62
7
  6
CONTINUOUS
 10
195.1390192072
 20
156.6752901021
 11
192.7006192072
 21
156.6752901021
  0
LINE
  5
329
100
AcDbEntity
  8
0
100
AcDbLine
 62
7
  6
CONTINUOUS
 10
64.9680692792
 20
157.2349101884
 11
72.7658692792
 21
157.2349101884
  0
LINE
  5
32A
100
AcDbEntity
  8
0
100
AcDbLine
 62
7
  6
CONTINUOUS
 10
104.8714692792
 20
157.2349101884
 11
112.6692692792
 21
157.2349101884
  0
LINE
  5
32B
100
AcDbEntity
  8
0
100
AcDbLine
 62
7
  6
CONTINUOUS
 10
144.7748692792
 20
157.2349101884
 11
152.5726692792
 21
157.2349101884
  0
LINE
  5
32C
100
AcDbEntity
  8
0
100
AcDbLine
 62
7
  6
CONTINUOUS
 10
155.8554843511
 20
157.3238101884
 11
154.2057139759
 21
157.3238101884
  0
LINE
  5
32D
100
AcDbEntity
  8
0
100
AcDbLine
 62
7
  6
CONTINUOUS
 10
143.7832473092
 20
157.3238101884
 11
142.1068473092
 21
157.3238101884
  0
LINE
  5
32E
100
AcDbEntity
  8
0
100
AcDbLine
 62
7
  6
CONTINUOUS
 10
115.5588923511
 20
157.3238101884
 11
113.9091219759
 21
157.3238101884
  0
LINE
  5
32F
100
AcDbEntity
  8
0
100
AcDbLine
 62
7
  6
CONTINUOUS
 10
103.4866553092
 20
157.3238101884
 11
101.8102553092
 21
157.3238101884
  0
LINE
  5
330
100
AcDbEntity
  8
0
100
AcDbLine
 62
7
  6
CONTINUOUS
 10
75.2623003511
 20
157.3238101884
 11
73.6125299759
 21
157.3238101884
  0
LINE
  5
331
100
AcDbEntity
  8
0
100
AcDbLine
 62
7
  6
CONTINUOUS
 10
63.1900633092
 20
157.3238101884
 11
61.5136633092
 21
157.3238101884
  0
LINE
  5
332
100
AcDbEntity
  8
0
100
AcDbLine
 62
7
  6
CONTINUOUS
 10
192.7006192072
 20
157.3414652676
 11
195.1390192072
 21
157.3414652676
  0
LINE
  5
333
100
AcDbEntity
  8
0
100
AcDbLine
 62
7
  6
CONTINUOUS
 10
104.0451896736
 20
168.9751976848
 11
93.8344874768
 21
180.5447381909
  0
LINE
  5
334
100
AcDbEntity
  8
0
100
AcDbLine
 62
7
  6
CONTINUOUS
 10
105.4734908862
 20
170.2357454412
 11
95.2627886893
 21
181.8052859474
  0
LINE
  5
335
100
AcDbEntity
  8
0
100
AcDbLine
 62
7
  6
CONTINUOUS
 10
99.2834688069
 20
173.8567733037
 11
103.7369224627
 21
168.6990129819
  0
LINE
  5
336
100
AcDbEntity
  8
0
100
AcDbLine
 62
7
  6
CONTINUOUS
 10
112.4493302071
 20
197.9395277884
 11
112.4493302071
 21
215.2623277884
  0
LINE
  5
337
100
AcDbEntity
  8
0
100
AcDbLine
 62
7
  6
CONTINUOUS
 10
112.6692692792
 20
157.2349101884
 11
112.6692692792
 21
156.3843545403
  0
LINE
  5
338
100
AcDbEntity
  8
0
100
AcDbLine
 62
7
  6
CONTINUOUS
 10
113.080734362
 20
165.9344101884
 11
113.080734362
 21
164.6644101884
  0
LINE
  5
339
100
AcDbEntity
  8
0
100
AcDbLine
 62
7
  6
CONTINUOUS
 10
113.1455188077
 20
164.0294101884
 11
113.1455188077
 21
164.6644101884
  0
LINE
  5
33A
100
AcDbEntity
  8
0
100
AcDbLine
 62
7
  6
CONTINUOUS
 10
113.9091219759
 20
157.3238101884
 11
113.9091219759
 21
149.0180101884
  0
LINE
  5
33B
100
AcDbEntity
  8
0
100
AcDbLine
 62
7
  6
CONTINUOUS
 10
115.1203688077
 20
157.3238101884
 11
115.1203688077
 21
164.0294101884
  0
LINE
  5
33C
100
AcDbEntity
  8
0
100
AcDbLine
 62
7
  6
CONTINUOUS
 10
116.3395688069
 20
125.3336277884
 11
116.3395688069
 21
139.5576277884
  0
LINE
  5
33D
100
AcDbEntity
  8
0
100
AcDbLine
 62
7
  6
CONTINUOUS
 10
117.6603688069
 20
124.0879101884
 11
117.6603688069
 21
121.2420941884
  0
LINE
  5
33E
100
AcDbEntity
  8
0
100
AcDbLine
 62
7
  6
CONTINUOUS
 10
117.8341302069
 20
195.1455277884
 11
117.8341302069
 21
196.3647277884
  0
LINE
  5
33F
100
AcDbEntity
  8
0
100
AcDbLine
 62
7
  6
CONTINUOUS
 10
118.2572688069
 20
167.2261091088
 11
118.2572688069
 21
174.1858557018
  0
LINE
  5
340
100
AcDbEntity
  8
0
100
AcDbLine
 62
7
  6
CONTINUOUS
 10
118.2572688069
 20
177.1007595453
 11
118.2572688069
 21
192.4531362551
  0
LINE
  5
341
100
AcDbEntity
  8
0
100
AcDbLine
 62
7
  6
CONTINUOUS
 10
122.3998686318
 20
181.8985049935
 11
112.3619324009
 21
170.2730849921
  0
LINE
  5
342
100
AcDbEntity
  8
0
100
AcDbLine
 62
7
  6
CONTINUOUS
 10
123.8417513837
 20
180.6535153833
 11
113.8038151528
 21
169.0280953819
  0
LINE
  5
343
100
AcDbEntity
  8
0
100
AcDbLine
 62
7
  6
CONTINUOUS
 10
113.4955479418
 20
168.6461152848
 11
118.2572688069
 21
174.0415250583
  0
LINE
  5
344
100
AcDbEntity
  8
0
100
AcDbLine
 62
7
  6
CONTINUOUS
 10
104.0451896736
 20
168.9751976848
 11
105.4734908862
 21
170.2357454412
  0
LINE
  5
345
100
AcDbEntity
  8
0
100
AcDbLine
 62
7
  6
CONTINUOUS
 10
103.7369224627
 20
168.6990129819
 11
104.0501423189
 21
168.9694617865
  0
LINE
  5
346
100
AcDbEntity
  8
0
100
AcDbLine
 62
7
  6
CONTINUOUS
 10
191.0115192072
 20
158.7589101884
 11
188.6366192072
 21
158.7589101884
  0
LINE
  5
347
100
AcDbEntity
  8
0
100
AcDbLine
 62
7
  6
CONTINUOUS
 10
170.8566192072
 20
158.7589101884
 11
170.8225688078
 21
158.7589101884
  0
LINE
  5
348
100
AcDbEntity
  8
0
100
AcDbLine
 62
7
  6
CONTINUOUS
 10
224.9840192072
 20
159.2669101884
 11
202.9114192072
 21
159.2669101884
  0
LINE
  5
349
100
AcDbEntity
  8
0
100
AcDbLine
 62
7
  6
CONTINUOUS
 10
42.3874688069
 20
160.6768722889
 11
47.2261688077
 21
160.6768722889
  0
LINE
  5
34A
100
AcDbEntity
  8
0
100
AcDbLine
 62
7
  6
CONTINUOUS
 10
198.0092192071
 20
160.9179101884
 11
200.6000192072
 21
160.9179101884
  0
LINE
  5
34B
100
AcDbEntity
  8
0
100
AcDbLine
 62
7
  6
CONTINUOUS
 10
157.0280349453
 20
161.6267481487
 11
156.7564023666
 21
161.6267481487
  0
LINE
  5
34C
100
AcDbEntity
  8
0
100
AcDbLine
 62
7
  6
CONTINUOUS
 10
155.616384404
 20
161.6267481487
 11
155.0237688077
 21
161.6267481487
  0
LINE
  5
34D
100
AcDbEntity
  8
0
100
AcDbLine
 62
7
  6
CONTINUOUS
 10
151.5467702849
 20
161.6267481487
 11
146.0829180069
 21
161.6267481487
  0
LINE
  5
34E
100
AcDbEntity
  8
0
100
AcDbLine
 62
7
  6
CONTINUOUS
 10
115.712984404
 20
161.6267481487
 11
115.1203688077
 21
161.6267481487
  0
LINE
  5
34F
100
AcDbEntity
  8
0
100
AcDbLine
 62
7
  6
CONTINUOUS
 10
111.6433702849
 20
161.6267481487
 11
106.1795180069
 21
161.6267481487
  0
LINE
  5
350
100
AcDbEntity
  8
0
100
AcDbLine
 62
7
  6
CONTINUOUS
 10
75.809584404
 20
161.6267481487
 11
75.2169688077
 21
161.6267481487
  0
LINE
  5
351
100
AcDbEntity
  8
0
100
AcDbLine
 62
7
  6
CONTINUOUS
 10
71.7399702849
 20
161.6267481487
 11
66.2761180069
 21
161.6267481487
  0
LINE
  5
352
100
AcDbEntity
  8
0
100
AcDbLine
 62
7
  6
CONTINUOUS
 10
66.6608068144
 20
162.1244101884
 11
71.0726415109
 21
162.1244101884
  0
LINE
  5
353
100
AcDbEntity
  8
0
100
AcDbLine
 62
7
  6
CONTINUOUS
 10
106.5642068144
 20
162.1244101884
 11
110.9760415109
 21
162.1244101884
  0
LINE
  5
354
100
AcDbEntity
  8
0
100
AcDbLine
 62
7
  6
CONTINUOUS
 10
146.4676068144
 20
162.1244101884
 11
150.8794415109
 21
162.1244101884
  0
LINE
  5
355
100
AcDbEntity
  8
0
100
AcDbLine
 62
7
  6
CONTINUOUS
 10
200.6254192072
 20
162.2359186865
 11
200.6000192072
 21
162.2359186865
  0
LINE
  5
356
100
AcDbEntity
  8
0
100
AcDbLine
 62
7
  6
CONTINUOUS
 10
198.0092192071
 20
162.2359186865
 11
197.8060192072
 21
162.2359186865
  0
LINE
  5
357
100
AcDbEntity
  8
0
100
AcDbLine
 62
7
  6
CONTINUOUS
 10
198.0092192071
 20
162.5054101884
 11
197.8060192072
 21
162.5054101884
  0
LINE
  5
358
100
AcDbEntity
  8
0
100
AcDbLine
 62
7
  6
CONTINUOUS
 10
184.6996192072
 20
163.0769240353
 11
179.2894192072
 21
163.0769240353
  0
LINE
  5
359
100
AcDbEntity
  8
0
100
AcDbLine
 62
7
  6
CONTINUOUS
 10
155.0237688077
 20
164.0294101884
 11
142.3237688077
 21
164.0294101884
  0
LINE
  5
35A
100
AcDbEntity
  8
0
100
AcDbLine
 62
7
  6
CONTINUOUS
 10
115.1203688077
 20
164.0294101884
 11
102.4203688077
 21
164.0294101884
  0
LINE
  5
35B
100
AcDbEntity
  8
0
100
AcDbLine
 62
7
  6
CONTINUOUS
 10
75.2169688077
 20
164.0294101884
 11
62.5169688077
 21
164.0294101884
  0
LINE
  5
35C
100
AcDbEntity
  8
0
100
AcDbLine
 62
7
  6
CONTINUOUS
 10
205.0450192072
 20
164.0929101884
 11
201.8700192072
 21
164.0929101884
  0
LINE
  5
35D
100
AcDbEntity
  8
0
100
AcDbLine
 62
7
  6
CONTINUOUS
 10
191.9386192072
 20
164.0929863884
 11
191.3588134949
 21
164.0929863884
  0
LINE
  5
35E
100
AcDbEntity
  8
0
100
AcDbLine
 62
7
  6
CONTINUOUS
 10
179.2894192072
 20
164.3491218442
 11
170.8566192072
 21
164.3491218442
  0
LINE
  5
35F
100
AcDbEntity
  8
0
100
AcDbLine
 62
7
  6
CONTINUOUS
 10
184.6996192072
 20
164.3491218442
 11
188.6366192072
 21
164.3491218442
  0
LINE
  5
360
100
AcDbEntity
  8
0
100
AcDbLine
 62
7
  6
CONTINUOUS
 10
153.0489000246
 20
164.6644101884
 11
152.984134362
 21
164.6644101884
  0
LINE
  5
361
100
AcDbEntity
  8
0
100
AcDbLine
 62
7
  6
CONTINUOUS
 10
144.3634032535
 20
164.6644101884
 11
144.2986375909
 21
164.6644101884
  0
LINE
  5
362
100
AcDbEntity
  8
0
100
AcDbLine
 62
7
  6
CONTINUOUS
 10
113.1455000246
 20
164.6644101884
 11
113.080734362
 21
164.6644101884
  0
LINE
  5
363
100
AcDbEntity
  8
0
100
AcDbLine
 62
7
  6
CONTINUOUS
 10
104.4600032535
 20
164.6644101884
 11
104.3952375909
 21
164.6644101884
  0
LINE
  5
364
100
AcDbEntity
  8
0
100
AcDbLine
 62
7
  6
CONTINUOUS
 10
73.2421000246
 20
164.6644101884
 11
73.177334362
 21
164.6644101884
  0
LINE
  5
365
100
AcDbEntity
  8
0
100
AcDbLine
 62
7
  6
CONTINUOUS
 10
64.5566032535
 20
164.6644101884
 11
64.4918375909
 21
164.6644101884
  0
LINE
  5
366
100
AcDbEntity
  8
0
100
AcDbLine
 62
7
  6
CONTINUOUS
 10
201.8700192072
 20
165.6804101884
 11
200.6254192072
 21
165.6804101884
  0
LINE
  5
367
100
AcDbEntity
  8
0
100
AcDbLine
 62
7
  6
CONTINUOUS
 10
191.9386192072
 20
165.7241132829
 11
191.9132192071
 21
165.7241132829
  0
LINE
  5
368
100
AcDbEntity
  8
0
100
AcDbLine
 62
7
  6
CONTINUOUS
 10
73.177334362
 20
165.8282940073
 11
77.5797721918
 21
165.8282940073
  0
LINE
  5
369
100
AcDbEntity
  8
0
100
AcDbLine
 62
7
  6
CONTINUOUS
 10
113.080734362
 20
165.8282940073
 11
117.8763641918
 21
165.8282940073
  0
LINE
  5
36A
100
AcDbEntity
  8
0
100
AcDbLine
 62
7
  6
CONTINUOUS
 10
152.984134362
 20
165.8282940073
 11
158.019757242
 21
165.8282940073
  0
LINE
  5
36B
100
AcDbEntity
  8
0
100
AcDbLine
 62
7
  6
CONTINUOUS
 10
152.984134362
 20
165.9344101884
 11
144.3634032535
 21
165.9344101884
  0
LINE
  5
36C
100
AcDbEntity
  8
0
100
AcDbLine
 62
7
  6
CONTINUOUS
 10
113.080734362
 20
165.9344101884
 11
104.4600032535
 21
165.9344101884
  0
LINE
  5
36D
100
AcDbEntity
  8
0
100
AcDbLine
 62
7
  6
CONTINUOUS
 10
73.177334362
 20
165.9344101884
 11
64.5566032535
 21
165.9344101884
  0
LINE
  5
36E
100
AcDbEntity
  8
0
100
AcDbLine
 62
7
  6
CONTINUOUS
 10
191.9132192071
 20
166.0344574063
 11
191.9386192072
 21
166.0344574063
  0
LINE
  5
36F
100
AcDbEntity
  8
0
100
AcDbLine
 62
7
  6
CONTINUOUS
 10
112.3619324009
 20
170.2730849921
 11
113.8038151528
 21
169.0280953819
  0
LINE
  5
370
100
AcDbEntity
  8
0
100
AcDbLine
 62
7
  6
CONTINUOUS
 10
113.4547646242
 20
168.6821086166
 11
113.4955479418
 21
168.6461152848
  0
LINE
  5
371
100
AcDbEntity
  8
0
100
AcDbLine
 62
7
  6
CONTINUOUS
 10
102.4116916479
 20
178.796564482
 11
103.5252180069
 21
177.683038123
  0
LINE
  5
372
100
AcDbEntity
  8
0
100
AcDbLine
 62
7
  6
CONTINUOUS
 10
116.04369527
 20
160.3925183942
 11
115.6048278886
 21
162.0303937594
  0
LINE
  5
373
100
AcDbEntity
  8
0
100
AcDbLine
 62
7
  6
CONTINUOUS
 10
116.2623856786
 20
159.9054370782
 11
115.6048278886
 21
162.3594761594
  0
LINE
  5
374
100
AcDbEntity
  8
0
100
AcDbLine
 62
7
  6
CONTINUOUS
 10
116.5862085281
 20
162.6224363092
 11
116.7927344465
 21
161.8516710888
  0
LINE
  5
375
100
AcDbEntity
  8
0
100
AcDbLine
 62
7
  6
CONTINUOUS
 10
120.1894468077
 20
120.9129101884
 11
120.1894468077
 21
172.5638101884
  0
LINE
  5
376
100
AcDbEntity
  8
0
100
AcDbLine
 62
7
  6
CONTINUOUS
 10
121.3070468077
 20
127.1867101884
 11
121.3070468077
 21
172.5638101884
  0
LINE
  5
377
100
AcDbEntity
  8
0
100
AcDbLine
 62
7
  6
CONTINUOUS
 10
121.8259688069
 20
125.3336277884
 11
121.8259688069
 21
139.5576277884
  0
LINE
  5
378
100
AcDbEntity
  8
0
100
AcDbLine
 62
7
  6
CONTINUOUS
 10
122.723630207
 20
192.4531277885
 11
122.723630207
 21
195.1455277885
  0
LINE
  5
379
100
AcDbEntity
  8
0
100
AcDbLine
 62
7
  6
CONTINUOUS
 10
123.8071688069
 20
211.619325646
 11
123.8071688069
 21
183.1438824996
  0
LINE
  5
37A
100
AcDbEntity
  8
0
100
AcDbLine
 62
7
  6
CONTINUOUS
 10
123.8071688069
 20
180.6535153833
 11
123.8071688069
 21
180.5797618542
  0
LINE
  5
37B
100
AcDbEntity
  8
0
100
AcDbLine
 62
7
  6
CONTINUOUS
 10
123.8071688069
 20
179.3788003467
 11
123.8071688069
 21
172.6459507282
  0
LINE
  5
37C
100
AcDbEntity
  8
0
100
AcDbLine
 62
7
  6
CONTINUOUS
 10
123.9641408077
 20
127.1867101884
 11
123.9641408077
 21
128.7107101884
  0
LINE
  5
37D
100
AcDbEntity
  8
0
100
AcDbLine
 62
7
  6
CONTINUOUS
 10
123.9685414124
 20
195.9064101884
 11
123.9685414124
 21
190.0644101884
  0
LINE
  5
37E
100
AcDbEntity
  8
0
100
AcDbLine
 62
7
  6
CONTINUOUS
 10
124.0230633092
 20
173.7957101883
 11
124.0230633092
 21
179.5024976809
  0
LINE
  5
37F
100
AcDbEntity
  8
0
100
AcDbLine
 62
7
  6
CONTINUOUS
 10
124.0230633092
 20
181.5524581677
 11
124.0230633092
 21
181.6995663333
  0
LINE
  5
380
100
AcDbEntity
  8
0
100
AcDbLine
 62
7
  6
CONTINUOUS
 10
124.0230633092
 20
183.0406691555
 11
124.0230633092
 21
190.0644101884
  0
LINE
  5
381
100
AcDbEntity
  8
0
100
AcDbLine
 62
7
  6
CONTINUOUS
 10
125.9915688069
 20
195.9064101884
 11
125.9915688069
 21
216.6786405675
  0
LINE
  5
382
100
AcDbEntity
  8
0
100
AcDbLine
 62
7
  6
CONTINUOUS
 10
126.1866408077
 20
118.8047101884
 11
126.1866408077
 21
117.9157101884
  0
LINE
  5
383
100
AcDbEntity
  8
0
100
AcDbLine
 62
7
  6
CONTINUOUS
 10
122.8969035875
 20
179.2564202311
 11
122.935421593
 21
179.6038509668
  0
LINE
  5
384
100
AcDbEntity
  8
0
100
AcDbLine
 62
7
  6
CONTINUOUS
 10
122.8839067119
 20
178.9288210973
 11
122.9220164721
 21
179.2534723105
  0
LINE
  5
385
100
AcDbEntity
  8
0
100
AcDbLine
 62
7
  6
CONTINUOUS
 10
115.5588923511
 20
157.3238101884
 11
119.7117923511
 21
172.5638101884
  0
LINE
  5
386
100
AcDbEntity
  8
0
100
AcDbLine
 62
7
  6
CONTINUOUS
 10
136.3006648626
 20
180.5198339003
 11
134.8723636501
 21
179.2592861438
  0
LINE
  5
387
100
AcDbEntity
  8
0
100
AcDbLine
 62
7
  6
CONTINUOUS
 10
191.9386192072
 20
166.6781669796
 11
191.9132192071
 21
166.6781669796
  0
LINE
  5
388
100
AcDbEntity
  8
0
100
AcDbLine
 62
7
  6
CONTINUOUS
 10
207.8608124949
 20
167.2679101884
 11
205.0450192072
 21
167.2679101884
  0
LINE
  5
389
100
AcDbEntity
  8
0
100
AcDbLine
 62
7
  6
CONTINUOUS
 10
191.9132192071
 20
167.5260428926
 11
191.9386192072
 21
167.5260428926
  0
LINE
  5
38A
100
AcDbEntity
  8
0
100
AcDbLine
 62
7
  6
CONTINUOUS
 10
200.6508192071
 20
168.0299101884
 11
200.6000192072
 21
168.0299101884
  0
LINE
  5
38B
100
AcDbEntity
  8
0
100
AcDbLine
 62
7
  6
CONTINUOUS
 10
192.7006192071
 20
168.4429141884
 11
200.6508192071
 21
168.4429141884
  0
LINE
  5
38C
100
AcDbEntity
  8
0
100
AcDbLine
 62
7
  6
CONTINUOUS
 10
200.6000192072
 20
168.4617101884
 11
193.2340192071
 21
168.4617101884
  0
LINE
  5
38D
100
AcDbEntity
  8
0
100
AcDbLine
 62
7
  6
CONTINUOUS
 10
191.9386192072
 20
168.4739636151
 11
191.9132192071
 21
168.4739636151
  0
LINE
  5
38E
100
AcDbEntity
  8
0
100
AcDbLine
 62
7
  6
CONTINUOUS
 10
191.9386192072
 20
168.6409805787
 11
191.9132192071
 21
168.6409805787
  0
LINE
  5
38F
100
AcDbEntity
  8
0
100
AcDbLine
 62
7
  6
CONTINUOUS
 10
73.7600260192
 20
168.8363345448
 11
78.3994632382
 21
168.8363345448
  0
LINE
  5
390
100
AcDbEntity
  8
0
100
AcDbLine
 62
7
  6
CONTINUOUS
 10
113.6634260192
 20
168.8363345448
 11
118.2572688069
 21
168.8363345448
  0
LINE
  5
391
100
AcDbEntity
  8
0
100
AcDbLine
 62
7
  6
CONTINUOUS
 10
153.5668260192
 20
168.8363345448
 11
158.9818834221
 21
168.8363345448
  0
LINE
  5
392
100
AcDbEntity
  8
0
100
AcDbLine
 62
7
  6
CONTINUOUS
 10
143.4165905111
 20
168.9581277884
 11
142.8317180069
 21
168.9581277884
  0
LINE
  5
393
100
AcDbEntity
  8
0
100
AcDbLine
 62
7
  6
CONTINUOUS
 10
103.5131905111
 20
168.9581277884
 11
102.9283180069
 21
168.9581277884
  0
LINE
  5
394
100
AcDbEntity
  8
0
100
AcDbLine
 62
7
  6
CONTINUOUS
 10
63.6097905111
 20
168.9581277884
 11
63.0249180069
 21
168.9581277884
  0
LINE
  5
395
100
AcDbEntity
  8
0
100
AcDbLine
 62
7
  6
CONTINUOUS
 10
191.9132192071
 20
169.7992006152
 11
191.9386192072
 21
169.7992006152
  0
LINE
  5
396
100
AcDbEntity
  8
0
100
AcDbLine
 62
7
  6
CONTINUOUS
 10
191.9386192072
 20
170.2224240774
 11
191.9132192071
 21
170.2224240774
  0
LINE
  5
397
100
AcDbEntity
  8
0
100
AcDbLine
 62
7
  6
CONTINUOUS
 10
142.3200036564
 20
170.2281381234
 11
141.2569688069
 21
170.2281381234
  0
LINE
  5
398
100
AcDbEntity
  8
0
100
AcDbLine
 62
7
  6
CONTINUOUS
 10
138.8693180069
 20
170.2281381234
 11
138.5904179469
 21
170.2281381234
  0
LINE
  5
399
100
AcDbEntity
  8
0
100
AcDbLine
 62
7
  6
CONTINUOUS
 10
102.4166036564
 20
170.2281381234
 11
101.3535688069
 21
170.2281381234
  0
LINE
  5
39A
100
AcDbEntity
  8
0
100
AcDbLine
 62
7
  6
CONTINUOUS
 10
62.5132036564
 20
170.2281381234
 11
61.4501688069
 21
170.2281381234
  0
LINE
  5
39B
100
AcDbEntity
  8
0
100
AcDbLine
 62
7
  6
CONTINUOUS
 10
59.0625180069
 20
170.2281381234
 11
57.9972339469
 21
170.2281381234
  0
LINE
  5
39C
100
AcDbEntity
  8
0
100
AcDbLine
 62
7
  6
CONTINUOUS
 10
158.9818834221
 20
170.4725064905
 11
155.0108301671
 21
170.4725064905
  0
LINE
  5
39D
100
AcDbEntity
  8
0
100
AcDbLine
 62
7
  6
CONTINUOUS
 10
152.4375223332
 20
170.4725064905
 11
151.1236417132
 21
170.4725064905
  0
LINE
  5
39E
100
AcDbEntity
  8
0
100
AcDbLine
 62
7
  6
CONTINUOUS
 10
118.2572688069
 20
170.4725064905
 11
115.1074301671
 21
170.4725064905
  0
LINE
  5
39F
100
AcDbEntity
  8
0
100
AcDbLine
 62
7
  6
CONTINUOUS
 10
112.5341223332
 20
170.4725064905
 11
111.4996417132
 21
170.4725064905
  0
LINE
  5
3A0
100
AcDbEntity
  8
0
100
AcDbLine
 62
7
  6
CONTINUOUS
 10
78.8453200934
 20
170.4725064905
 11
75.2040301671
 21
170.4725064905
  0
LINE
  5
3A1
100
AcDbEntity
  8
0
100
AcDbLine
 62
7
  6
CONTINUOUS
 10
72.6307223332
 20
170.4725064905
 11
71.8756417132
 21
170.4725064905
  0
LINE
  5
3A2
100
AcDbEntity
  8
0
100
AcDbLine
 62
7
  6
CONTINUOUS
 10
191.9386192072
 20
170.6633962996
 11
191.9132192071
 21
170.6633962996
  0
LINE
  5
3A3
100
AcDbEntity
  8
0
100
AcDbLine
 62
7
  6
CONTINUOUS
 10
191.9386192072
 20
171.0866197616
 11
191.9132192071
 21
171.0866197616
  0
LINE
  5
3A4
100
AcDbEntity
  8
0
100
AcDbLine
 62
7
  6
CONTINUOUS
 10
191.9132192071
 20
172.2448397981
 11
191.9386192072
 21
172.2448397981
  0
LINE
  5
3A5
100
AcDbEntity
  8
0
100
AcDbLine
 62
7
  6
CONTINUOUS
 10
191.9386192072
 20
172.4118567618
 11
191.9132192071
 21
172.4118567618
  0
LINE
  5
3A6
100
AcDbEntity
  8
0
100
AcDbLine
 62
7
  6
CONTINUOUS
 10
200.6000192072
 20
172.4241101884
 11
193.2340192071
 21
172.4241101884
  0
LINE
  5
3A7
100
AcDbEntity
  8
0
100
AcDbLine
 62
7
  6
CONTINUOUS
 10
192.7006192071
 20
172.4429061884
 11
200.6508192071
 21
172.4429061884
  0
LINE
  5
3A8
100
AcDbEntity
  8
0
100
AcDbLine
 62
7
  6
CONTINUOUS
 10
168.0614139759
 20
172.5638101884
 11
160.0083843511
 21
172.5638101884
  0
LINE
  5
3A9
100
AcDbEntity
  8
0
100
AcDbLine
 62
7
  6
CONTINUOUS
 10
57.3607633092
 20
172.5638101884
 11
49.3343633092
 21
172.5638101884
  0
LINE
  5
3AA
100
AcDbEntity
  8
0
100
AcDbLine
 62
7
  6
CONTINUOUS
 10
79.4152003511
 20
172.5638101884
 11
87.4682299759
 21
172.5638101884
  0
LINE
  5
3AB
100
AcDbEntity
  8
0
100
AcDbLine
 62
7
  6
CONTINUOUS
 10
89.6309553092
 20
172.5638101884
 11
97.6573553092
 21
172.5638101884
  0
LINE
  5
3AC
100
AcDbEntity
  8
0
100
AcDbLine
 62
7
  6
CONTINUOUS
 10
119.7117923511
 20
172.5638101884
 11
127.7648219759
 21
172.5638101884
  0
LINE
  5
3AD
100
AcDbEntity
  8
0
100
AcDbLine
 62
7
  6
CONTINUOUS
 10
129.9275473092
 20
172.5638101884
 11
137.9539473092
 21
172.5638101884
  0
LINE
  5
3AE
100
AcDbEntity
  8
0
100
AcDbLine
 62
7
  6
CONTINUOUS
 10
200.6508192071
 20
172.8559101884
 11
200.6000192072
 21
172.8559101884
  0
LINE
  5
3AF
100
AcDbEntity
  8
0
100
AcDbLine
 62
7
  6
CONTINUOUS
 10
42.3874688069
 20
173.1089330943
 11
47.2261688077
 21
173.1089330943
  0
LINE
  5
3B0
100
AcDbEntity
  8
0
100
AcDbLine
 62
7
  6
CONTINUOUS
 10
191.9386192072
 20
173.3597774842
 11
191.9132192071
 21
173.3597774842
  0
LINE
  5
3B1
100
AcDbEntity
  8
0
100
AcDbLine
 62
7
  6
CONTINUOUS
 10
207.8608124949
 20
173.6179101884
 11
205.0450192072
 21
173.6179101884
  0
LINE
  5
3B2
100
AcDbEntity
  8
0
100
AcDbLine
 62
7
  6
CONTINUOUS
 10
191.0115192072
 20
165.7850494205
 11
191.9132192071
 21
165.7693101884
  0
LINE
  5
3B3
100
AcDbEntity
  8
0
100
AcDbLine
 62
7
  6
CONTINUOUS
 10
65.5745005008
 20
179.0417190494
 11
65.7344524939
 21
179.0258251396
  0
LINE
  5
3B4
100
AcDbEntity
  8
0
100
AcDbLine
 62
7
  6
CONTINUOUS
 10
126.5295408077
 20
114.8677101884
 11
126.1866408077
 21
117.9157101884
  0
LINE
  5
3B5
100
AcDbEntity
  8
0
100
AcDbLine
 62
7
  6
CONTINUOUS
 10
127.6557747457
 20
195.9064101884
 11
127.6557747457
 21
190.0644101884
  0
LINE
  5
3B6
100
AcDbEntity
  8
0
100
AcDbLine
 62
7
  6
CONTINUOUS
 10
127.7102966425
 20
190.0644101884
 11
127.7102966425
 21
172.5638101884
  0
LINE
  5
3B7
100
AcDbEntity
  8
0
100
AcDbLine
 62
7
  6
CONTINUOUS
 10
127.7648219759
 20
172.5638101884
 11
127.7648219759
 21
190.0644101884
  0
LINE
  5
3B8
100
AcDbEntity
  8
0
100
AcDbLine
 62
7
  6
CONTINUOUS
 10
128.4507968077
 20
114.2327101884
 11
128.4507968077
 21
114.8677101884
  0
LINE
  5
3B9
100
AcDbEntity
  8
0
100
AcDbLine
 62
7
  6
CONTINUOUS
 10
129.8184966425
 20
195.9064101884
 11
129.8184966425
 21
190.0644101884
  0
LINE
  5
3BA
100
AcDbEntity
  8
0
100
AcDbLine
 62
7
  6
CONTINUOUS
 10
129.9275473092
 20
172.5638101884
 11
129.9275473092
 21
190.0644101884
  0
LINE
  5
3BB
100
AcDbEntity
  8
0
100
AcDbLine
 62
7
  6
CONTINUOUS
 10
131.0126408077
 20
118.8047101884
 11
131.0126408077
 21
117.9157101884
  0
LINE
  5
3BC
100
AcDbEntity
  8
0
100
AcDbLine
 62
7
  6
CONTINUOUS
 10
131.4525688069
 20
216.671725657
 11
131.4525688069
 21
195.9064101884
  0
LINE
  5
3BD
100
AcDbEntity
  8
0
100
AcDbLine
 62
7
  6
CONTINUOUS
 10
133.2351408077
 20
127.1867101884
 11
133.2351408077
 21
128.7107101884
  0
LINE
  5
3BE
100
AcDbEntity
  8
0
100
AcDbLine
 62
7
  6
CONTINUOUS
 10
133.4464633092
 20
195.9064101884
 11
133.4464633092
 21
183.0525819849
  0
LINE
  5
3BF
100
AcDbEntity
  8
0
100
AcDbLine
 62
7
  6
CONTINUOUS
 10
133.4464633092
 20
181.7887565291
 11
133.4464633092
 21
180.8235491743
  0
LINE
  5
3C0
100
AcDbEntity
  8
0
100
AcDbLine
 62
7
  6
CONTINUOUS
 10
133.4464633092
 20
179.4889145942
 11
133.4464633092
 21
173.7957101885
  0
LINE
  5
3C1
100
AcDbEntity
  8
0
100
AcDbLine
 62
7
  6
CONTINUOUS
 10
133.6369688069
 20
195.9064101884
 11
133.6369688069
 21
211.6124107355
  0
LINE
  5
3C2
100
AcDbEntity
  8
0
100
AcDbLine
 62
7
  6
CONTINUOUS
 10
133.6496743063
 20
172.5638101884
 11
133.6496743063
 21
179.3735623174
  0
LINE
  5
3C3
100
AcDbEntity
  8
0
100
AcDbLine
 62
7
  6
CONTINUOUS
 10
133.6496743063
 20
180.5252694767
 11
133.6496743063
 21
180.7222088946
  0
LINE
  5
3C4
100
AcDbEntity
  8
0
100
AcDbLine
 62
7
  6
CONTINUOUS
 10
133.6496743063
 20
181.6298518468
 11
133.6496743063
 21
181.9897204253
  0
LINE
  5
3C5
100
AcDbEntity
  8
0
100
AcDbLine
 62
7
  6
CONTINUOUS
 10
133.6496743063
 20
183.1510115936
 11
133.6496743063
 21
195.9064101884
  0
LINE
  5
3C6
100
AcDbEntity
  8
0
100
AcDbLine
 62
7
  6
CONTINUOUS
 10
134.0687180069
 20
173.1929597132
 11
134.0687180069
 21
172.5638101884
  0
LINE
  5
3C7
100
AcDbEntity
  8
0
100
AcDbLine
 62
7
  6
CONTINUOUS
 10
141.9414016806
 20
178.4228745147
 11
142.3150916479
 21
178.796564482
  0
LINE
  5
3C8
100
AcDbEntity
  8
0
100
AcDbLine
 62
7
  6
CONTINUOUS
 10
191.0115192072
 20
175.1007709564
 11
191.9132192071
 21
175.1165101884
  0
LINE
  5
3C9
100
AcDbEntity
  8
0
100
AcDbLine
 62
7
  6
CONTINUOUS
 10
71.8756417132
 20
174.0021862068
 11
75.6784143653
 21
174.0021862068
  0
LINE
  5
3CA
100
AcDbEntity
  8
0
100
AcDbLine
 62
7
  6
CONTINUOUS
 10
78.3191502892
 20
174.0021862068
 11
79.7338834221
 21
174.0021862068
  0
LINE
  5
3CB
100
AcDbEntity
  8
0
100
AcDbLine
 62
7
  6
CONTINUOUS
 10
111.4996417132
 20
174.0021862068
 11
115.5818143653
 21
174.0021862068
  0
LINE
  5
3CC
100
AcDbEntity
  8
0
100
AcDbLine
 62
7
  6
CONTINUOUS
 10
118.2225502892
 20
174.0021862068
 11
118.2572688069
 21
174.0021862068
  0
LINE
  5
3CD
100
AcDbEntity
  8
0
100
AcDbLine
 62
7
  6
CONTINUOUS
 10
151.1236417132
 20
174.0021862068
 11
155.4852143653
 21
174.0021862068
  0
LINE
  5
3CE
100
AcDbEntity
  8
0
100
AcDbLine
 62
7
  6
CONTINUOUS
 10
158.1259502892
 20
174.0021862068
 11
158.9818834221
 21
174.0021862068
  0
LINE
  5
3CF
100
AcDbEntity
  8
0
100
AcDbLine
 62
7
  6
CONTINUOUS
 10
191.9132192071
 20
174.2076533973
 11
191.9386192072
 21
174.2076533973
  0
LINE
  5
3D0
100
AcDbEntity
  8
0
100
AcDbLine
 62
7
  6
CONTINUOUS
 10
170.8225688078
 20
174.5958101884
 11
170.0605688077
 21
174.5958101884
  0
LINE
  5
3D1
100
AcDbEntity
  8
0
100
AcDbLine
 62
7
  6
CONTINUOUS
 10
191.9386192072
 20
174.8513629705
 11
191.9132192071
 21
174.8513629705
  0
LINE
  5
3D2
100
AcDbEntity
  8
0
100
AcDbLine
 62
7
  6
CONTINUOUS
 10
191.9132192071
 20
175.1617070939
 11
191.9386192072
 21
175.1617070939
  0
LINE
  5
3D3
100
AcDbEntity
  8
0
100
AcDbLine
 62
7
  6
CONTINUOUS
 10
201.8700192072
 20
175.2054101884
 11
200.6254192072
 21
175.2054101884
  0
LINE
  5
3D4
100
AcDbEntity
  8
0
100
AcDbLine
 62
7
  6
CONTINUOUS
 10
71.8756417132
 20
176.3929656457
 11
77.7427261533
 21
176.3929656457
  0
LINE
  5
3D5
100
AcDbEntity
  8
0
100
AcDbLine
 62
7
  6
CONTINUOUS
 10
111.4996417132
 20
176.3929656457
 11
117.6461261533
 21
176.3929656457
  0
LINE
  5
3D6
100
AcDbEntity
  8
0
100
AcDbLine
 62
7
  6
CONTINUOUS
 10
151.1236417132
 20
176.3929656457
 11
157.5495261533
 21
176.3929656457
  0
LINE
  5
3D7
100
AcDbEntity
  8
0
100
AcDbLine
 62
7
  6
CONTINUOUS
 10
191.9386192072
 20
176.7928339884
 11
191.3588134949
 21
176.7928339884
  0
LINE
  5
3D8
100
AcDbEntity
  8
0
100
AcDbLine
 62
7
  6
CONTINUOUS
 10
205.0450192072
 20
176.7929101884
 11
201.8700192072
 21
176.7929101884
  0
LINE
  5
3D9
100
AcDbEntity
  8
0
100
AcDbLine
 62
7
  6
CONTINUOUS
 10
61.4755971033
 20
177.1143025129
 11
63.1068820429
 21
177.1143025129
  0
LINE
  5
3DA
100
AcDbEntity
  8
0
100
AcDbLine
 62
7
  6
CONTINUOUS
 10
101.3789971033
 20
177.1143025129
 11
103.0102820429
 21
177.1143025129
  0
LINE
  5
3DB
100
AcDbEntity
  8
0
100
AcDbLine
 62
7
  6
CONTINUOUS
 10
141.2823971033
 20
177.1143025129
 11
142.9136820429
 21
177.1143025129
  0
LINE
  5
3DC
100
AcDbEntity
  8
0
100
AcDbLine
 62
7
  6
CONTINUOUS
 10
158.5284926761
 20
177.5267541788
 11
151.1236417132
 21
177.5267541788
  0
LINE
  5
3DD
100
AcDbEntity
  8
0
100
AcDbLine
 62
7
  6
CONTINUOUS
 10
118.2572688069
 20
177.5267541788
 11
111.4996417132
 21
177.5267541788
  0
LINE
  5
3DE
100
AcDbEntity
  8
0
100
AcDbLine
 62
7
  6
CONTINUOUS
 10
78.7216926761
 20
177.5267541788
 11
71.8756417132
 21
177.5267541788
  0
LINE
  5
3DF
100
AcDbEntity
  8
0
100
AcDbLine
 62
7
  6
CONTINUOUS
 10
59.5186730705
 20
178.102130557
 11
61.0447629434
 21
178.102130557
  0
LINE
  5
3E0
100
AcDbEntity
  8
0
100
AcDbLine
 62
7
  6
CONTINUOUS
 10
99.4220730705
 20
178.102130557
 11
100.9481629434
 21
178.102130557
  0
LINE
  5
3E1
100
AcDbEntity
  8
0
100
AcDbLine
 62
7
  6
CONTINUOUS
 10
139.3254730705
 20
178.102130557
 11
140.8515629434
 21
178.102130557
  0
LINE
  5
3E2
100
AcDbEntity
  8
0
100
AcDbLine
 62
7
  6
CONTINUOUS
 10
198.0092192071
 20
178.3804101884
 11
197.8060192072
 21
178.3804101884
  0
LINE
  5
3E3
100
AcDbEntity
  8
0
100
AcDbLine
 62
7
  6
CONTINUOUS
 10
197.8060192072
 20
178.6499016903
 11
198.0092192071
 21
178.6499016903
  0
LINE
  5
3E4
100
AcDbEntity
  8
0
100
AcDbLine
 62
7
  6
CONTINUOUS
 10
200.6000192072
 20
178.6499016903
 11
200.6254192072
 21
178.6499016903
  0
LINE
  5
3E5
100
AcDbEntity
  8
0
100
AcDbLine
 62
7
  6
CONTINUOUS
 10
159.8363186788
 20
179.0414107995
 11
144.9824524939
 21
179.0414107995
  0
LINE
  5
3E6
100
AcDbEntity
  8
0
100
AcDbLine
 62
7
  6
CONTINUOUS
 10
118.2572688069
 20
179.0414107995
 11
105.3584524939
 21
179.0414107995
  0
LINE
  5
3E7
100
AcDbEntity
  8
0
100
AcDbLine
 62
7
  6
CONTINUOUS
 10
82.9805067119
 20
179.0414107995
 11
82.8829879513
 21
179.0414107995
  0
LINE
  5
3E8
100
AcDbEntity
  8
0
100
AcDbLine
 62
7
  6
CONTINUOUS
 10
80.0295186788
 20
179.0414107995
 11
65.7344524939
 21
179.0414107995
  0
LINE
  5
3E9
100
AcDbEntity
  8
0
100
AcDbLine
 62
7
  6
CONTINUOUS
 10
42.3874688069
 20
179.6894537089
 11
47.2261688077
 21
179.6894537089
  0
LINE
  5
3EA
100
AcDbEntity
  8
0
100
AcDbLine
 62
7
  6
CONTINUOUS
 10
198.0092192071
 20
179.9679101884
 11
200.6000192072
 21
179.9679101884
  0
LINE
  5
3EB
100
AcDbEntity
  8
0
100
AcDbLine
 62
7
  6
CONTINUOUS
 10
105.1985005008
 20
179.0417190494
 11
105.3584524939
 21
179.0258251396
  0
LINE
  5
3EC
100
AcDbEntity
  8
0
100
AcDbLine
 62
7
  6
CONTINUOUS
 10
144.8225005008
 20
179.0417190494
 11
144.9824524939
 21
179.0258251396
  0
LINE
  5
3ED
100
AcDbEntity
  8
0
100
AcDbLine
 62
7
  6
CONTINUOUS
 10
122.7212607345
 20
179.3558209065
 11
121.2793779825
 21
180.6008105168
  0
LINE
  5
3EE
100
AcDbEntity
  8
0
100
AcDbLine
 62
7
  6
CONTINUOUS
 10
135.830030207
 20
184.0144901343
 11
135.830030207
 21
203.3009872479
  0
LINE
  5
3EF
100
AcDbEntity
  8
0
100
AcDbLine
 62
7
  6
CONTINUOUS
 10
135.8739468077
 20
127.1867101884
 11
135.8739468077
 21
172.5638101884
  0
LINE
  5
3F0
100
AcDbEntity
  8
0
100
AcDbLine
 62
7
  6
CONTINUOUS
 10
135.9062302069
 20
191.9959277884
 11
135.9062302069
 21
190.5735277884
  0
LINE
  5
3F1
100
AcDbEntity
  8
0
100
AcDbLine
 62
7
  6
CONTINUOUS
 10
135.9062302069
 20
187.6779277884
 11
135.9062302069
 21
186.2555277884
  0
LINE
  5
3F2
100
AcDbEntity
  8
0
100
AcDbLine
 62
7
  6
CONTINUOUS
 10
136.7357180069
 20
173.1929597132
 11
136.7357180069
 21
172.5638101884
  0
LINE
  5
3F3
100
AcDbEntity
  8
0
100
AcDbLine
 62
7
  6
CONTINUOUS
 10
136.9915468077
 20
120.9129101884
 11
136.9915468077
 21
172.5638101884
  0
LINE
  5
3F4
100
AcDbEntity
  8
0
100
AcDbLine
 62
7
  6
CONTINUOUS
 10
137.2945180069
 20
176.0483963958
 11
137.2945180069
 21
172.5638101884
  0
LINE
  5
3F5
100
AcDbEntity
  8
0
100
AcDbLine
 62
7
  6
CONTINUOUS
 10
138.1980025983
 20
179.262446553
 11
138.1980025983
 21
178.4228641802
  0
LINE
  5
3F6
100
AcDbEntity
  8
0
100
AcDbLine
 62
7
  6
CONTINUOUS
 10
138.8693180069
 20
177.7454762417
 11
138.8693180069
 21
177.6093448834
  0
LINE
  5
3F7
100
AcDbEntity
  8
0
100
AcDbLine
 62
7
  6
CONTINUOUS
 10
138.8693180069
 20
169.2046516646
 11
138.8693180069
 21
174.2245442615
  0
LINE
  5
3F8
100
AcDbEntity
  8
0
100
AcDbLine
 62
7
  6
CONTINUOUS
 10
141.2569688069
 20
176.7705073884
 11
141.2569688069
 21
174.9039459683
  0
LINE
  5
3F9
100
AcDbEntity
  8
0
100
AcDbLine
 62
7
  6
CONTINUOUS
 10
141.2569688069
 20
171.4592902563
 11
141.2569688069
 21
164.1382417639
  0
LINE
  5
3FA
100
AcDbEntity
  8
0
100
AcDbLine
 62
7
  6
CONTINUOUS
 10
141.3077180069
 20
177.211858264
 11
141.3077180069
 21
177.7454762417
  0
LINE
  5
3FB
100
AcDbEntity
  8
0
100
AcDbLine
 62
7
  6
CONTINUOUS
 10
141.7610119869
 20
178.1993945955
 11
141.7610119869
 21
179.2624465529
  0
LINE
  5
3FC
100
AcDbEntity
  8
0
100
AcDbLine
 62
7
  6
CONTINUOUS
 10
142.1038302069
 20
186.2555277884
 11
142.1038302069
 21
187.6779277884
  0
LINE
  5
3FD
100
AcDbEntity
  8
0
100
AcDbLine
 62
7
  6
CONTINUOUS
 10
142.1038302069
 20
190.5735277884
 11
142.1038302069
 21
191.9959277884
  0
LINE
  5
3FE
100
AcDbEntity
  8
0
100
AcDbLine
 62
7
  6
CONTINUOUS
 10
142.180030207
 20
184.0144901343
 11
142.180030207
 21
203.3009872479
  0
LINE
  5
3FF
100
AcDbEntity
  8
0
100
AcDbLine
 62
7
  6
CONTINUOUS
 10
142.3237688077
 20
164.0294101884
 11
142.3237688077
 21
157.3238101884
  0
LINE
  5
400
100
AcDbEntity
  8
0
100
AcDbLine
 62
7
  6
CONTINUOUS
 10
130.6697408077
 20
114.8677101884
 11
131.0126408077
 21
117.9157101884
  0
LINE
  5
401
100
AcDbEntity
  8
0
100
AcDbLine
 62
7
  6
CONTINUOUS
 10
143.4286180069
 20
177.683038123
 11
143.0532495582
 21
177.3076696742
  0
LINE
  5
402
100
AcDbEntity
  8
0
100
AcDbLine
 62
7
  6
CONTINUOUS
 10
143.9485896736
 20
168.9751976848
 11
145.3768908862
 21
170.2357454412
  0
LINE
  5
403
100
AcDbEntity
  8
0
100
AcDbLine
 62
7
  6
CONTINUOUS
 10
143.6403224627
 20
168.6990129819
 11
143.9535423189
 21
168.9694617865
  0
LINE
  5
404
100
AcDbEntity
  8
0
100
AcDbLine
 62
7
  6
CONTINUOUS
 10
202.9114192072
 20
181.6189101884
 11
224.9840192072
 21
181.6189101884
  0
LINE
  5
405
100
AcDbEntity
  8
0
100
AcDbLine
 62
7
  6
CONTINUOUS
 10
191.0115192072
 20
182.1269101884
 11
188.6366192072
 21
182.1269101884
  0
LINE
  5
406
100
AcDbEntity
  8
0
100
AcDbLine
 62
7
  6
CONTINUOUS
 10
170.8566192072
 20
182.1269101884
 11
170.111368807
 21
182.1269101884
  0
LINE
  5
407
100
AcDbEntity
  8
0
100
AcDbLine
 62
7
  6
CONTINUOUS
 10
192.7006192072
 20
183.5443551092
 11
195.1390192072
 21
183.5443551092
  0
LINE
  5
408
100
AcDbEntity
  8
0
100
AcDbLine
 62
7
  6
CONTINUOUS
 10
99.2834688069
 20
184.0144901343
 11
118.2572688069
 21
184.0144932555
  0
LINE
  5
409
100
AcDbEntity
  8
0
100
AcDbLine
 62
7
  6
CONTINUOUS
 10
133.6496743063
 20
184.0144903732
 11
162.6221056742
 21
184.014494511
  0
LINE
  5
40A
100
AcDbEntity
  8
0
100
AcDbLine
 62
7
  6
CONTINUOUS
 10
53.8301688069
 20
184.0144912684
 11
83.3741056742
 21
184.014494511
  0
LINE
  5
40B
100
AcDbEntity
  8
0
100
AcDbLine
 62
7
  6
CONTINUOUS
 10
192.7006192072
 20
184.2105302747
 11
195.1390192072
 21
184.2105302747
  0
LINE
  5
40C
100
AcDbEntity
  8
0
100
AcDbLine
 62
7
  6
CONTINUOUS
 10
224.9840192072
 20
184.4383101884
 11
202.9114192072
 21
184.4383101884
  0
LINE
  5
40D
100
AcDbEntity
  8
0
100
AcDbLine
 62
7
  6
CONTINUOUS
 10
163.7105688069
 20
184.5024129989
 11
162.6221056742
 21
184.5024129989
  0
LINE
  5
40E
100
AcDbEntity
  8
0
100
AcDbLine
 62
7
  6
CONTINUOUS
 10
83.6370633092
 20
184.5024129989
 11
83.3741056742
 21
184.5024129989
  0
LINE
  5
40F
100
AcDbEntity
  8
0
100
AcDbLine
 62
7
  6
CONTINUOUS
 10
195.1390192072
 20
186.1909101884
 11
197.8060192072
 21
186.1909101884
  0
LINE
  5
410
100
AcDbEntity
  8
0
100
AcDbLine
 62
7
  6
CONTINUOUS
 10
170.111368807
 20
186.2047184024
 11
170.0605688077
 21
186.2047184024
  0
LINE
  5
411
100
AcDbEntity
  8
0
100
AcDbLine
 62
7
  6
CONTINUOUS
 10
56.023230207
 20
186.2555277884
 11
62.373230207
 21
186.2555277884
  0
LINE
  5
412
100
AcDbEntity
  8
0
100
AcDbLine
 62
7
  6
CONTINUOUS
 10
99.2834688069
 20
186.2555277884
 11
102.276630207
 21
186.2555277884
  0
LINE
  5
413
100
AcDbEntity
  8
0
100
AcDbLine
 62
7
  6
CONTINUOUS
 10
135.830030207
 20
186.2555277884
 11
142.180030207
 21
186.2555277884
  0
LINE
  5
414
100
AcDbEntity
  8
0
100
AcDbLine
 62
7
  6
CONTINUOUS
 10
142.180030207
 20
187.6779277884
 11
135.830030207
 21
187.6779277884
  0
LINE
  5
415
100
AcDbEntity
  8
0
100
AcDbLine
 62
7
  6
CONTINUOUS
 10
102.276630207
 20
187.6779277884
 11
99.2834688069
 21
187.6779277884
  0
LINE
  5
416
100
AcDbEntity
  8
0
100
AcDbLine
 62
7
  6
CONTINUOUS
 10
62.373230207
 20
187.6779277884
 11
56.023230207
 21
187.6779277884
  0
LINE
  5
417
100
AcDbEntity
  8
0
100
AcDbLine
 62
7
  6
CONTINUOUS
 10
170.0605688077
 20
188.7447184024
 11
170.111368807
 21
188.7447184024
  0
LINE
  5
418
100
AcDbEntity
  8
0
100
AcDbLine
 62
7
  6
CONTINUOUS
 10
152.2653324009
 20
170.2730849921
 11
153.7072151528
 21
169.0280953819
  0
LINE
  5
419
100
AcDbEntity
  8
0
100
AcDbLine
 62
7
  6
CONTINUOUS
 10
153.3581646242
 20
168.6821086166
 11
153.3989479418
 21
168.6461152848
  0
LINE
  5
41A
100
AcDbEntity
  8
0
100
AcDbLine
 62
7
  6
CONTINUOUS
 10
137.8993254665
 20
178.7084238469
 11
138.1848851332
 21
178.4228641802
  0
LINE
  5
41B
100
AcDbEntity
  8
0
100
AcDbLine
 62
7
  6
CONTINUOUS
 10
142.3150916479
 20
178.796564482
 11
143.4286180069
 21
177.683038123
  0
LINE
  5
41C
100
AcDbEntity
  8
0
100
AcDbLine
 62
7
  6
CONTINUOUS
 10
143.9485896736
 20
168.9751976848
 11
133.7378874768
 21
180.5447381909
  0
LINE
  5
41D
100
AcDbEntity
  8
0
100
AcDbLine
 62
7
  6
CONTINUOUS
 10
145.3768908862
 20
170.2357454412
 11
135.1661886893
 21
181.8052859474
  0
LINE
  5
41E
100
AcDbEntity
  8
0
100
AcDbLine
 62
7
  6
CONTINUOUS
 10
134.5390610867
 20
179.2396244785
 11
134.6734282498
 21
179.0840073608
  0
LINE
  5
41F
100
AcDbEntity
  8
0
100
AcDbLine
 62
7
  6
CONTINUOUS
 10
135.5486898992
 20
178.070324463
 11
143.6403224627
 21
168.6990129819
  0
LINE
  5
420
100
AcDbEntity
  8
0
100
AcDbLine
 62
7
  6
CONTINUOUS
 10
137.9539473092
 20
172.5638101884
 11
142.1068473092
 21
157.3238101884
  0
LINE
  5
421
100
AcDbEntity
  8
0
100
AcDbLine
 62
7
  6
CONTINUOUS
 10
134.5121581775
 20
179.6674276924
 11
134.5602309035
 21
179.2579034973
  0
LINE
  5
422
100
AcDbEntity
  8
0
100
AcDbLine
 62
7
  6
CONTINUOUS
 10
134.511188558
 20
179.252466404
 11
134.547234028
 21
178.9273378311
  0
LINE
  5
423
100
AcDbEntity
  8
0
100
AcDbLine
 62
7
  6
CONTINUOUS
 10
142.8317180069
 20
164.0294101884
 11
142.8317180069
 21
169.635496956
  0
LINE
  5
424
100
AcDbEntity
  8
0
100
AcDbLine
 62
7
  6
CONTINUOUS
 10
142.8317180069
 20
173.1196294439
 11
142.8317180069
 21
176.7705073884
  0
LINE
  5
425
100
AcDbEntity
  8
0
100
AcDbLine
 62
7
  6
CONTINUOUS
 10
143.4159180069
 20
168.9589066481
 11
143.4159180069
 21
164.0294101884
  0
LINE
  5
426
100
AcDbEntity
  8
0
100
AcDbLine
 62
7
  6
CONTINUOUS
 10
143.4159180069
 20
172.4576842188
 11
143.4159180069
 21
173.1896596626
  0
LINE
  5
427
100
AcDbEntity
  8
0
100
AcDbLine
 62
7
  6
CONTINUOUS
 10
143.7832473092
 20
149.0180101884
 11
143.7832473092
 21
157.3238101884
  0
LINE
  5
428
100
AcDbEntity
  8
0
100
AcDbLine
 62
7
  6
CONTINUOUS
 10
144.093760474
 20
174.3332640131
 11
144.093760474
 21
178.739574526
  0
LINE
  5
429
100
AcDbEntity
  8
0
100
AcDbLine
 62
7
  6
CONTINUOUS
 10
144.2986188077
 20
164.0294101884
 11
144.2986188077
 21
164.6644101884
  0
LINE
  5
42A
100
AcDbEntity
  8
0
100
AcDbLine
 62
7
  6
CONTINUOUS
 10
144.3634032535
 20
164.6644101884
 11
144.3634032535
 21
165.9344101884
  0
LINE
  5
42B
100
AcDbEntity
  8
0
100
AcDbLine
 62
7
  6
CONTINUOUS
 10
144.7067968077
 20
118.8047101884
 11
144.7067968077
 21
120.9129101884
  0
LINE
  5
42C
100
AcDbEntity
  8
0
100
AcDbLine
 62
7
  6
CONTINUOUS
 10
144.7748692792
 20
157.2349101884
 11
144.7748692792
 21
156.384534992
  0
LINE
  5
42D
100
AcDbEntity
  8
0
100
AcDbLine
 62
7
  6
CONTINUOUS
 10
144.9824524939
 20
170.6826756199
 11
144.9824524939
 21
179.0258251396
  0
LINE
  5
42E
100
AcDbEntity
  8
0
100
AcDbLine
 62
7
  6
CONTINUOUS
 10
145.2175908077
 20
125.1039101884
 11
145.2175908077
 21
120.9129101884
  0
LINE
  5
42F
100
AcDbEntity
  8
0
100
AcDbLine
 62
7
  6
CONTINUOUS
 10
145.863030207
 20
195.1455277885
 11
145.863030207
 21
192.4531277884
  0
LINE
  5
430
100
AcDbEntity
  8
0
100
AcDbLine
 62
7
  6
CONTINUOUS
 10
145.9305688077
 20
138.4389101884
 11
145.9305688077
 21
152.6629101884
  0
LINE
  5
431
100
AcDbEntity
  8
0
100
AcDbLine
 62
7
  6
CONTINUOUS
 10
146.1083688072
 20
184.0144901343
 11
146.1083688072
 21
192.4531277884
  0
LINE
  5
432
100
AcDbEntity
  8
0
100
AcDbLine
 62
7
  6
CONTINUOUS
 10
146.2307968077
 20
120.9129101884
 11
146.2307968077
 21
118.8047101884
  0
LINE
  5
433
100
AcDbEntity
  8
0
100
AcDbLine
 62
7
  6
CONTINUOUS
 10
148.6737697507
 20
157.2349101884
 11
148.6737697507
 21
153.9710101884
  0
LINE
  5
434
100
AcDbEntity
  8
0
100
AcDbLine
 62
7
  6
CONTINUOUS
 10
149.7867968077
 20
114.2327101884
 11
149.7867968077
 21
120.9129101884
  0
LINE
  5
435
100
AcDbEntity
  8
0
100
AcDbLine
 62
7
  6
CONTINUOUS
 10
140.7612712006
 20
162.2617041648
 11
140.8579290874
 21
162.6224363092
  0
LINE
  5
436
100
AcDbEntity
  8
0
100
AcDbLine
 62
7
  6
CONTINUOUS
 10
141.8393097269
 20
162.3594761594
 11
141.2916199685
 21
160.3154701543
  0
LINE
  5
437
100
AcDbEntity
  8
0
100
AcDbLine
 62
7
  6
CONTINUOUS
 10
141.8393097269
 20
162.0303937594
 11
141.4046890885
 21
160.408367455
  0
LINE
  5
438
100
AcDbEntity
  8
0
100
AcDbLine
 62
7
  6
CONTINUOUS
 10
162.3032686318
 20
181.8985049935
 11
152.2653324009
 21
170.2730849921
  0
LINE
  5
439
100
AcDbEntity
  8
0
100
AcDbLine
 62
7
  6
CONTINUOUS
 10
163.7451513837
 20
180.6535153833
 11
153.7072151528
 21
169.0280953819
  0
LINE
  5
43A
100
AcDbEntity
  8
0
100
AcDbLine
 62
7
  6
CONTINUOUS
 10
153.3989479418
 20
168.6461152848
 11
161.7834104096
 21
178.1463804255
  0
LINE
  5
43B
100
AcDbEntity
  8
0
100
AcDbLine
 62
7
  6
CONTINUOUS
 10
162.6590661484
 20
179.1385682637
 11
162.7793764731
 21
179.2748894636
  0
LINE
  5
43C
100
AcDbEntity
  8
0
100
AcDbLine
 62
7
  6
CONTINUOUS
 10
170.111368807
 20
189.9131277884
 11
170.0605688077
 21
189.9131277884
  0
LINE
  5
43D
100
AcDbEntity
  8
0
100
AcDbLine
 62
7
  6
CONTINUOUS
 10
127.7648219759
 20
190.0644101884
 11
127.6557747457
 21
190.0644101884
  0
LINE
  5
43E
100
AcDbEntity
  8
0
100
AcDbLine
 62
7
  6
CONTINUOUS
 10
124.0230633092
 20
190.0644101884
 11
123.9685414124
 21
190.0644101884
  0
LINE
  5
43F
100
AcDbEntity
  8
0
100
AcDbLine
 62
7
  6
CONTINUOUS
 10
47.2261688077
 20
190.0644101884
 11
52.6744633092
 21
190.0644101884
  0
LINE
  5
440
100
AcDbEntity
  8
0
100
AcDbLine
 62
7
  6
CONTINUOUS
 10
89.5764299759
 20
190.0644101884
 11
89.6309553092
 21
190.0644101884
  0
LINE
  5
441
100
AcDbEntity
  8
0
100
AcDbLine
 62
7
  6
CONTINUOUS
 10
129.8184966425
 20
190.0644101884
 11
129.9275473092
 21
190.0644101884
  0
LINE
  5
442
100
AcDbEntity
  8
0
100
AcDbLine
 62
7
  6
CONTINUOUS
 10
164.4090633092
 20
190.0644101884
 11
170.0605688077
 21
190.0644101884
  0
LINE
  5
443
100
AcDbEntity
  8
0
100
AcDbLine
 62
7
  6
CONTINUOUS
 10
56.023230207
 20
190.5735277884
 11
62.373230207
 21
190.5735277884
  0
LINE
  5
444
100
AcDbEntity
  8
0
100
AcDbLine
 62
7
  6
CONTINUOUS
 10
99.2834688069
 20
190.5735277884
 11
102.276630207
 21
190.5735277884
  0
LINE
  5
445
100
AcDbEntity
  8
0
100
AcDbLine
 62
7
  6
CONTINUOUS
 10
135.830030207
 20
190.5735277884
 11
142.180030207
 21
190.5735277884
  0
LINE
  5
446
100
AcDbEntity
  8
0
100
AcDbLine
 62
7
  6
CONTINUOUS
 10
142.180030207
 20
191.9959277884
 11
135.830030207
 21
191.9959277884
  0
LINE
  5
447
100
AcDbEntity
  8
0
100
AcDbLine
 62
7
  6
CONTINUOUS
 10
102.276630207
 20
191.9959277884
 11
99.2834688069
 21
191.9959277884
  0
LINE
  5
448
100
AcDbEntity
  8
0
100
AcDbLine
 62
7
  6
CONTINUOUS
 10
62.373230207
 20
191.9959277884
 11
56.023230207
 21
191.9959277884
  0
LINE
  5
449
100
AcDbEntity
  8
0
100
AcDbLine
 62
7
  6
CONTINUOUS
 10
47.4293688069
 20
192.4531277884
 11
51.6457688069
 21
192.4531277884
  0
LINE
  5
44A
100
AcDbEntity
  8
0
100
AcDbLine
 62
7
  6
CONTINUOUS
 10
53.8301688069
 20
192.4531277884
 11
56.023230207
 21
192.4531277884
  0
LINE
  5
44B
100
AcDbEntity
  8
0
100
AcDbLine
 62
7
  6
CONTINUOUS
 10
62.373230207
 20
192.4531277884
 11
83.6370633092
 21
192.4531277884
  0
LINE
  5
44C
100
AcDbEntity
  8
0
100
AcDbLine
 62
7
  6
CONTINUOUS
 10
133.6496743063
 20
192.4531277884
 11
135.830030207
 21
192.4531277884
  0
LINE
  5
44D
100
AcDbEntity
  8
0
100
AcDbLine
 62
7
  6
CONTINUOUS
 10
142.180030207
 20
192.4531277884
 11
163.7105688069
 21
192.4531277884
  0
LINE
  5
44E
100
AcDbEntity
  8
0
100
AcDbLine
 62
7
  6
CONTINUOUS
 10
165.8949688069
 20
192.4531277884
 11
170.8566192072
 21
192.4531277884
  0
LINE
  5
44F
100
AcDbEntity
  8
0
100
AcDbLine
 62
7
  6
CONTINUOUS
 10
123.8071688069
 20
192.4531531884
 11
102.276630207
 21
192.4531277884
  0
LINE
  5
450
100
AcDbEntity
  8
0
100
AcDbLine
 62
7
  6
CONTINUOUS
 10
99.2834688069
 20
192.4531531884
 11
93.7335688069
 21
192.4531531884
  0
LINE
  5
451
100
AcDbEntity
  8
0
100
AcDbLine
 62
7
  6
CONTINUOUS
 10
50.1685302069
 20
192.6563277884
 11
47.1205302069
 21
192.6563277884
  0
LINE
  5
452
100
AcDbEntity
  8
0
100
AcDbLine
 62
7
  6
CONTINUOUS
 10
47.1205302069
 20
195.1455277885
 11
51.6457688069
 21
195.1455277885
  0
LINE
  5
453
100
AcDbEntity
  8
0
100
AcDbLine
 62
7
  6
CONTINUOUS
 10
53.8301688069
 20
195.1455277885
 11
56.023230207
 21
195.1455277885
  0
LINE
  5
454
100
AcDbEntity
  8
0
100
AcDbLine
 62
7
  6
CONTINUOUS
 10
62.373230207
 20
195.1455277885
 11
83.6370633092
 21
195.1455277885
  0
LINE
  5
455
100
AcDbEntity
  8
0
100
AcDbLine
 62
7
  6
CONTINUOUS
 10
93.7335688069
 20
195.1455277885
 11
95.926630207
 21
195.1455277885
  0
LINE
  5
456
100
AcDbEntity
  8
0
100
AcDbLine
 62
7
  6
CONTINUOUS
 10
102.276630207
 20
195.1455277885
 11
123.8071688069
 21
195.1455277885
  0
LINE
  5
457
100
AcDbEntity
  8
0
100
AcDbLine
 62
7
  6
CONTINUOUS
 10
133.6496743063
 20
195.1455277885
 11
135.830030207
 21
195.1455277885
  0
LINE
  5
458
100
AcDbEntity
  8
0
100
AcDbLine
 62
7
  6
CONTINUOUS
 10
142.180030207
 20
195.1455277885
 11
163.7105688069
 21
195.1455277885
  0
LINE
  5
459
100
AcDbEntity
  8
0
100
AcDbLine
 62
7
  6
CONTINUOUS
 10
165.8949688069
 20
195.1455277885
 11
168.1515302069
 21
195.1455277885
  0
LINE
  5
45A
100
AcDbEntity
  8
0
100
AcDbLine
 62
7
  6
CONTINUOUS
 10
93.0604633092
 20
195.9064101884
 11
83.6370633092
 21
195.9064101884
  0
LINE
  5
45B
100
AcDbEntity
  8
0
100
AcDbLine
 62
7
  6
CONTINUOUS
 10
123.9685414124
 20
195.9064101884
 11
133.6496743063
 21
195.9064101884
  0
LINE
  5
45C
100
AcDbEntity
  8
0
100
AcDbLine
 62
7
  6
CONTINUOUS
 10
117.8341302069
 20
196.3647277884
 11
109.8331302069
 21
196.3647277884
  0
LINE
  5
45D
100
AcDbEntity
  8
0
100
AcDbLine
 62
7
  6
CONTINUOUS
 10
150.574730207
 20
195.1455277885
 11
150.574730207
 21
215.2623277884
  0
LINE
  5
45E
100
AcDbEntity
  8
0
100
AcDbLine
 62
7
  6
CONTINUOUS
 10
151.1236417132
 20
177.5267541788
 11
151.1236417132
 21
176.3929656457
  0
LINE
  5
45F
100
AcDbEntity
  8
0
100
AcDbLine
 62
7
  6
CONTINUOUS
 10
151.1236417132
 20
170.4725064905
 11
151.1236417132
 21
169.3347885186
  0
LINE
  5
460
100
AcDbEntity
  8
0
100
AcDbLine
 62
7
  6
CONTINUOUS
 10
151.3107968077
 20
116.3409101884
 11
151.3107968077
 21
114.2327101884
  0
LINE
  5
461
100
AcDbEntity
  8
0
100
AcDbLine
 62
7
  6
CONTINUOUS
 10
151.4169688077
 20
138.4389101884
 11
151.4169688077
 21
152.6629101884
  0
LINE
  5
462
100
AcDbEntity
  8
0
100
AcDbLine
 62
7
  6
CONTINUOUS
 10
152.3527302071
 20
195.1455277885
 11
152.3527302071
 21
215.2623277884
  0
LINE
  5
463
100
AcDbEntity
  8
0
100
AcDbLine
 62
7
  6
CONTINUOUS
 10
152.5726692792
 20
157.2349101884
 11
152.5726692792
 21
156.3843545403
  0
LINE
  5
464
100
AcDbEntity
  8
0
100
AcDbLine
 62
7
  6
CONTINUOUS
 10
152.984134362
 20
165.9344101884
 11
152.984134362
 21
164.6644101884
  0
LINE
  5
465
100
AcDbEntity
  8
0
100
AcDbLine
 62
7
  6
CONTINUOUS
 10
153.0489188077
 20
164.0294101884
 11
153.0489188077
 21
164.6644101884
  0
LINE
  5
466
100
AcDbEntity
  8
0
100
AcDbLine
 62
7
  6
CONTINUOUS
 10
153.9389108959
 20
184.0144922115
 11
153.9389108959
 21
192.4531277884
  0
LINE
  5
467
100
AcDbEntity
  8
0
100
AcDbLine
 62
7
  6
CONTINUOUS
 10
154.2057139759
 20
157.3238101884
 11
154.2057139759
 21
149.0180101884
  0
LINE
  5
468
100
AcDbEntity
  8
0
100
AcDbLine
 62
7
  6
CONTINUOUS
 10
155.0237688077
 20
157.3238101884
 11
155.0237688077
 21
164.0294101884
  0
LINE
  5
469
100
AcDbEntity
  8
0
100
AcDbLine
 62
7
  6
CONTINUOUS
 10
156.2429688069
 20
125.3336277884
 11
156.2429688069
 21
139.5576277884
  0
LINE
  5
46A
100
AcDbEntity
  8
0
100
AcDbLine
 62
7
  6
CONTINUOUS
 10
157.5637688069
 20
122.5364453785
 11
157.5637688069
 21
124.0879101884
  0
LINE
  5
46B
100
AcDbEntity
  8
0
100
AcDbLine
 62
7
  6
CONTINUOUS
 10
116.2592615316
 20
197.9395277884
 11
111.4079988823
 21
197.9395277884
  0
LINE
  5
46C
100
AcDbEntity
  8
0
100
AcDbLine
 62
7
  6
CONTINUOUS
 10
142.180030207
 20
201.0687155887
 11
135.830030207
 21
201.0687155887
  0
LINE
  5
46D
100
AcDbEntity
  8
0
100
AcDbLine
 62
7
  6
CONTINUOUS
 10
102.276630207
 20
201.0687155887
 11
95.926630207
 21
201.0687155887
  0
LINE
  5
46E
100
AcDbEntity
  8
0
100
AcDbLine
 62
7
  6
CONTINUOUS
 10
62.373230207
 20
201.0687155887
 11
56.023230207
 21
201.0687155887
  0
LINE
  5
46F
100
AcDbEntity
  8
0
100
AcDbLine
 62
7
  6
CONTINUOUS
 10
142.180030207
 20
203.3009872479
 11
135.830030207
 21
203.3009872479
  0
LINE
  5
470
100
AcDbEntity
  8
0
100
AcDbLine
 62
7
  6
CONTINUOUS
 10
102.276630207
 20
203.3009872479
 11
95.926630207
 21
203.3009872479
  0
LINE
  5
471
100
AcDbEntity
  8
0
100
AcDbLine
 62
7
  6
CONTINUOUS
 10
62.373230207
 20
203.3009872479
 11
56.023230207
 21
203.3009872479
  0
LINE
  5
472
100
AcDbEntity
  8
0
100
AcDbLine
 62
7
  6
CONTINUOUS
 10
174.0316192071
 20
203.4949141884
 11
182.7692192071
 21
203.4949141884
  0
LINE
  5
473
100
AcDbEntity
  8
0
100
AcDbLine
 62
7
  6
CONTINUOUS
 10
162.6246607345
 20
179.3558209065
 11
161.1827779825
 21
180.6008105168
  0
LINE
  5
474
100
AcDbEntity
  8
0
100
AcDbLine
 62
7
  6
CONTINUOUS
 10
156.0282268901
 20
160.0897310658
 11
155.5082278886
 21
162.0303937594
  0
LINE
  5
475
100
AcDbEntity
  8
0
100
AcDbLine
 62
7
  6
CONTINUOUS
 10
156.3607262583
 20
159.1779089303
 11
155.5082278886
 21
162.3594761594
  0
LINE
  5
476
100
AcDbEntity
  8
0
100
AcDbLine
 62
7
  6
CONTINUOUS
 10
156.4896085281
 20
162.6224363092
 11
156.8910750262
 21
161.1241429409
  0
LINE
  5
477
100
AcDbEntity
  8
0
100
AcDbLine
 62
7
  6
CONTINUOUS
 10
158.9818834221
 20
168.8363345448
 11
158.9818834221
 21
170.4725064905
  0
LINE
  5
478
100
AcDbEntity
  8
0
100
AcDbLine
 62
7
  6
CONTINUOUS
 10
159.5803275185
 20
192.4531277884
 11
159.5803275185
 21
184.0144937055
  0
LINE
  5
479
100
AcDbEntity
  8
0
100
AcDbLine
 62
7
  6
CONTINUOUS
 10
161.7293688069
 20
125.3336277884
 11
161.7293688069
 21
139.5576277884
  0
LINE
  5
47A
100
AcDbEntity
  8
0
100
AcDbLine
 62
7
  6
CONTINUOUS
 10
162.2246633092
 20
124.0879101884
 11
162.2246633092
 21
120.8621101884
  0
LINE
  5
47B
100
AcDbEntity
  8
0
100
AcDbLine
 62
7
  6
CONTINUOUS
 10
162.6221056742
 20
184.502111044
 11
162.6221056742
 21
183.2561454457
  0
LINE
  5
47C
100
AcDbEntity
  8
0
100
AcDbLine
 62
7
  6
CONTINUOUS
 10
163.7105688069
 20
211.6124107355
 11
163.7105688069
 21
183.1438824996
  0
LINE
  5
47D
100
AcDbEntity
  8
0
100
AcDbLine
 62
7
  6
CONTINUOUS
 10
163.7105688069
 20
180.6535153833
 11
163.7105688069
 21
180.5797618542
  0
LINE
  5
47E
100
AcDbEntity
  8
0
100
AcDbLine
 62
7
  6
CONTINUOUS
 10
163.7105688069
 20
179.3788003467
 11
163.7105688069
 21
172.5638101884
  0
LINE
  5
47F
100
AcDbEntity
  8
0
100
AcDbLine
 62
7
  6
CONTINUOUS
 10
164.4090633092
 20
173.7957101883
 11
164.4090633092
 21
179.8025034556
  0
LINE
  5
480
100
AcDbEntity
  8
0
100
AcDbLine
 62
7
  6
CONTINUOUS
 10
164.4090633092
 20
182.7154850087
 11
164.4090633092
 21
190.0644101884
  0
LINE
  5
481
100
AcDbEntity
  8
0
100
AcDbLine
 62
7
  6
CONTINUOUS
 10
162.8003035875
 20
179.2564202311
 11
162.838821593
 21
179.6038509668
  0
LINE
  5
482
100
AcDbEntity
  8
0
100
AcDbLine
 62
7
  6
CONTINUOUS
 10
162.7873067119
 20
178.9288210973
 11
162.8254164721
 21
179.2534723105
  0
LINE
  5
483
100
AcDbEntity
  8
0
100
AcDbLine
 62
7
  6
CONTINUOUS
 10
155.8554843511
 20
157.3238101884
 11
160.0083843511
 21
172.5638101884
  0
LINE
  5
484
100
AcDbEntity
  8
0
100
AcDbLine
 62
7
  6
CONTINUOUS
 10
191.0750192072
 20
206.2315101884
 11
188.6366192072
 21
206.2315101884
  0
LINE
  5
485
100
AcDbEntity
  8
0
100
AcDbLine
 62
7
  6
CONTINUOUS
 10
174.0316192071
 20
207.4949061884
 11
182.7692192071
 21
207.4949061884
  0
LINE
  5
486
100
AcDbEntity
  8
0
100
AcDbLine
 62
7
  6
CONTINUOUS
 10
152.3527302071
 20
208.9123277885
 11
150.574730207
 21
208.9123277885
  0
LINE
  5
487
100
AcDbEntity
  8
0
100
AcDbLine
 62
7
  6
CONTINUOUS
 10
112.4493302071
 20
208.9123277885
 11
110.671330207
 21
208.9123277885
  0
LINE
  5
488
100
AcDbEntity
  8
0
100
AcDbLine
 62
7
  6
CONTINUOUS
 10
72.5459302071
 20
208.9123277885
 11
70.767930207
 21
208.9123277885
  0
LINE
  5
489
100
AcDbEntity
  8
0
100
AcDbLine
 62
7
  6
CONTINUOUS
 10
48.8985302069
 20
208.9162871822
 11
47.1205302069
 21
208.9162871822
  0
LINE
  5
48A
100
AcDbEntity
  8
0
100
AcDbLine
 62
7
  6
CONTINUOUS
 10
131.4525688069
 20
211.6123799395
 11
133.6369684871
 21
211.6124083996
  0
LINE
  5
48B
100
AcDbEntity
  8
0
100
AcDbLine
 62
7
  6
CONTINUOUS
 10
165.8949688069
 20
211.6123749957
 11
163.7105688069
 21
211.6124083996
  0
LINE
  5
48C
100
AcDbEntity
  8
0
100
AcDbLine
 62
7
  6
CONTINUOUS
 10
86.0881688069
 20
211.6192992922
 11
83.9037688069
 21
211.6193326961
  0
LINE
  5
48D
100
AcDbEntity
  8
0
100
AcDbLine
 62
7
  6
CONTINUOUS
 10
125.9915688069
 20
211.6192899062
 11
123.8071688069
 21
211.6193233101
  0
LINE
  5
48E
100
AcDbEntity
  8
0
100
AcDbLine
 62
7
  6
CONTINUOUS
 10
91.5491688069
 20
211.61929485
 11
93.7335684871
 21
211.6193233101
  0
LINE
  5
48F
100
AcDbEntity
  8
0
100
AcDbLine
 62
7
  6
CONTINUOUS
 10
51.6457688069
 20
211.619304236
 11
53.8301684871
 21
211.6193326961
  0
LINE
  5
490
100
AcDbEntity
  8
0
100
AcDbLine
 62
7
  6
CONTINUOUS
 10
170.0851610915
 20
134.4014002465
 11
170.124169534
 21
132.1666080712
  0
LINE
  5
491
100
AcDbEntity
  8
0
100
AcDbLine
 62
7
  6
CONTINUOUS
 10
170.0851610915
 20
204.5816002465
 11
170.124169534
 21
202.3468080712
  0
LINE
  5
492
100
AcDbEntity
  8
0
100
AcDbLine
 62
7
  6
CONTINUOUS
 10
165.8949688069
 20
190.0644101884
 11
165.8949688069
 21
216.671725657
  0
LINE
  5
493
100
AcDbEntity
  8
0
100
AcDbLine
 62
7
  6
CONTINUOUS
 10
166.1449302069
 20
195.1455277885
 11
166.1449302069
 21
215.2623277884
  0
LINE
  5
494
100
AcDbEntity
  8
0
100
AcDbLine
 62
7
  6
CONTINUOUS
 10
167.7237688069
 20
192.4531277884
 11
167.7237688069
 21
190.0644101884
  0
LINE
  5
495
100
AcDbEntity
  8
0
100
AcDbLine
 62
7
  6
CONTINUOUS
 10
167.9523633092
 20
190.0644101884
 11
167.9523633092
 21
172.5638101884
  0
LINE
  5
496
100
AcDbEntity
  8
0
100
AcDbLine
 62
7
  6
CONTINUOUS
 10
168.0614139759
 20
172.5638101884
 11
168.0614139759
 21
190.0644101884
  0
LINE
  5
497
100
AcDbEntity
  8
0
100
AcDbLine
 62
7
  6
CONTINUOUS
 10
168.1515302069
 20
195.1455277885
 11
168.1515302069
 21
192.4531277884
  0
LINE
  5
498
100
AcDbEntity
  8
0
100
AcDbLine
 62
7
  6
CONTINUOUS
 10
169.8527968077
 20
114.2327101884
 11
169.8527968077
 21
116.3409101884
  0
LINE
  5
499
100
AcDbEntity
  8
0
100
AcDbLine
 62
7
  6
CONTINUOUS
 10
170.0605688077
 20
120.8621101884
 11
170.0605688077
 21
190.0644101884
  0
LINE
  5
49A
100
AcDbEntity
  8
0
100
AcDbLine
 62
7
  6
CONTINUOUS
 10
170.111368807
 20
121.2442277884
 11
170.111368807
 21
132.8999612322
  0
LINE
  5
49B
100
AcDbEntity
  8
0
100
AcDbLine
 62
7
  6
CONTINUOUS
 10
170.111368807
 20
137.7294591446
 11
170.111368807
 21
139.5438101884
  0
LINE
  5
49C
100
AcDbEntity
  8
0
100
AcDbLine
 62
7
  6
CONTINUOUS
 10
170.111368807
 20
174.5958101884
 11
170.111368807
 21
192.4531277884
  0
LINE
  5
49D
100
AcDbEntity
  8
0
100
AcDbLine
 62
7
  6
CONTINUOUS
 10
170.124169534
 20
132.1666080712
 11
170.124169534
 21
133.1846003731
  0
LINE
  5
49E
100
AcDbEntity
  8
0
100
AcDbLine
 62
7
  6
CONTINUOUS
 10
170.124169534
 20
134.4020811414
 11
170.124169534
 21
138.4628123057
  0
LINE
  5
49F
100
AcDbEntity
  8
0
100
AcDbLine
 62
7
  6
CONTINUOUS
 10
170.124169534
 20
202.3468080712
 11
170.124169534
 21
203.3648003731
  0
LINE
  5
4A0
100
AcDbEntity
  8
0
100
AcDbLine
 62
7
  6
CONTINUOUS
 10
170.124169534
 20
204.5822811414
 11
170.124169534
 21
208.6430123057
  0
LINE
  5
4A1
100
AcDbEntity
  8
0
100
AcDbLine
 62
7
  6
CONTINUOUS
 10
170.8225688078
 20
139.5438101884
 11
170.8225688078
 21
174.5958101884
  0
LINE
  5
4A2
100
AcDbEntity
  8
0
100
AcDbLine
 62
7
  6
CONTINUOUS
 10
170.8566192072
 20
212.6069238581
 11
170.8566192072
 21
128.2789160993
  0
LINE
  5
4A3
100
AcDbEntity
  8
0
100
AcDbLine
 62
7
  6
CONTINUOUS
 10
171.3767968077
 20
114.2327101884
 11
171.3767968077
 21
120.9129101884
  0
LINE
  5
4A4
100
AcDbEntity
  8
0
100
AcDbLine
 62
7
  6
CONTINUOUS
 10
171.6099688069
 20
121.2442277884
 11
171.6099688069
 21
128.2789160993
  0
LINE
  5
4A5
100
AcDbEntity
  8
0
100
AcDbLine
 62
7
  6
CONTINUOUS
 10
170.0847135305
 20
206.3825793817
 11
170.124169534
 21
208.6430123057
  0
LINE
  5
4A6
100
AcDbEntity
  8
0
100
AcDbLine
 62
7
  6
CONTINUOUS
 10
170.0847135305
 20
136.2023793817
 11
170.124169534
 21
138.4628123057
  0
LINE
  5
4A7
100
AcDbEntity
  8
0
100
AcDbLine
 62
7
  6
CONTINUOUS
 10
191.3588134949
 20
176.7928339884
 11
191.0115192072
 21
176.445543786
  0
LINE
  5
4A8
100
AcDbEntity
  8
0
100
AcDbLine
 62
7
  6
CONTINUOUS
 10
188.6366192072
 20
212.5815101884
 11
191.0750192072
 21
212.5815101884
  0
LINE
  5
4A9
100
AcDbEntity
  8
0
100
AcDbLine
 62
7
  6
CONTINUOUS
 10
179.2894192072
 20
212.6069238581
 11
170.8566192072
 21
212.6069238581
  0
LINE
  5
4AA
100
AcDbEntity
  8
0
100
AcDbLine
 62
7
  6
CONTINUOUS
 10
184.6996192072
 20
212.6069238581
 11
188.6366192072
 21
212.6069238581
  0
LINE
  5
4AB
100
AcDbEntity
  8
0
100
AcDbLine
 62
7
  6
CONTINUOUS
 10
184.6996192072
 20
214.3849240353
 11
179.2894192072
 21
214.3849240353
  0
LINE
  5
4AC
100
AcDbEntity
  8
0
100
AcDbLine
 62
7
  6
CONTINUOUS
 10
47.1205302069
 20
215.2623277884
 11
51.6457688069
 21
215.2623277884
  0
LINE
  5
4AD
100
AcDbEntity
  8
0
100
AcDbLine
 62
7
  6
CONTINUOUS
 10
55.8043144878
 20
215.2623277884
 11
81.9307995928
 21
215.2623277884
  0
LINE
  5
4AE
100
AcDbEntity
  8
0
100
AcDbLine
 62
7
  6
CONTINUOUS
 10
86.0881688069
 20
215.2623277884
 11
91.5491688069
 21
215.2623277884
  0
LINE
  5
4AF
100
AcDbEntity
  8
0
100
AcDbLine
 62
7
  6
CONTINUOUS
 10
95.7077207407
 20
215.2623277884
 11
121.8341933183
 21
215.2623277884
  0
LINE
  5
4B0
100
AcDbEntity
  8
0
100
AcDbLine
 62
7
  6
CONTINUOUS
 10
125.9915688069
 20
215.2623277884
 11
131.4525688069
 21
215.2623277884
  0
LINE
  5
4B1
100
AcDbEntity
  8
0
100
AcDbLine
 62
7
  6
CONTINUOUS
 10
135.6157274153
 20
215.2623277884
 11
161.7329707499
 21
215.2623277884
  0
LINE
  5
4B2
100
AcDbEntity
  8
0
100
AcDbLine
 62
7
  6
CONTINUOUS
 10
165.8949688069
 20
215.2623277884
 11
166.1449302069
 21
215.2623277884
  0
LINE
  5
4B3
100
AcDbEntity
  8
0
100
AcDbLine
 62
7
  6
CONTINUOUS
 10
191.3588134949
 20
164.0929863884
 11
191.0115192072
 21
164.4402765908
  0
LINE
  5
4B4
100
AcDbEntity
  8
0
100
AcDbLine
 62
7
  6
CONTINUOUS
 10
174.0316192071
 20
132.9017064262
 11
174.0316192071
 21
137.8039139507
  0
LINE
  5
4B5
100
AcDbEntity
  8
0
100
AcDbLine
 62
7
  6
CONTINUOUS
 10
174.0316192071
 20
203.0819064262
 11
174.0316192071
 21
207.9079139507
  0
LINE
  5
4B6
100
AcDbEntity
  8
0
100
AcDbLine
 62
7
  6
CONTINUOUS
 10
174.0991688069
 20
121.2442277884
 11
174.0991688069
 21
128.2789160993
  0
LINE
  5
4B7
100
AcDbEntity
  8
0
100
AcDbLine
 62
7
  6
CONTINUOUS
 10
179.2894192072
 20
214.3849240353
 11
179.2894192072
 21
126.5009160993
  0
LINE
  5
4B8
100
AcDbEntity
  8
0
100
AcDbLine
 62
7
  6
CONTINUOUS
 10
182.7692192071
 20
133.3147141884
 11
182.7692192071
 21
137.3909061884
  0
LINE
  5
4B9
100
AcDbEntity
  8
0
100
AcDbLine
 62
7
  6
CONTINUOUS
 10
182.7692192071
 20
203.4949141884
 11
182.7692192071
 21
207.4949061884
  0
LINE
  5
4BA
100
AcDbEntity
  8
0
100
AcDbLine
 62
7
  6
CONTINUOUS
 10
184.2170192072
 20
114.2327101884
 11
184.2170192072
 21
116.6711101884
  0
LINE
  5
4BB
100
AcDbEntity
  8
0
100
AcDbLine
 62
7
  6
CONTINUOUS
 10
184.6996192072
 20
126.5009160993
 11
184.6996192072
 21
214.3849240353
  0
LINE
  5
4BC
100
AcDbEntity
  8
0
100
AcDbLine
 62
7
  6
CONTINUOUS
 10
185.7410192072
 20
116.6711101884
 11
185.7410192072
 21
114.2327101884
  0
LINE
  5
4BD
100
AcDbEntity
  8
0
100
AcDbLine
 62
7
  6
CONTINUOUS
 10
186.1982192072
 20
119.1095101884
 11
186.1982192072
 21
128.2789160993
  0
LINE
  5
4BE
100
AcDbEntity
  8
0
100
AcDbLine
 62
7
  6
CONTINUOUS
 10
186.1982192072
 20
128.2789160993
 11
186.1982192072
 21
132.9271101884
  0
LINE
  5
4BF
100
AcDbEntity
  8
0
100
AcDbLine
 62
7
  6
CONTINUOUS
 10
191.9386192072
 20
155.4569101884
 11
192.7006192072
 21
156.2189101884
  0
LINE
  5
4C0
100
AcDbEntity
  8
0
100
AcDbLine
 62
7
  6
CONTINUOUS
 10
195.1390192072
 20
155.2088918379
 11
194.3770192072
 21
154.4468918379
  0
LINE
  5
4C1
100
AcDbEntity
  8
0
100
AcDbLine
 62
7
  6
CONTINUOUS
 10
208.2200192072
 20
167.6271169884
 11
207.8608124949
 21
167.2679101884
  0
LINE
  5
4C2
100
AcDbEntity
  8
0
100
AcDbLine
 62
7
  6
CONTINUOUS
 10
192.7006192072
 20
184.6669101884
 11
191.9386192072
 21
185.4289101884
  0
LINE
  5
4C3
100
AcDbEntity
  8
0
100
AcDbLine
 62
7
  6
CONTINUOUS
 10
194.3770192072
 20
186.4389285389
 11
195.1390192072
 21
185.6769285389
  0
LINE
  5
4C4
100
AcDbEntity
  8
0
100
AcDbLine
 62
7
  6
CONTINUOUS
 10
208.2200192072
 20
173.2587033884
 11
207.8608124949
 21
173.6179101884
  0
LINE
  5
4C5
100
AcDbEntity
  8
0
100
AcDbLine
 62
7
  6
CONTINUOUS
 10
191.4922499417
 20
195.2538691229
 11
189.7971792974
 21
196.9489397672
  0
LINE
  5
4C6
100
AcDbEntity
  8
0
100
AcDbLine
 62
7
  6
CONTINUOUS
 10
188.6366192072
 20
120.6335101884
 11
188.6366192072
 21
212.6069238581
  0
LINE
  5
4C7
100
AcDbEntity
  8
0
100
AcDbLine
 62
7
  6
CONTINUOUS
 10
191.0115192072
 20
158.7589821282
 11
191.0115192072
 21
182.1268382487
  0
LINE
  5
4C8
100
AcDbEntity
  8
0
100
AcDbLine
 62
7
  6
CONTINUOUS
 10
191.0750192072
 20
120.6335101884
 11
191.0750192072
 21
141.0842439884
  0
LINE
  5
4C9
100
AcDbEntity
  8
0
100
AcDbLine
 62
7
  6
CONTINUOUS
 10
191.0750192072
 20
199.750779677
 11
191.0750192072
 21
212.5815101884
  0
LINE
  5
4CA
100
AcDbEntity
  8
0
100
AcDbLine
 62
7
  6
CONTINUOUS
 10
191.3588134949
 20
176.7928339884
 11
191.3588134949
 21
175.1068330007
  0
LINE
  5
4CB
100
AcDbEntity
  8
0
100
AcDbLine
 62
7
  6
CONTINUOUS
 10
191.3588134949
 20
165.7789873761
 11
191.3588134949
 21
164.0929863884
  0
LINE
  5
4CC
100
AcDbEntity
  8
0
100
AcDbLine
 62
7
  6
CONTINUOUS
 10
191.9132192071
 20
165.7241132829
 11
191.9132192071
 21
175.1617070939
  0
LINE
  5
4CD
100
AcDbEntity
  8
0
100
AcDbLine
 62
7
  6
CONTINUOUS
 10
191.9386192072
 20
146.658785277
 11
191.9386192072
 21
194.1762383884
  0
LINE
  5
4CE
100
AcDbEntity
  8
0
100
AcDbLine
 62
7
  6
CONTINUOUS
 10
192.7006192072
 20
156.2189101884
 11
192.7006192072
 21
184.6669101884
  0
LINE
  5
4CF
100
AcDbEntity
  8
0
100
AcDbLine
 62
7
  6
CONTINUOUS
 10
193.2340192071
 20
172.4241101884
 11
193.2340192071
 21
168.4617101884
  0
LINE
  5
4D0
100
AcDbEntity
  8
0
100
AcDbLine
 62
7
  6
CONTINUOUS
 10
194.3770192072
 20
154.4468918379
 11
194.3770192072
 21
146.658785277
  0
LINE
  5
4D1
100
AcDbEntity
  8
0
100
AcDbLine
 62
7
  6
CONTINUOUS
 10
194.3770192072
 20
186.4389285389
 11
194.3770192072
 21
194.1762383884
  0
LINE
  5
4D2
100
AcDbEntity
  8
0
100
AcDbLine
 62
7
  6
CONTINUOUS
 10
195.1390192072
 20
154.6949101884
 11
195.1390192072
 21
186.1909101884
  0
LINE
  5
4D3
100
AcDbEntity
  8
0
100
AcDbLine
 62
7
  6
CONTINUOUS
 10
189.7971792974
 20
143.8860838982
 11
191.4922499416
 21
145.5811545424
  0
LINE
  5
4D4
100
AcDbEntity
  8
0
100
AcDbLine
 62
7
  6
CONTINUOUS
 10
193.2164591169
 20
143.8569453672
 11
191.5213884726
 21
142.1618747229
  0
LINE
  5
4D5
100
AcDbEntity
  8
0
100
AcDbLine
 62
7
  6
CONTINUOUS
 10
191.5213884727
 20
198.6731489424
 11
193.2164591169
 21
196.9780782982
  0
LINE
  5
4D6
100
AcDbEntity
  8
0
100
AcDbLine
 62
7
  6
CONTINUOUS
 10
197.8060192072
 20
154.6949101884
 11
197.8060192072
 21
186.1909101884
  0
LINE
  5
4D7
100
AcDbEntity
  8
0
100
AcDbLine
 62
7
  6
CONTINUOUS
 10
198.0092192071
 20
179.9679101884
 11
198.0092192071
 21
160.9179101884
  0
LINE
  5
4D8
100
AcDbEntity
  8
0
100
AcDbLine
 62
7
  6
CONTINUOUS
 10
200.6000192072
 20
160.9179101884
 11
200.6000192072
 21
179.9679101884
  0
LINE
  5
4D9
100
AcDbEntity
  8
0
100
AcDbLine
 62
7
  6
CONTINUOUS
 10
200.6254192072
 20
161.5529101884
 11
200.6254192072
 21
168.4617101884
  0
LINE
  5
4DA
100
AcDbEntity
  8
0
100
AcDbLine
 62
7
  6
CONTINUOUS
 10
200.6254192072
 20
172.4241101884
 11
200.6254192072
 21
179.3329101884
  0
LINE
  5
4DB
100
AcDbEntity
  8
0
100
AcDbLine
 62
7
  6
CONTINUOUS
 10
200.6508192071
 20
168.0299135606
 11
200.6508192071
 21
172.8559068162
  0
LINE
  5
4DC
100
AcDbEntity
  8
0
100
AcDbLine
 62
7
  6
CONTINUOUS
 10
201.8700192072
 20
176.7928681439
 11
201.8700192072
 21
164.0929522329
  0
LINE
  5
4DD
100
AcDbEntity
  8
0
100
AcDbLine
 62
7
  6
CONTINUOUS
 10
203.1400192072
 20
156.4475101884
 11
203.1400192072
 21
159.2669101884
  0
LINE
  5
4DE
100
AcDbEntity
  8
0
100
AcDbLine
 62
7
  6
CONTINUOUS
 10
203.1400192072
 20
181.6189101884
 11
203.1400192072
 21
184.4383101884
  0
LINE
  5
4DF
100
AcDbEntity
  8
0
100
AcDbLine
 62
7
  6
CONTINUOUS
 10
204.6640192072
 20
156.4475101884
 11
204.6640192072
 21
159.2669101884
  0
LINE
  5
4E0
100
AcDbEntity
  8
0
100
AcDbLine
 62
7
  6
CONTINUOUS
 10
204.6640192072
 20
181.6189101884
 11
204.6640192072
 21
184.4383101884
  0
LINE
  5
4E1
100
AcDbEntity
  8
0
100
AcDbLine
 62
7
  6
CONTINUOUS
 10
205.0450192072
 20
164.0929521001
 11
205.0450192072
 21
176.7928682768
  0
LINE
  5
4E2
100
AcDbEntity
  8
0
100
AcDbLine
 62
7
  6
CONTINUOUS
 10
207.8608124949
 20
167.2679101884
 11
207.8608124949
 21
173.6179101884
  0
LINE
  5
4E3
100
AcDbEntity
  8
0
100
AcDbLine
 62
7
  6
CONTINUOUS
 10
208.2200192072
 20
167.6271169884
 11
208.2200192072
 21
173.2587033884
  0
LINE
  5
4E4
100
AcDbEntity
  8
0
100
AcDbLine
 62
7
  6
CONTINUOUS
 10
210.0615192072
 20
181.6189101884
 11
210.0615192072
 21
184.4383101884
  0
LINE
  5
4E5
100
AcDbEntity
  8
0
100
AcDbLine
 62
7
  6
CONTINUOUS
 10
210.9251192072
 20
159.2669101884
 11
210.9251192072
 21
156.4475101884
  0
LINE
  5
4E6
100
AcDbEntity
  8
0
100
AcDbLine
 62
7
  6
CONTINUOUS
 10
218.7229192072
 20
159.2669101884
 11
218.7229192072
 21
156.4475101884
  0
LINE
  5
4E7
100
AcDbEntity
  8
0
100
AcDbLine
 62
7
  6
CONTINUOUS
 10
219.5865192072
 20
181.6189101884
 11
219.5865192072
 21
184.4383101884
  0
LINE
  5
4E8
100
AcDbEntity
  8
0
100
AcDbLine
 62
7
  6
CONTINUOUS
 10
224.9840192072
 20
184.4383101884
 11
224.9840192072
 21
181.6189101884
  0
LINE
  5
4E9
100
AcDbEntity
  8
0
100
AcDbLine
 62
7
  6
CONTINUOUS
 10
224.9840192072
 20
159.2669101884
 11
224.9840192072
 21
156.4475101884
  0
ARC
  5
4EA
100
AcDbEntity
  8
0
100
AcDbCircle
 62
7
  6
CONTINUOUS
 10
30.6232192072
 20
117.4585101884
 40
3.2258
100
AcDbArc
 50
180.0
 51
264.1902347314
  0
ARC
  5
4EB
100
AcDbEntity
  8
0
100
AcDbCircle
 62
7
  6
CONTINUOUS
 10
30.6232192072
 20
117.4585101884
 40
0.7874
100
AcDbArc
 50
180.0
 51
270.0
  0
ARC
  5
4EC
100
AcDbEntity
  8
0
100
AcDbCircle
 62
7
  6
CONTINUOUS
 10
44.1881908072
 20
117.4331101884
 40
0.762
100
AcDbArc
 50
270.0
 51
330.0
  0
ARC
  5
4ED
100
AcDbEntity
  8
0
100
AcDbCircle
 62
7
  6
CONTINUOUS
 10
68.8669688069
 20
155.2059291259
 40
37.3888
100
AcDbArc
 50
267.0440719323
 51
280.2618900362
  0
ARC
  5
4EE
100
AcDbEntity
  8
0
100
AcDbCircle
 62
7
  6
CONTINUOUS
 10
68.8669688069
 20
155.2059291259
 40
33.0708
100
AcDbArc
 50
261.4648547442
 51
277.5794991723
  0
CIRCLE
  5
4EF
100
AcDbEntity
  8
0
100
AcDbCircle
 62
7
  6
CONTINUOUS
 10
68.8669688077
 20
158.3461601884
 40
4.37515
  0
ARC
  5
4F0
100
AcDbEntity
  8
0
100
AcDbCircle
 62
7
  6
CONTINUOUS
 10
60.3150936077
 20
162.4905740215
 40
1.778
100
AcDbArc
 50
345.0000000005
 51
2.655651666
  0
ARC
  5
4F1
100
AcDbEntity
  8
0
100
AcDbCircle
 62
7
  6
CONTINUOUS
 10
60.3150936077
 20
162.8196564215
 40
1.778
100
AcDbArc
 50
345.0000000006
 51
55.8648654756
  0
ARC
  5
4F2
100
AcDbEntity
  8
0
100
AcDbCircle
 62
7
  6
CONTINUOUS
 10
60.3150936077
 20
162.4905740215
 40
0.762
100
AcDbArc
 50
10.2270768558
 51
55.8648654824
  0
ARC
  5
4F3
100
AcDbEntity
  8
0
100
AcDbCircle
 62
7
  6
CONTINUOUS
 10
60.3150936077
 20
162.8196564215
 40
0.762
100
AcDbArc
 50
344.9999999985
 51
55.864865483
  0
ARC
  5
4F4
100
AcDbEntity
  8
0
100
AcDbCircle
 62
7
  6
CONTINUOUS
 10
91.0846677032
 20
128.1073808134
 40
2.317829375
100
AcDbArc
 50
15.0878225691
 51
90.0
  0
ARC
  5
4F5
100
AcDbEntity
  8
0
100
AcDbCircle
 62
7
  6
CONTINUOUS
 10
86.2895259123
 20
128.1073808134
 40
2.317829375
100
AcDbArc
 50
90.0
 51
164.9121774309
  0
ARC
  5
4F6
100
AcDbEntity
  8
0
100
AcDbCircle
 62
7
  6
CONTINUOUS
 10
86.3580035026
 20
128.5309675698
 40
1.8942426187
100
AcDbArc
 50
89.9998329042
 51
91.6738578072
  0
ARC
  5
4F7
100
AcDbEntity
  8
0
100
AcDbCircle
 62
7
  6
CONTINUOUS
 10
86.3579533263
 20
128.532961989
 40
1.8922475848
100
AcDbArc
 50
91.6741031451
 51
92.0251934841
  0
CIRCLE
  5
4F8
100
AcDbEntity
  8
0
100
AcDbCircle
 62
7
  6
CONTINUOUS
 10
108.7703688077
 20
158.3461601884
 40
4.37515
  0
ARC
  5
4F9
100
AcDbEntity
  8
0
100
AcDbCircle
 62
7
  6
CONTINUOUS
 10
100.2184936077
 20
162.4905740215
 40
1.778
100
AcDbArc
 50
345.0000000005
 51
2.655651666
  0
ARC
  5
4FA
100
AcDbEntity
  8
0
100
AcDbCircle
 62
7
  6
CONTINUOUS
 10
77.4188440077
 20
162.4905740215
 40
1.778
100
AcDbArc
 50
177.3443483358
 51
194.9999999994
  0
ARC
  5
4FB
100
AcDbEntity
  8
0
100
AcDbCircle
 62
7
  6
CONTINUOUS
 10
77.4188440077
 20
162.8196564215
 40
1.778
100
AcDbArc
 50
124.135134524
 51
194.9999999995
  0
ARC
  5
4FC
100
AcDbEntity
  8
0
100
AcDbCircle
 62
7
  6
CONTINUOUS
 10
100.2184936077
 20
162.8196564215
 40
1.778
100
AcDbArc
 50
345.0000000006
 51
55.8648654756
  0
ARC
  5
4FD
100
AcDbEntity
  8
0
100
AcDbCircle
 62
7
  6
CONTINUOUS
 10
100.2184936077
 20
162.4905740215
 40
0.762
100
AcDbArc
 50
10.2270768558
 51
55.8648654824
  0
ARC
  5
4FE
100
AcDbEntity
  8
0
100
AcDbCircle
 62
7
  6
CONTINUOUS
 10
77.4188440077
 20
162.4905740215
 40
0.762
100
AcDbArc
 50
148.5047555439
 51
169.7729231443
  0
ARC
  5
4FF
100
AcDbEntity
  8
0
100
AcDbCircle
 62
7
  6
CONTINUOUS
 10
77.4188440077
 20
162.8196564215
 40
0.762
100
AcDbArc
 50
133.8833576072
 51
195.0000000012
  0
ARC
  5
500
100
AcDbEntity
  8
0
100
AcDbCircle
 62
7
  6
CONTINUOUS
 10
100.2184936077
 20
162.8196564215
 40
0.762
100
AcDbArc
 50
344.9999999985
 51
55.864865483
  0
ARC
  5
501
100
AcDbEntity
  8
0
100
AcDbCircle
 62
7
  6
CONTINUOUS
 10
58.6539091126
 20
164.9407935702
 40
2.839093954
100
AcDbArc
 50
318.2644452446
 51
322.9850353764
  0
ARC
  5
502
100
AcDbEntity
  8
0
100
AcDbCircle
 62
7
  6
CONTINUOUS
 10
58.7535920983
 20
164.9441394663
 40
2.7518458563
100
AcDbArc
 50
344.3903552456
 51
345.3117903936
  0
ARC
  5
503
100
AcDbEntity
  8
0
100
AcDbCircle
 62
7
  6
CONTINUOUS
 10
56.7257180069
 20
176.7704970539
 40
2.3368
100
AcDbArc
 50
32.498956344
 51
44.9999999997
  0
ARC
  5
504
100
AcDbEntity
  8
0
100
AcDbCircle
 62
7
  6
CONTINUOUS
 10
63.7869688069
 20
176.7705073884
 40
2.3368
100
AcDbArc
 50
135.0000000006
 51
180.0
  0
ARC
  5
505
100
AcDbEntity
  8
0
100
AcDbCircle
 62
7
  6
CONTINUOUS
 10
55.5954180069
 20
173.1932861463
 40
1.3335
100
AcDbArc
 50
149.1502065094
 51
180.0
  0
ARC
  5
506
100
AcDbEntity
  8
0
100
AcDbCircle
 62
7
  6
CONTINUOUS
 10
55.5954180069
 20
173.1932861463
 40
1.3335
100
AcDbArc
 50
0.0
 51
95.5629344157
  0
ARC
  5
507
100
AcDbEntity
  8
0
100
AcDbCircle
 62
7
  6
CONTINUOUS
 10
64.9426180069
 20
173.1932861463
 40
1.3335
100
AcDbArc
 50
90.0
 51
180.0
  0
ARC
  5
508
100
AcDbEntity
  8
0
100
AcDbCircle
 62
7
  6
CONTINUOUS
 10
63.7869180069
 20
176.7705073884
 40
0.762
100
AcDbArc
 50
135.0000000008
 51
180.0
  0
ARC
  5
509
100
AcDbEntity
  8
0
100
AcDbCircle
 62
7
  6
CONTINUOUS
 10
72.201970521
 20
168.2568651587
 40
2.421306166
100
AcDbArc
 50
167.3401786187
 51
173.3518551877
  0
ARC
  5
50A
100
AcDbEntity
  8
0
100
AcDbCircle
 62
7
  6
CONTINUOUS
 10
68.1557633092
 20
173.7957101884
 40
15.4813
100
AcDbArc
 50
180.0
 51
184.42283463
  0
ARC
  5
50B
100
AcDbEntity
  8
0
100
AcDbCircle
 62
7
  6
CONTINUOUS
 10
68.1557633092
 20
173.7957101884
 40
15.4813
100
AcDbArc
 50
252.0798388662
 51
292.8292291516
  0
ARC
  5
50C
100
AcDbEntity
  8
0
100
AcDbCircle
 62
7
  6
CONTINUOUS
 10
68.1557633092
 20
173.7957101884
 40
15.4813
100
AcDbArc
 50
355.5706405677
 51
359.9999999999
  0
ARC
  5
50D
100
AcDbEntity
  8
0
100
AcDbCircle
 62
7
  6
CONTINUOUS
 10
68.8669688077
 20
175.1049717703
 40
14.478
100
AcDbArc
 50
228.6103602649
 51
235.86486547
  0
ARC
  5
50E
100
AcDbEntity
  8
0
100
AcDbCircle
 62
7
  6
CONTINUOUS
 10
68.8669688077
 20
175.1049717703
 40
14.478
100
AcDbArc
 50
180.0
 51
192.7090792796
  0
ARC
  5
50F
100
AcDbEntity
  8
0
100
AcDbCircle
 62
7
  6
CONTINUOUS
 10
68.8669688077
 20
175.1049717703
 40
14.478
100
AcDbArc
 50
347.2909207204
 51
360.0
  0
ARC
  5
510
100
AcDbEntity
  8
0
100
AcDbCircle
 62
7
  6
CONTINUOUS
 10
68.8669688077
 20
175.4340541703
 40
14.478
100
AcDbArc
 50
346.3385797945
 51
15.6321984624
  0
ARC
  5
511
100
AcDbEntity
  8
0
100
AcDbCircle
 62
7
  6
CONTINUOUS
 10
68.8669688077
 20
175.4340541703
 40
14.478
100
AcDbArc
 50
227.8088796524
 51
235.8648654699
  0
ARC
  5
512
100
AcDbEntity
  8
0
100
AcDbCircle
 62
7
  6
CONTINUOUS
 10
68.8669688077
 20
175.4340541703
 40
14.478
100
AcDbArc
 50
164.1461588635
 51
193.6614202055
  0
ARC
  5
513
100
AcDbEntity
  8
0
100
AcDbCircle
 62
7
  6
CONTINUOUS
 10
68.8669688077
 20
175.1049717703
 40
13.462
100
AcDbArc
 50
165.8192357366
 51
178.5956960297
  0
ARC
  5
514
100
AcDbEntity
  8
0
100
AcDbCircle
 62
7
  6
CONTINUOUS
 10
68.8669688077
 20
175.1049717703
 40
13.462
100
AcDbArc
 50
1.4043039703
 51
13.8430273066
  0
ARC
  5
515
100
AcDbEntity
  8
0
100
AcDbCircle
 62
7
  6
CONTINUOUS
 10
68.8669688077
 20
175.4340541703
 40
13.462
100
AcDbArc
 50
304.1351345301
 51
311.2718659954
  0
ARC
  5
516
100
AcDbEntity
  8
0
100
AcDbCircle
 62
7
  6
CONTINUOUS
 10
68.8669688077
 20
175.4340541703
 40
13.462
100
AcDbArc
 50
345.7121665916
 51
12.6789082613
  0
ARC
  5
517
100
AcDbEntity
  8
0
100
AcDbCircle
 62
7
  6
CONTINUOUS
 10
68.8669688077
 20
175.4340541703
 40
13.462
100
AcDbArc
 50
166.9874623478
 51
194.2878334084
  0
ARC
  5
518
100
AcDbEntity
  8
0
100
AcDbCircle
 62
7
  6
CONTINUOUS
 10
68.8669688077
 20
175.4340541703
 40
13.462
100
AcDbArc
 50
220.9635870359
 51
235.8648654699
  0
ARC
  5
519
100
AcDbEntity
  8
0
100
AcDbCircle
 62
7
  6
CONTINUOUS
 10
68.7359238193
 20
172.9319776567
 40
6.477
100
AcDbArc
 50
220.808875
 51
318.569975
  0
ARC
  5
51A
100
AcDbEntity
  8
0
100
AcDbCircle
 62
7
  6
CONTINUOUS
 10
68.9980137962
 20
173.2610600567
 40
6.477
100
AcDbArc
 50
221.430025
 51
319.191125
  0
ARC
  5
51B
100
AcDbEntity
  8
0
100
AcDbCircle
 62
7
  6
CONTINUOUS
 10
68.9980137962
 20
173.2610600567
 40
4.572
100
AcDbArc
 50
221.430025
 51
319.191125
  0
ARC
  5
51C
100
AcDbEntity
  8
0
100
AcDbCircle
 62
7
  6
CONTINUOUS
 10
79.7386706016
 20
174.2441346477
 40
2.1481902638
100
AcDbArc
 50
73.5355201213
 51
77.4272157905
  0
ARC
  5
51D
100
AcDbEntity
  8
0
100
AcDbCircle
 62
7
  6
CONTINUOUS
 10
54.5165276077
 20
180.9469640131
 40
2.032
100
AcDbArc
 50
347.8135222074
 51
2.1299657929
  0
ARC
  5
51E
100
AcDbEntity
  8
0
100
AcDbCircle
 62
7
  6
CONTINUOUS
 10
54.5165276077
 20
180.9469640131
 40
2.032
100
AcDbArc
 50
250.0711948154
 51
276.3262780001
  0
ARC
  5
51F
100
AcDbEntity
  8
0
100
AcDbCircle
 62
7
  6
CONTINUOUS
 10
83.2174100077
 20
180.9469640131
 40
2.032
100
AcDbArc
 50
263.304873
 51
282.0488981449
  0
ARC
  5
520
100
AcDbEntity
  8
0
100
AcDbCircle
 62
7
  6
CONTINUOUS
 10
83.2174100077
 20
180.9469640131
 40
2.032
100
AcDbArc
 50
177.8554986826
 51
194.093227783
  0
ARC
  5
521
100
AcDbEntity
  8
0
100
AcDbCircle
 62
7
  6
CONTINUOUS
 10
83.2174100077
 20
181.2760464131
 40
2.032
100
AcDbArc
 50
263.6737219999
 51
201.2046726414
  0
ARC
  5
522
100
AcDbEntity
  8
0
100
AcDbCircle
 62
7
  6
CONTINUOUS
 10
54.5165276077
 20
181.2760464131
 40
2.032
100
AcDbArc
 50
340.402276687
 51
276.695127
  0
ARC
  5
523
100
AcDbEntity
  8
0
100
AcDbCircle
 62
7
  6
CONTINUOUS
 10
83.2174100077
 20
181.2760464131
 40
1.016
100
AcDbArc
 50
304.6961964319
 51
155.8482108777
  0
ARC
  5
524
100
AcDbEntity
  8
0
100
AcDbCircle
 62
7
  6
CONTINUOUS
 10
54.5165276077
 20
181.2760464131
 40
1.016
100
AcDbArc
 50
28.2955513424
 51
243.4654370829
  0
ARC
  5
525
100
AcDbEntity
  8
0
100
AcDbCircle
 62
7
  6
CONTINUOUS
 10
54.6452380829
 20
181.1750120693
 40
0.9525
100
AcDbArc
 50
41.4300250005
 51
221.430025
  0
ARC
  5
526
100
AcDbEntity
  8
0
100
AcDbCircle
 62
7
  6
CONTINUOUS
 10
83.2174100077
 20
181.2760101884
 40
0.9525
100
AcDbArc
 50
319.191125
 51
139.191125
  0
ARC
  5
527
100
AcDbEntity
  8
0
100
AcDbCircle
 62
7
  6
CONTINUOUS
 10
108.5417633092
 20
173.7957101884
 40
15.4813
100
AcDbArc
 50
179.9999999998
 51
184.42283463
  0
ARC
  5
528
100
AcDbEntity
  8
0
100
AcDbCircle
 62
7
  6
CONTINUOUS
 10
108.5417633092
 20
173.7957101884
 40
15.4813
100
AcDbArc
 50
238.6888910195
 51
242.8450249679
  0
ARC
  5
529
100
AcDbEntity
  8
0
100
AcDbCircle
 62
7
  6
CONTINUOUS
 10
108.5417633092
 20
173.7957101884
 40
15.4813
100
AcDbArc
 50
250.3568115337
 51
291.161873841
  0
ARC
  5
52A
100
AcDbEntity
  8
0
100
AcDbCircle
 62
7
  6
CONTINUOUS
 10
108.5417633092
 20
173.7957101884
 40
15.4813
100
AcDbArc
 50
298.8081467612
 51
302.9692425278
  0
ARC
  5
52B
100
AcDbEntity
  8
0
100
AcDbCircle
 62
7
  6
CONTINUOUS
 10
108.5417633092
 20
173.7957101884
 40
15.4813
100
AcDbArc
 50
355.5706405678
 51
359.9999999994
  0
ARC
  5
52C
100
AcDbEntity
  8
0
100
AcDbCircle
 62
7
  6
CONTINUOUS
 10
108.7703688077
 20
175.1049717703
 40
14.478
100
AcDbArc
 50
232.1283168575
 51
235.86486547
  0
ARC
  5
52D
100
AcDbEntity
  8
0
100
AcDbCircle
 62
7
  6
CONTINUOUS
 10
108.7703688077
 20
175.1049717703
 40
14.478
100
AcDbArc
 50
180.0
 51
192.7090792796
  0
ARC
  5
52E
100
AcDbEntity
  8
0
100
AcDbCircle
 62
7
  6
CONTINUOUS
 10
108.7703688077
 20
175.1049717703
 40
14.478
100
AcDbArc
 50
347.2909207204
 51
360.0
  0
ARC
  5
52F
100
AcDbEntity
  8
0
100
AcDbCircle
 62
7
  6
CONTINUOUS
 10
108.7703688077
 20
175.1049717703
 40
14.478
100
AcDbArc
 50
304.1351345301
 51
306.332190643
  0
ARC
  5
530
100
AcDbEntity
  8
0
100
AcDbCircle
 62
7
  6
CONTINUOUS
 10
108.7703688077
 20
175.4340541703
 40
14.478
100
AcDbArc
 50
346.3385797945
 51
15.6321984624
  0
ARC
  5
531
100
AcDbEntity
  8
0
100
AcDbCircle
 62
7
  6
CONTINUOUS
 10
108.7703688077
 20
175.4340541703
 40
14.478
100
AcDbArc
 50
304.13513453
 51
307.1371961843
  0
ARC
  5
532
100
AcDbEntity
  8
0
100
AcDbCircle
 62
7
  6
CONTINUOUS
 10
108.7703688077
 20
175.4340541703
 40
14.478
100
AcDbArc
 50
231.3250450093
 51
235.8648654699
  0
ARC
  5
533
100
AcDbEntity
  8
0
100
AcDbCircle
 62
7
  6
CONTINUOUS
 10
108.7703688077
 20
175.4340541703
 40
14.478
100
AcDbArc
 50
164.1461588635
 51
193.6614202055
  0
ARC
  5
534
100
AcDbEntity
  8
0
100
AcDbCircle
 62
7
  6
CONTINUOUS
 10
108.7703688077
 20
175.1049717703
 40
13.462
100
AcDbArc
 50
165.8192357366
 51
178.5956960297
  0
ARC
  5
535
100
AcDbEntity
  8
0
100
AcDbCircle
 62
7
  6
CONTINUOUS
 10
108.7703688077
 20
175.1049717703
 40
13.462
100
AcDbArc
 50
1.4043039703
 51
13.8430273066
  0
ARC
  5
536
100
AcDbEntity
  8
0
100
AcDbCircle
 62
7
  6
CONTINUOUS
 10
108.7703688077
 20
175.4340541703
 40
13.462
100
AcDbArc
 50
304.1351345301
 51
315.0591549257
  0
ARC
  5
537
100
AcDbEntity
  8
0
100
AcDbCircle
 62
7
  6
CONTINUOUS
 10
108.7703688077
 20
175.4340541703
 40
13.462
100
AcDbArc
 50
345.7121665916
 51
12.6789082613
  0
ARC
  5
538
100
AcDbEntity
  8
0
100
AcDbCircle
 62
7
  6
CONTINUOUS
 10
108.7703688077
 20
175.4340541703
 40
13.462
100
AcDbArc
 50
166.9874623478
 51
194.2878334084
  0
ARC
  5
539
100
AcDbEntity
  8
0
100
AcDbCircle
 62
7
  6
CONTINUOUS
 10
108.7703688077
 20
175.4340541703
 40
13.462
100
AcDbArc
 50
223.6829835042
 51
235.8648654699
  0
ARC
  5
53A
100
AcDbEntity
  8
0
100
AcDbCircle
 62
7
  6
CONTINUOUS
 10
108.6393238193
 20
172.9319776567
 40
6.477
100
AcDbArc
 50
220.808875
 51
318.569975
  0
ARC
  5
53B
100
AcDbEntity
  8
0
100
AcDbCircle
 62
7
  6
CONTINUOUS
 10
108.9014137962
 20
173.2610600567
 40
6.477
100
AcDbArc
 50
221.430025
 51
319.191125
  0
ARC
  5
53C
100
AcDbEntity
  8
0
100
AcDbCircle
 62
7
  6
CONTINUOUS
 10
108.9014137962
 20
173.2610600567
 40
4.572
100
AcDbArc
 50
221.430025
 51
319.191125
  0
ARC
  5
53D
100
AcDbEntity
  8
0
100
AcDbCircle
 62
7
  6
CONTINUOUS
 10
98.5573091126
 20
164.9407935702
 40
2.839093954
100
AcDbArc
 50
318.2644452446
 51
322.9850353764
  0
ARC
  5
53E
100
AcDbEntity
  8
0
100
AcDbCircle
 62
7
  6
CONTINUOUS
 10
98.6569920984
 20
164.9441394662
 40
2.7518458562
100
AcDbArc
 50
344.3903552455
 51
345.3117903936
  0
ARC
  5
53F
100
AcDbEntity
  8
0
100
AcDbCircle
 62
7
  6
CONTINUOUS
 10
103.6903688069
 20
176.7705073884
 40
2.3368
100
AcDbArc
 50
135.0000000006
 51
180.0
  0
ARC
  5
540
100
AcDbEntity
  8
0
100
AcDbCircle
 62
7
  6
CONTINUOUS
 10
104.8460180069
 20
173.1932861463
 40
1.3335
100
AcDbArc
 50
90.0
 51
180.0
  0
ARC
  5
541
100
AcDbEntity
  8
0
100
AcDbCircle
 62
7
  6
CONTINUOUS
 10
103.6903180069
 20
176.7705073884
 40
0.762
100
AcDbArc
 50
135.0000000008
 51
180.0
  0
ARC
  5
542
100
AcDbEntity
  8
0
100
AcDbCircle
 62
7
  6
CONTINUOUS
 10
94.4199276077
 20
180.9469640131
 40
2.032
100
AcDbArc
 50
347.8135222074
 51
2.1299657929
  0
ARC
  5
543
100
AcDbEntity
  8
0
100
AcDbCircle
 62
7
  6
CONTINUOUS
 10
94.4199276077
 20
180.9469640131
 40
2.032
100
AcDbArc
 50
250.0711948156
 51
276.3262780001
  0
ARC
  5
544
100
AcDbEntity
  8
0
100
AcDbCircle
 62
7
  6
CONTINUOUS
 10
94.4199276077
 20
181.2760464131
 40
2.032
100
AcDbArc
 50
340.402276687
 51
276.695127
  0
ARC
  5
545
100
AcDbEntity
  8
0
100
AcDbCircle
 62
7
  6
CONTINUOUS
 10
116.2593302069
 20
196.3647277884
 40
1.5748
100
AcDbArc
 50
0.0
 51
90.0
  0
ARC
  5
546
100
AcDbEntity
  8
0
100
AcDbCircle
 62
7
  6
CONTINUOUS
 10
111.4079302069
 20
196.3647277884
 40
1.5748
100
AcDbArc
 50
90.0
 51
180.0
  0
ARC
  5
547
100
AcDbEntity
  8
0
100
AcDbCircle
 62
7
  6
CONTINUOUS
 10
94.4199276077
 20
181.2760464131
 40
1.016
100
AcDbArc
 50
28.2955513424
 51
243.4654370829
  0
ARC
  5
548
100
AcDbEntity
  8
0
100
AcDbCircle
 62
7
  6
CONTINUOUS
 10
94.5486380829
 20
181.1750120693
 40
0.9525
100
AcDbArc
 50
41.4300250005
 51
221.430025
  0
ARC
  5
549
100
AcDbEntity
  8
0
100
AcDbCircle
 62
7
  6
CONTINUOUS
 10
130.9972117032
 20
128.1073808134
 40
2.317829375
100
AcDbArc
 50
15.0878225691
 51
90.0
  0
ARC
  5
54A
100
AcDbEntity
  8
0
100
AcDbCircle
 62
7
  6
CONTINUOUS
 10
126.2020699123
 20
128.1073808134
 40
2.317829375
100
AcDbArc
 50
90.0
 51
164.9121774309
  0
ARC
  5
54B
100
AcDbEntity
  8
0
100
AcDbCircle
 62
7
  6
CONTINUOUS
 10
126.2705475026
 20
128.5309675699
 40
1.8942426185
100
AcDbArc
 50
89.9998329042
 51
91.6738578072
  0
ARC
  5
54C
100
AcDbEntity
  8
0
100
AcDbCircle
 62
7
  6
CONTINUOUS
 10
126.2704973263
 20
128.5329619891
 40
1.8922475848
100
AcDbArc
 50
91.6741031451
 51
92.0251934841
  0
ARC
  5
54D
100
AcDbEntity
  8
0
100
AcDbCircle
 62
7
  6
CONTINUOUS
 10
148.6737688069
 20
155.1990048294
 40
37.3888
100
AcDbArc
 50
259.6992793772
 51
272.3914460952
  0
ARC
  5
54E
100
AcDbEntity
  8
0
100
AcDbCircle
 62
7
  6
CONTINUOUS
 10
148.6737688069
 20
155.1990048294
 40
33.0708
100
AcDbArc
 50
262.0461852262
 51
278.5901021149
  0
CIRCLE
  5
54F
100
AcDbEntity
  8
0
100
AcDbCircle
 62
7
  6
CONTINUOUS
 10
148.6737688077
 20
158.3461601884
 40
4.37515
  0
ARC
  5
550
100
AcDbEntity
  8
0
100
AcDbCircle
 62
7
  6
CONTINUOUS
 10
140.1218936077
 20
162.4905740215
 40
1.778
100
AcDbArc
 50
345.0000000005
 51
2.655651666
  0
ARC
  5
551
100
AcDbEntity
  8
0
100
AcDbCircle
 62
7
  6
CONTINUOUS
 10
157.2256440077
 20
162.4905740215
 40
1.778
100
AcDbArc
 50
177.3443483358
 51
194.9999999994
  0
ARC
  5
552
100
AcDbEntity
  8
0
100
AcDbCircle
 62
7
  6
CONTINUOUS
 10
117.3222440077
 20
162.4905740215
 40
1.778
100
AcDbArc
 50
177.3443483358
 51
194.9999999994
  0
ARC
  5
553
100
AcDbEntity
  8
0
100
AcDbCircle
 62
7
  6
CONTINUOUS
 10
117.3222440077
 20
162.8196564215
 40
1.778
100
AcDbArc
 50
124.135134524
 51
194.9999999995
  0
ARC
  5
554
100
AcDbEntity
  8
0
100
AcDbCircle
 62
7
  6
CONTINUOUS
 10
157.2256440077
 20
162.8196564215
 40
1.778
100
AcDbArc
 50
124.135134524
 51
194.9999999995
  0
ARC
  5
555
100
AcDbEntity
  8
0
100
AcDbCircle
 62
7
  6
CONTINUOUS
 10
140.1218936077
 20
162.8196564215
 40
1.778
100
AcDbArc
 50
345.0000000006
 51
55.8648654756
  0
ARC
  5
556
100
AcDbEntity
  8
0
100
AcDbCircle
 62
7
  6
CONTINUOUS
 10
140.1218936077
 20
162.4905740215
 40
0.762
100
AcDbArc
 50
10.2270768558
 51
55.8648654824
  0
ARC
  5
557
100
AcDbEntity
  8
0
100
AcDbCircle
 62
7
  6
CONTINUOUS
 10
157.2256440077
 20
162.4905740215
 40
0.762
100
AcDbArc
 50
124.135134517
 51
169.7729231443
  0
ARC
  5
558
100
AcDbEntity
  8
0
100
AcDbCircle
 62
7
  6
CONTINUOUS
 10
117.3222440077
 20
162.4905740215
 40
0.762
100
AcDbArc
 50
124.135134517
 51
169.7729231443
  0
ARC
  5
559
100
AcDbEntity
  8
0
100
AcDbCircle
 62
7
  6
CONTINUOUS
 10
117.3222440077
 20
162.8196564215
 40
0.762
100
AcDbArc
 50
124.1351345176
 51
195.0000000012
  0
ARC
  5
55A
100
AcDbEntity
  8
0
100
AcDbCircle
 62
7
  6
CONTINUOUS
 10
157.2256440077
 20
162.8196564215
 40
0.762
100
AcDbArc
 50
124.1351345176
 51
195.0000000012
  0
ARC
  5
55B
100
AcDbEntity
  8
0
100
AcDbCircle
 62
7
  6
CONTINUOUS
 10
140.1218936077
 20
162.8196564215
 40
0.762
100
AcDbArc
 50
344.9999999985
 51
55.864865483
  0
ARC
  5
55C
100
AcDbEntity
  8
0
100
AcDbCircle
 62
7
  6
CONTINUOUS
 10
189.2588912621
 20
134.8627674591
 40
19.1788625767
100
AcDbArc
 50
181.0153582913
 51
181.3790634782
  0
ARC
  5
55D
100
AcDbEntity
  8
0
100
AcDbCircle
 62
7
  6
CONTINUOUS
 10
183.4651242676
 20
135.9599218276
 40
13.3826072652
100
AcDbArc
 50
178.9618947659
 51
179.9618503956
  0
ARC
  5
55E
100
AcDbEntity
  8
0
100
AcDbCircle
 62
7
  6
CONTINUOUS
 10
181.379358399
 20
134.7273647703
 40
11.2981683556
100
AcDbArc
 50
180.0069006692
 51
181.0368968114
  0
ARC
  5
55F
100
AcDbEntity
  8
0
100
AcDbCircle
 62
7
  6
CONTINUOUS
 10
187.1126192072
 20
120.6335101884
 40
3.9624
100
AcDbArc
 50
270.0
 51
360.0
  0
ARC
  5
560
100
AcDbEntity
  8
0
100
AcDbCircle
 62
7
  6
CONTINUOUS
 10
185.4108192072
 20
117.4585101884
 40
3.2258
100
AcDbArc
 50
275.8098960074
 51
352.3304276759
  0
ARC
  5
561
100
AcDbEntity
  8
0
100
AcDbCircle
 62
7
  6
CONTINUOUS
 10
171.6479374214
 20
132.1932055386
 40
1.524
100
AcDbArc
 50
181.0
 51
238.0639647394
  0
ARC
  5
562
100
AcDbEntity
  8
0
100
AcDbCircle
 62
7
  6
CONTINUOUS
 10
171.6479374214
 20
138.4362148382
 40
1.524
100
AcDbArc
 50
121.9360352606
 51
123.4896984279
  0
ARC
  5
563
100
AcDbEntity
  8
0
100
AcDbCircle
 62
7
  6
CONTINUOUS
 10
171.6479374214
 20
138.4362148382
 40
1.524
100
AcDbArc
 50
132.9729898044
 51
179.0
  0
ARC
  5
564
100
AcDbEntity
  8
0
100
AcDbCircle
 62
7
  6
CONTINUOUS
 10
187.1126192072
 20
120.6335101884
 40
1.524
100
AcDbArc
 50
270.0
 51
360.0
  0
ARC
  5
565
100
AcDbEntity
  8
0
100
AcDbCircle
 62
7
  6
CONTINUOUS
 10
202.9114192072
 20
161.5529101884
 40
5.1054
100
AcDbArc
 50
180.0
 51
270.0
  0
ARC
  5
566
100
AcDbEntity
  8
0
100
AcDbCircle
 62
7
  6
CONTINUOUS
 10
190.4146192072
 20
146.658785277
 40
3.9624
100
AcDbArc
 50
314.9999999988
 51
360.0
  0
ARC
  5
567
100
AcDbEntity
  8
0
100
AcDbCircle
 62
7
  6
CONTINUOUS
 10
192.5990192072
 20
141.0842439884
 40
3.9624
100
AcDbArc
 50
135.0000000003
 51
170.4606834708
  0
ARC
  5
568
100
AcDbEntity
  8
0
100
AcDbCircle
 62
7
  6
CONTINUOUS
 10
202.9114192072
 20
161.5529101884
 40
2.286
100
AcDbArc
 50
180.0
 51
270.0
  0
ARC
  5
569
100
AcDbEntity
  8
0
100
AcDbCircle
 62
7
  6
CONTINUOUS
 10
190.4146192072
 20
146.658785277
 40
1.524
100
AcDbArc
 50
314.9999999974
 51
360.0
  0
ARC
  5
56A
100
AcDbEntity
  8
0
100
AcDbCircle
 62
7
  6
CONTINUOUS
 10
192.5990192072
 20
141.0842439884
 40
1.524
100
AcDbArc
 50
135.0000000022
 51
180.0
  0
ARC
  5
56B
100
AcDbEntity
  8
0
100
AcDbCircle
 62
7
  6
CONTINUOUS
 10
138.4607091125
 20
164.9407935702
 40
2.8390939541
100
AcDbArc
 50
318.2644452446
 51
322.9850353764
  0
ARC
  5
56C
100
AcDbEntity
  8
0
100
AcDbCircle
 62
7
  6
CONTINUOUS
 10
138.5024099791
 20
164.9040571973
 40
2.7835205703
100
AcDbArc
 50
317.4670115455
 51
318.2573151877
  0
ARC
  5
56D
100
AcDbEntity
  8
0
100
AcDbCircle
 62
7
  6
CONTINUOUS
 10
138.5603920997
 20
164.9441394659
 40
2.7518458549
100
AcDbArc
 50
344.3903552454
 51
345.311790394
  0
ARC
  5
56E
100
AcDbEntity
  8
0
100
AcDbCircle
 62
7
  6
CONTINUOUS
 10
136.5325180069
 20
176.7704970539
 40
2.3368
100
AcDbArc
 50
32.498956344
 51
44.9999999997
  0
ARC
  5
56F
100
AcDbEntity
  8
0
100
AcDbCircle
 62
7
  6
CONTINUOUS
 10
134.3233276077
 20
180.9469640131
 40
2.032
100
AcDbArc
 50
347.8135222074
 51
2.1299657929
  0
ARC
  5
570
100
AcDbEntity
  8
0
100
AcDbCircle
 62
7
  6
CONTINUOUS
 10
134.3233276077
 20
180.9469640131
 40
2.032
100
AcDbArc
 50
250.4868167188
 51
276.3262780001
  0
ARC
  5
571
100
AcDbEntity
  8
0
100
AcDbCircle
 62
7
  6
CONTINUOUS
 10
123.1208100077
 20
180.9469640131
 40
2.032
100
AcDbArc
 50
263.304873
 51
289.952683763
  0
ARC
  5
572
100
AcDbEntity
  8
0
100
AcDbCircle
 62
7
  6
CONTINUOUS
 10
123.1208100077
 20
180.9469640131
 40
2.032
100
AcDbArc
 50
177.8554986826
 51
194.093227783
  0
ARC
  5
573
100
AcDbEntity
  8
0
100
AcDbCircle
 62
7
  6
CONTINUOUS
 10
123.1208100077
 20
181.2760464131
 40
2.032
100
AcDbArc
 50
263.6737219999
 51
201.2046726414
  0
ARC
  5
574
100
AcDbEntity
  8
0
100
AcDbCircle
 62
7
  6
CONTINUOUS
 10
134.3233276077
 20
181.2760464131
 40
2.032
100
AcDbArc
 50
340.402276687
 51
276.695127
  0
ARC
  5
575
100
AcDbEntity
  8
0
100
AcDbCircle
 62
7
  6
CONTINUOUS
 10
135.4022180069
 20
173.1932861463
 40
1.3335
100
AcDbArc
 50
149.1502065094
 51
180.0
  0
ARC
  5
576
100
AcDbEntity
  8
0
100
AcDbCircle
 62
7
  6
CONTINUOUS
 10
135.4022180069
 20
173.1932861463
 40
1.3335
100
AcDbArc
 50
0.0
 51
95.5629344157
  0
ARC
  5
577
100
AcDbEntity
  8
0
100
AcDbCircle
 62
7
  6
CONTINUOUS
 10
123.1208100077
 20
181.2760464131
 40
1.016
100
AcDbArc
 50
304.6961964319
 51
155.8482108777
  0
ARC
  5
578
100
AcDbEntity
  8
0
100
AcDbCircle
 62
7
  6
CONTINUOUS
 10
134.3233276077
 20
181.2760464131
 40
1.016
100
AcDbArc
 50
28.2955513424
 51
243.4654370829
  0
ARC
  5
579
100
AcDbEntity
  8
0
100
AcDbCircle
 62
7
  6
CONTINUOUS
 10
123.1208100077
 20
181.2760101884
 40
0.9525
100
AcDbArc
 50
319.191125
 51
139.191125
  0
ARC
  5
57A
100
AcDbEntity
  8
0
100
AcDbCircle
 62
7
  6
CONTINUOUS
 10
134.4520380829
 20
181.1750120693
 40
0.9525
100
AcDbArc
 50
41.4300250005
 51
221.430025
  0
ARC
  5
57B
100
AcDbEntity
  8
0
100
AcDbCircle
 62
7
  6
CONTINUOUS
 10
148.5427238193
 20
172.9319776567
 40
6.477
100
AcDbArc
 50
220.808875
 51
318.569975
  0
ARC
  5
57C
100
AcDbEntity
  8
0
100
AcDbCircle
 62
7
  6
CONTINUOUS
 10
151.4727729429
 20
168.2530979477
 40
2.4444001616
100
AcDbArc
 50
168.005330381
 51
175.9983452845
  0
ARC
  5
57D
100
AcDbEntity
  8
0
100
AcDbCircle
 62
7
  6
CONTINUOUS
 10
158.9812497273
 20
168.425125482
 40
2.0473811065
100
AcDbArc
 50
77.5029042997
 51
89.9822661076
  0
ARC
  5
57E
100
AcDbEntity
  8
0
100
AcDbCircle
 62
7
  6
CONTINUOUS
 10
148.9277633092
 20
173.7957101884
 40
15.4813
100
AcDbArc
 50
179.9999999996
 51
184.4228346301
  0
ARC
  5
57F
100
AcDbEntity
  8
0
100
AcDbCircle
 62
7
  6
CONTINUOUS
 10
148.9277633092
 20
173.7957101884
 40
15.4813
100
AcDbArc
 50
236.9140292544
 51
241.0799260779
  0
ARC
  5
580
100
AcDbEntity
  8
0
100
AcDbCircle
 62
7
  6
CONTINUOUS
 10
148.9277633092
 20
173.7957101884
 40
15.4813
100
AcDbArc
 50
248.751893341
 51
289.4946364263
  0
ARC
  5
581
100
AcDbEntity
  8
0
100
AcDbCircle
 62
7
  6
CONTINUOUS
 10
148.9277633092
 20
173.7957101884
 40
15.4813
100
AcDbArc
 50
297.0461305889
 51
301.1972074537
  0
ARC
  5
582
100
AcDbEntity
  8
0
100
AcDbCircle
 62
7
  6
CONTINUOUS
 10
148.9277633092
 20
173.7957101884
 40
15.4813
100
AcDbArc
 50
355.5706405678
 51
359.9999999994
  0
ARC
  5
583
100
AcDbEntity
  8
0
100
AcDbCircle
 62
7
  6
CONTINUOUS
 10
148.6737688077
 20
175.1049717703
 40
14.478
100
AcDbArc
 50
180.0
 51
192.7090792796
  0
ARC
  5
584
100
AcDbEntity
  8
0
100
AcDbCircle
 62
7
  6
CONTINUOUS
 10
148.6737688077
 20
175.1049717703
 40
14.478
100
AcDbArc
 50
347.2909207204
 51
360.0
  0
ARC
  5
585
100
AcDbEntity
  8
0
100
AcDbCircle
 62
7
  6
CONTINUOUS
 10
148.6737688077
 20
175.1049717703
 40
14.478
100
AcDbArc
 50
304.1351345301
 51
309.8555172461
  0
ARC
  5
586
100
AcDbEntity
  8
0
100
AcDbCircle
 62
7
  6
CONTINUOUS
 10
148.6737688077
 20
175.4340541703
 40
14.478
100
AcDbArc
 50
346.3385797945
 51
15.6321984624
  0
ARC
  5
587
100
AcDbEntity
  8
0
100
AcDbCircle
 62
7
  6
CONTINUOUS
 10
148.6737688077
 20
175.4340541703
 40
14.478
100
AcDbArc
 50
304.13513453
 51
310.6574010569
  0
ARC
  5
588
100
AcDbEntity
  8
0
100
AcDbCircle
 62
7
  6
CONTINUOUS
 10
148.6737688077
 20
175.4340541703
 40
14.478
100
AcDbArc
 50
234.8542112904
 51
235.8648654699
  0
ARC
  5
589
100
AcDbEntity
  8
0
100
AcDbCircle
 62
7
  6
CONTINUOUS
 10
148.6737688077
 20
175.4340541703
 40
14.478
100
AcDbArc
 50
164.1461588635
 51
193.6614202055
  0
ARC
  5
58A
100
AcDbEntity
  8
0
100
AcDbCircle
 62
7
  6
CONTINUOUS
 10
148.6737688077
 20
175.1049717703
 40
13.462
100
AcDbArc
 50
165.8192357366
 51
178.5956960297
  0
ARC
  5
58B
100
AcDbEntity
  8
0
100
AcDbCircle
 62
7
  6
CONTINUOUS
 10
148.6737688077
 20
175.1049717703
 40
13.462
100
AcDbArc
 50
1.4043039703
 51
13.8430273066
  0
ARC
  5
58C
100
AcDbEntity
  8
0
100
AcDbCircle
 62
7
  6
CONTINUOUS
 10
148.6737688077
 20
175.4340541703
 40
13.462
100
AcDbArc
 50
304.1351345301
 51
317.8505625922
  0
ARC
  5
58D
100
AcDbEntity
  8
0
100
AcDbCircle
 62
7
  6
CONTINUOUS
 10
148.6737688077
 20
175.4340541703
 40
13.462
100
AcDbArc
 50
345.7121665916
 51
12.6789082613
  0
ARC
  5
58E
100
AcDbEntity
  8
0
100
AcDbCircle
 62
7
  6
CONTINUOUS
 10
148.6737688077
 20
175.4340541703
 40
13.462
100
AcDbArc
 50
166.9874623478
 51
194.2878334084
  0
ARC
  5
58F
100
AcDbEntity
  8
0
100
AcDbCircle
 62
7
  6
CONTINUOUS
 10
148.6737688077
 20
175.4340541703
 40
13.462
100
AcDbArc
 50
227.0780683123
 51
235.8648654699
  0
ARC
  5
590
100
AcDbEntity
  8
0
100
AcDbCircle
 62
7
  6
CONTINUOUS
 10
148.8048137962
 20
173.2610600567
 40
6.477
100
AcDbArc
 50
221.430025
 51
319.191125
  0
ARC
  5
591
100
AcDbEntity
  8
0
100
AcDbCircle
 62
7
  6
CONTINUOUS
 10
148.8048137962
 20
173.2610600567
 40
4.572
100
AcDbArc
 50
221.430025
 51
319.191125
  0
ARC
  5
592
100
AcDbEntity
  8
0
100
AcDbCircle
 62
7
  6
CONTINUOUS
 10
143.5937688069
 20
176.7705073884
 40
2.3368
100
AcDbArc
 50
135.0000000006
 51
180.0
  0
ARC
  5
593
100
AcDbEntity
  8
0
100
AcDbCircle
 62
7
  6
CONTINUOUS
 10
158.9939746249
 20
174.2639368901
 40
2.1270177141
100
AcDbArc
 50
61.9822076865
 51
65.4722167092
  0
ARC
  5
594
100
AcDbEntity
  8
0
100
AcDbCircle
 62
7
  6
CONTINUOUS
 10
144.7494180069
 20
173.1932861463
 40
1.3335
100
AcDbArc
 50
90.0
 51
180.0
  0
ARC
  5
595
100
AcDbEntity
  8
0
100
AcDbCircle
 62
7
  6
CONTINUOUS
 10
143.5937180069
 20
176.7705073884
 40
0.762
100
AcDbArc
 50
135.0000000008
 51
180.0
  0
ARC
  5
596
100
AcDbEntity
  8
0
100
AcDbCircle
 62
7
  6
CONTINUOUS
 10
202.9114192072
 20
179.3329101884
 40
5.1054
100
AcDbArc
 50
90.0
 51
180.0
  0
ARC
  5
597
100
AcDbEntity
  8
0
100
AcDbCircle
 62
7
  6
CONTINUOUS
 10
202.9114192072
 20
179.3329101884
 40
2.286
100
AcDbArc
 50
90.0
 51
180.0
  0
ARC
  5
598
100
AcDbEntity
  8
0
100
AcDbCircle
 62
7
  6
CONTINUOUS
 10
163.0242100077
 20
180.9469640131
 40
2.032
100
AcDbArc
 50
263.304873
 51
289.952683763
  0
ARC
  5
599
100
AcDbEntity
  8
0
100
AcDbCircle
 62
7
  6
CONTINUOUS
 10
163.0242100077
 20
180.9469640131
 40
2.032
100
AcDbArc
 50
177.8554986826
 51
194.093227783
  0
ARC
  5
59A
100
AcDbEntity
  8
0
100
AcDbCircle
 62
7
  6
CONTINUOUS
 10
163.0242100077
 20
181.2760464131
 40
2.032
100
AcDbArc
 50
263.6737219999
 51
201.2046726414
  0
ARC
  5
59B
100
AcDbEntity
  8
0
100
AcDbCircle
 62
7
  6
CONTINUOUS
 10
163.0242100077
 20
181.2760464131
 40
1.016
100
AcDbArc
 50
304.6961964319
 51
155.8482108777
  0
ARC
  5
59C
100
AcDbEntity
  8
0
100
AcDbCircle
 62
7
  6
CONTINUOUS
 10
163.0242100077
 20
181.2760101884
 40
0.9525
100
AcDbArc
 50
319.191125
 51
139.191125
  0
ARC
  5
59D
100
AcDbEntity
  8
0
100
AcDbCircle
 62
7
  6
CONTINUOUS
 10
189.2588912714
 20
205.0429674593
 40
19.178862586
100
AcDbArc
 50
181.0153582914
 51
181.3790634781
  0
ARC
  5
59E
100
AcDbEntity
  8
0
100
AcDbCircle
 62
7
  6
CONTINUOUS
 10
183.4651242688
 20
206.1401218276
 40
13.3826072664
100
AcDbArc
 50
178.961894766
 51
179.9618503956
  0
ARC
  5
59F
100
AcDbEntity
  8
0
100
AcDbCircle
 62
7
  6
CONTINUOUS
 10
181.379358399
 20
204.9075647703
 40
11.2981683556
100
AcDbArc
 50
180.0069006692
 51
181.0368968114
  0
ARC
  5
5A0
100
AcDbEntity
  8
0
100
AcDbCircle
 62
7
  6
CONTINUOUS
 10
192.5990192072
 20
199.750779677
 40
3.9624
100
AcDbArc
 50
180.0
 51
225.0000000012
  0
ARC
  5
5A1
100
AcDbEntity
  8
0
100
AcDbCircle
 62
7
  6
CONTINUOUS
 10
190.4146192072
 20
194.1762383884
 40
3.9624
100
AcDbArc
 50
0.0
 51
44.9999999998
  0
ARC
  5
5A2
100
AcDbEntity
  8
0
100
AcDbCircle
 62
7
  6
CONTINUOUS
 10
171.6479374214
 20
202.3734055386
 40
1.524
100
AcDbArc
 50
181.0
 51
238.0639647394
  0
ARC
  5
5A3
100
AcDbEntity
  8
0
100
AcDbCircle
 62
7
  6
CONTINUOUS
 10
171.6479374214
 20
208.6164148382
 40
1.524
100
AcDbArc
 50
121.9360352606
 51
179.0
  0
ARC
  5
5A4
100
AcDbEntity
  8
0
100
AcDbCircle
 62
7
  6
CONTINUOUS
 10
190.4146192072
 20
194.1762383884
 40
1.524
100
AcDbArc
 50
0.0
 51
44.9999999988
  0
ARC
  5
5A5
100
AcDbEntity
  8
0
100
AcDbCircle
 62
7
  6
CONTINUOUS
 10
192.5990192072
 20
199.750779677
 40
1.524
100
AcDbArc
 50
180.0
 51
225.0000000031
  0
SPLINE
  5
5A6
100
AcDbEntity
  8
0
100
AcDbSpline
 62
7
  6
CONTINUOUS
 70
0
 71
3
 72
9
 73
5
 74
0
 42
0.0000001
 43
0.0000001
 44
0.0000000001
 40
0.0
 40
0.0
 40
0.0
 40
0.0
 40
0.5000561286
 40
1.0
 40
1.0
 40
1.0
 40
1.0
 10
170.0941805007
 20
205.5285146827
 30
0.0
 10
170.0910034729
 20
205.4248081042
 30
0.0
 10
170.0848852662
 20
205.2174144254
 30
0.0
 10
170.0812444386
 20
205.0099359504
 30
0.0
 10
170.0811901254
 20
204.9062040257
 30
0.0
  0
SPLINE
  5
5A7
100
AcDbEntity
  8
0
100
AcDbSpline
 62
7
  6
CONTINUOUS
 70
0
 71
3
 72
11
 73
7
 74
0
 42
0.0000001
 43
0.0000001
 44
0.0000000001
 40
0.0
 40
0.0
 40
0.0
 40
0.0
 40
0.2500287657
 40
0.5000505875
 40
0.7500529206
 40
1.0
 40
1.0
 40
1.0
 40
1.0
 10
170.124169534
 20
204.5822811414
 30
0.0
 10
170.1198588401
 20
204.7128373334
 30
0.0
 10
170.1112900739
 20
204.9739473923
 30
0.0
 10
170.098863391
 20
205.3656170395
 30
0.0
 10
170.0873318802
 20
205.7572624352
 30
0.0
 10
170.0825199689
 20
206.0184477905
 30
0.0
 10
170.0825199689
 20
206.1490324514
 30
0.0
  0
SPLINE
  5
5A8
100
AcDbEntity
  8
0
100
AcDbSpline
 62
7
  6
CONTINUOUS
 70
0
 71
3
 72
14
 73
10
 74
0
 42
0.0000001
 43
0.0000001
 44
0.0000000001
 40
0.0
 40
0.0
 40
0.0
 40
0.0
 40
0.0961332142
 40
0.1965441447
 40
0.3042590417
 40
0.4215729978
 40
0.5497538163
 40
0.6892230324
 40
1.0
 40
1.0
 40
1.0
 40
1.0
 10
170.124169534
 20
204.5822811414
 30
0.0
 10
170.1252658894
 20
204.5490762809
 30
0.0
 10
170.1356327025
 20
204.4812211443
 30
0.0
 10
170.1746914436
 20
204.3827675138
 30
0.0
 10
170.2366571124
 20
204.2881064768
 30
0.0
 10
170.3204275784
 20
204.1986326001
 30
0.0
 10
170.4247545781
 20
204.1154262401
 30
0.0
 10
170.5954583292
 20
204.010707732
 30
0.0
 10
170.7405964894
 20
203.9512765595
 30
0.0
 10
170.8427718297
 20
203.9181788846
 30
0.0
  0
SPLINE
  5
5A9
100
AcDbEntity
  8
0
100
AcDbSpline
 62
7
  6
CONTINUOUS
 70
0
 71
3
 72
14
 73
10
 74
0
 42
0.0000001
 43
0.0000001
 44
0.0000000001
 40
0.0
 40
0.0
 40
0.0
 40
0.0
 40
0.3131389241
 40
0.4532956936
 40
0.5817541546
 40
0.6988833136
 40
0.8059312596
 40
0.9052438574
 40
1.0
 40
1.0
 40
1.0
 40
1.0
 10
170.8428299472
 20
202.7200981703
 30
0.0
 10
170.7409833971
 20
202.7521609426
 30
0.0
 10
170.5962533387
 20
202.8096687675
 30
0.0
 10
170.425485492
 20
202.9112898764
 30
0.0
 10
170.3211191458
 20
202.9919810385
 30
0.0
 10
170.2372078363
 20
203.078789764
 30
0.0
 10
170.1750251173
 20
203.1707048757
 30
0.0
 10
170.1357319722
 20
203.2664120337
 30
0.0
 10
170.1252697556
 20
203.3325091182
 30
0.0
 10
170.124169534
 20
203.3648003731
 30
0.0
  0
SPLINE
  5
5AA
100
AcDbEntity
  8
0
100
AcDbSpline
 62
7
  6
CONTINUOUS
 70
0
 71
3
 72
10
 73
6
 74
0
 42
0.0000001
 43
0.0000001
 44
0.0000000001
 40
0.0
 40
0.0
 40
0.0
 40
0.0
 40
0.2499781104
 40
0.4999784025
 40
1.0
 40
1.0
 40
1.0
 40
1.0
 10
170.085583827
 20
204.581392183
 30
0.0
 10
170.0879976634
 20
204.4799958921
 30
0.0
 10
170.0939216342
 20
204.277221367
 30
0.0
 10
170.106954755
 20
203.8716956829
 30
0.0
 10
170.1172611707
 20
203.56755928
 30
0.0
 10
170.124169534
 20
203.3648003731
 30
0.0
  0
SPLINE
  5
5AB
100
AcDbEntity
  8
0
100
AcDbSpline
 62
7
  6
CONTINUOUS
 70
0
 71
3
 72
11
 73
7
 74
0
 42
0.0000001
 43
0.0000001
 44
0.0000000001
 40
0.0
 40
0.0
 40
0.0
 40
0.0
 40
0.2721377973
 40
0.5163949541
 40
0.7481603468
 40
1.0
 40
1.0
 40
1.0
 40
1.0
 10
140.851564853
 20
178.102130736
 30
0.0
 10
140.9101365162
 20
178.1021314334
 30
0.0
 10
141.0220314378
 20
178.0903836324
 30
0.0
 10
141.1731066078
 20
178.0256661798
 30
0.0
 10
141.2835381292
 20
177.9065313275
 30
0.0
 10
141.3077180069
 20
177.7996791767
 30
0.0
 10
141.3077180069
 20
177.7454762417
 30
0.0
  0
SPLINE
  5
5AC
100
AcDbEntity
  8
0
100
AcDbSpline
 62
7
  6
CONTINUOUS
 70
0
 71
3
 72
11
 73
7
 74
0
 42
0.0000001
 43
0.0000001
 44
0.0000000001
 40
0.0
 40
0.0
 40
0.0
 40
0.0
 40
0.2721237725
 40
0.516393918
 40
0.7481841154
 40
1.0
 40
1.0
 40
1.0
 40
1.0
 10
139.3254752569
 20
178.1021328374
 30
0.0
 10
139.2669053831
 20
178.1021284362
 30
0.0
 10
139.1550165141
 20
178.0903740235
 30
0.0
 10
139.0039004344
 20
178.0257062562
 30
0.0
 10
138.8935130792
 20
177.9065168559
 30
0.0
 10
138.8693180069
 20
177.7996751987
 30
0.0
 10
138.8693180069
 20
177.7454762417
 30
0.0
  0
SPLINE
  5
5AD
100
AcDbEntity
  8
0
100
AcDbSpline
 62
7
  6
CONTINUOUS
 70
0
 71
3
 72
11
 73
7
 74
0
 42
0.0000001
 43
0.0000001
 44
0.0000000001
 40
0.0
 40
0.0
 40
0.0
 40
0.0
 40
0.2721377973
 40
0.5163949541
 40
0.7481603468
 40
1.0
 40
1.0
 40
1.0
 40
1.0
 10
100.948164853
 20
178.102130736
 30
0.0
 10
101.0067365162
 20
178.1021314334
 30
0.0
 10
101.1186314378
 20
178.0903836324
 30
0.0
 10
101.2697066078
 20
178.0256661798
 30
0.0
 10
101.3801381292
 20
177.9065313275
 30
0.0
 10
101.4043180069
 20
177.7996791767
 30
0.0
 10
101.4043180069
 20
177.7454762417
 30
0.0
  0
SPLINE
  5
5AE
100
AcDbEntity
  8
0
100
AcDbSpline
 62
7
  6
CONTINUOUS
 70
0
 71
3
 72
9
 73
5
 74
0
 42
0.0000001
 43
0.0000001
 44
0.0000000001
 40
0.0
 40
0.0
 40
0.0
 40
0.0
 40
0.2592548805
 40
1.0
 40
1.0
 40
1.0
 40
1.0
 10
99.4220752569
 20
178.1021328374
 30
0.0
 10
99.4094066837
 20
178.1021318855
 30
0.0
 10
99.360557076
 20
178.1009979201
 30
0.0
 10
99.3117472572
 20
178.0951327866
 30
0.0
 10
99.2763562736
 20
178.0875378602
 30
0.0
  0
SPLINE
  5
5AF
100
AcDbEntity
  8
0
100
AcDbSpline
 62
7
  6
CONTINUOUS
 70
0
 71
3
 72
9
 73
5
 74
0
 42
0.0000001
 43
0.0000001
 44
0.0000000001
 40
0.0
 40
0.0
 40
0.0
 40
0.0
 40
0.2394758647
 40
1.0
 40
1.0
 40
1.0
 40
1.0
 10
100.3333424668
 20
162.72880548
 30
0.0
 10
100.3629705316
 20
162.7518895932
 30
0.0
 10
100.4844037356
 20
162.8511957606
 30
0.0
 10
100.5964968201
 20
162.9618276472
 30
0.0
 10
100.6759126556
 20
163.0508270342
 30
0.0
  0
SPLINE
  5
5B0
100
AcDbEntity
  8
0
100
AcDbSpline
 62
7
  6
CONTINUOUS
 70
0
 71
3
 72
11
 73
7
 74
0
 42
0.0000001
 43
0.0000001
 44
0.0000000001
 40
0.0
 40
0.0
 40
0.0
 40
0.0
 40
0.2721377973
 40
0.5163949541
 40
0.7481603468
 40
1.0
 40
1.0
 40
1.0
 40
1.0
 10
61.044764853
 20
178.102130736
 30
0.0
 10
61.1033365162
 20
178.1021314334
 30
0.0
 10
61.2152314378
 20
178.0903836324
 30
0.0
 10
61.3663066078
 20
178.0256661798
 30
0.0
 10
61.4767381292
 20
177.9065313275
 30
0.0
 10
61.5009180069
 20
177.7996791767
 30
0.0
 10
61.5009180069
 20
177.7454762417
 30
0.0
  0
SPLINE
  5
5B1
100
AcDbEntity
  8
0
100
AcDbSpline
 62
7
  6
CONTINUOUS
 70
0
 71
3
 72
11
 73
7
 74
0
 42
0.0000001
 43
0.0000001
 44
0.0000000001
 40
0.0
 40
0.0
 40
0.0
 40
0.0
 40
0.2721237725
 40
0.516393918
 40
0.7481841154
 40
1.0
 40
1.0
 40
1.0
 40
1.0
 10
59.5186752569
 20
178.1021328374
 30
0.0
 10
59.4601053831
 20
178.1021284362
 30
0.0
 10
59.3482165141
 20
178.0903740235
 30
0.0
 10
59.1971004344
 20
178.0257062562
 30
0.0
 10
59.0867130792
 20
177.9065168559
 30
0.0
 10
59.0625180069
 20
177.7996751987
 30
0.0
 10
59.0625180069
 20
177.7454762417
 30
0.0
  0
SPLINE
  5
5B2
100
AcDbEntity
  8
0
100
AcDbSpline
 62
7
  6
CONTINUOUS
 70
0
 71
3
 72
9
 73
5
 74
0
 42
0.0000001
 43
0.0000001
 44
0.0000000001
 40
0.0
 40
0.0
 40
0.0
 40
0.0
 40
0.2346394829
 40
1.0
 40
1.0
 40
1.0
 40
1.0
 10
60.2817180069
 20
162.6224304229
 30
0.0
 10
60.3243551592
 20
162.6504747167
 30
0.0
 10
60.5018241556
 20
162.7763866807
 30
0.0
 10
60.6616824027
 20
162.9266222769
 30
0.0
 10
60.7725126556
 20
163.0508270342
 30
0.0
  0
SPLINE
  5
5B3
100
AcDbEntity
  8
0
100
AcDbSpline
 62
7
  6
CONTINUOUS
 70
0
 71
3
 72
9
 73
5
 74
0
 42
0.0000001
 43
0.0000001
 44
0.0000000001
 40
0.0
 40
0.0
 40
0.0
 40
0.0
 40
0.2408571545
 40
1.0
 40
1.0
 40
1.0
 40
1.0
 10
60.2817180069
 20
162.6224304229
 30
0.0
 10
60.2576499912
 20
162.6382609948
 30
0.0
 10
60.1590406147
 20
162.7059762242
 30
0.0
 10
60.0657946661
 20
162.7814340689
 30
0.0
 10
59.9983151973
 20
162.84218425
 30
0.0
  0
SPLINE
  5
5B4
100
AcDbEntity
  8
0
100
AcDbSpline
 62
7
  6
CONTINUOUS
 70
0
 71
3
 72
9
 73
5
 74
0
 42
0.0000001
 43
0.0000001
 44
0.0000000001
 40
0.0
 40
0.0
 40
0.0
 40
0.0
 40
0.5000561286
 40
1.0
 40
1.0
 40
1.0
 40
1.0
 10
170.0941805007
 20
135.3483146827
 30
0.0
 10
170.0910034729
 20
135.2446081042
 30
0.0
 10
170.0848852662
 20
135.0372144254
 30
0.0
 10
170.0812444386
 20
134.8297359504
 30
0.0
 10
170.0811901254
 20
134.7260040257
 30
0.0
  0
SPLINE
  5
5B5
100
AcDbEntity
  8
0
100
AcDbSpline
 62
7
  6
CONTINUOUS
 70
0
 71
3
 72
11
 73
7
 74
0
 42
0.0000001
 43
0.0000001
 44
0.0000000001
 40
0.0
 40
0.0
 40
0.0
 40
0.0
 40
0.2500287657
 40
0.5000505875
 40
0.7500529206
 40
1.0
 40
1.0
 40
1.0
 40
1.0
 10
170.124169534
 20
134.4020811414
 30
0.0
 10
170.1198588401
 20
134.5326373334
 30
0.0
 10
170.1112900739
 20
134.7937473923
 30
0.0
 10
170.098863391
 20
135.1854170395
 30
0.0
 10
170.0873318802
 20
135.5770624352
 30
0.0
 10
170.0825199689
 20
135.8382477905
 30
0.0
 10
170.0825199689
 20
135.9688324514
 30
0.0
  0
SPLINE
  5
5B6
100
AcDbEntity
  8
0
100
AcDbSpline
 62
7
  6
CONTINUOUS
 70
0
 71
3
 72
14
 73
10
 74
0
 42
0.0000001
 43
0.0000001
 44
0.0000000001
 40
0.0
 40
0.0
 40
0.0
 40
0.0
 40
0.0961332142
 40
0.1965441447
 40
0.3042590417
 40
0.4215729978
 40
0.5497538163
 40
0.6892230324
 40
1.0
 40
1.0
 40
1.0
 40
1.0
 10
170.124169534
 20
134.4020811414
 30
0.0
 10
170.1252658894
 20
134.3688762809
 30
0.0
 10
170.1356327025
 20
134.3010211443
 30
0.0
 10
170.1746914436
 20
134.2025675138
 30
0.0
 10
170.2366571124
 20
134.1079064768
 30
0.0
 10
170.3204275784
 20
134.0184326001
 30
0.0
 10
170.4247545781
 20
133.9352262401
 30
0.0
 10
170.5954583292
 20
133.830507732
 30
0.0
 10
170.7405964894
 20
133.7710765595
 30
0.0
 10
170.8427718297
 20
133.7379788846
 30
0.0
  0
SPLINE
  5
5B7
100
AcDbEntity
  8
0
100
AcDbSpline
 62
7
  6
CONTINUOUS
 70
0
 71
3
 72
14
 73
10
 74
0
 42
0.0000001
 43
0.0000001
 44
0.0000000001
 40
0.0
 40
0.0
 40
0.0
 40
0.0
 40
0.3131389241
 40
0.4532956936
 40
0.5817541546
 40
0.6988833136
 40
0.8059312596
 40
0.9052438574
 40
1.0
 40
1.0
 40
1.0
 40
1.0
 10
170.8428299472
 20
132.5398981703
 30
0.0
 10
170.7409833971
 20
132.5719609426
 30
0.0
 10
170.5962533387
 20
132.6294687675
 30
0.0
 10
170.425485492
 20
132.7310898764
 30
0.0
 10
170.3211191458
 20
132.8117810385
 30
0.0
 10
170.2372078363
 20
132.898589764
 30
0.0
 10
170.1750251173
 20
132.9905048757
 30
0.0
 10
170.1357319722
 20
133.0862120337
 30
0.0
 10
170.1252697556
 20
133.1523091182
 30
0.0
 10
170.124169534
 20
133.1846003731
 30
0.0
  0
SPLINE
  5
5B8
100
AcDbEntity
  8
0
100
AcDbSpline
 62
7
  6
CONTINUOUS
 70
0
 71
3
 72
10
 73
6
 74
0
 42
0.0000001
 43
0.0000001
 44
0.0000000001
 40
0.0
 40
0.0
 40
0.0
 40
0.0
 40
0.2499781104
 40
0.4999784025
 40
1.0
 40
1.0
 40
1.0
 40
1.0
 10
170.085583827
 20
134.401192183
 30
0.0
 10
170.0879976634
 20
134.2997958921
 30
0.0
 10
170.0939216342
 20
134.097021367
 30
0.0
 10
170.106954755
 20
133.6914956829
 30
0.0
 10
170.1172611707
 20
133.38735928
 30
0.0
 10
170.124169534
 20
133.1846003731
 30
0.0
  0
SPLINE
  5
5B9
100
AcDbEntity
  8
0
100
AcDbSpline
 62
7
  6
CONTINUOUS
 70
0
 71
3
 72
11
 73
7
 74
0
 42
0.0000001
 43
0.0000001
 44
0.0000000001
 40
0.0
 40
0.0
 40
0.0
 40
0.0
 40
0.2548979713
 40
0.5057079783
 40
0.753602007
 40
1.0
 40
1.0
 40
1.0
 40
1.0
 10
125.7452534004
 20
130.0415656256
 30
0.0
 10
125.8287548236
 20
130.103711893
 30
0.0
 10
126.0042173475
 20
130.2144953882
 30
0.0
 10
126.2883944511
 20
130.3359099429
 30
0.0
 10
126.5850652502
 20
130.409099509
 30
0.0
 10
126.7872966544
 20
130.4252101884
 30
0.0
 10
126.8879152276
 20
130.4252101884
 30
0.0
  0
SPLINE
  5
5BA
100
AcDbEntity
  8
0
100
AcDbSpline
 62
7
  6
CONTINUOUS
 70
0
 71
3
 72
9
 73
5
 74
0
 42
0.0000001
 43
0.0000001
 44
0.0000000001
 40
0.0
 40
0.0
 40
0.0
 40
0.0
 40
0.5000000001
 40
1.0
 40
1.0
 40
1.0
 40
1.0
 10
125.1278911997
 20
130.0415656256
 30
0.0
 10
125.2287188111
 20
130.0652329682
 30
0.0
 10
125.4365723001
 20
130.08869747
 30
0.0
 10
125.644425789
 20
130.0652329682
 30
0.0
 10
125.7452534004
 20
130.0415656256
 30
0.0
  0
SPLINE
  5
5BB
100
AcDbEntity
  8
0
100
AcDbSpline
 62
7
  6
CONTINUOUS
 70
0
 71
3
 72
11
 73
7
 74
0
 42
0.0000001
 43
0.0000001
 44
0.0000000001
 40
0.0
 40
0.0
 40
0.0
 40
0.0
 40
0.2463756086
 40
0.4943399288
 40
0.745216784
 40
1.0
 40
1.0
 40
1.0
 40
1.0
 10
126.2036273125
 20
130.4240276472
 30
0.0
 10
126.1085580008
 20
130.4206658794
 30
0.0
 10
125.9179932364
 20
130.3994651161
 30
0.0
 10
125.6391986971
 20
130.3239890998
 30
0.0
 10
125.3721674377
 20
130.2056805261
 30
0.0
 10
125.2068083363
 20
130.1003000195
 30
0.0
 10
125.1278911997
 20
130.0415656256
 30
0.0
  0
SPLINE
  5
5BC
100
AcDbEntity
  8
0
100
AcDbSpline
 62
7
  6
CONTINUOUS
 70
0
 71
3
 72
11
 73
7
 74
0
 42
0.0000001
 43
0.0000001
 44
0.0000000001
 40
0.0
 40
0.0
 40
0.0
 40
0.0
 40
0.2548979713
 40
0.5057079783
 40
0.753602007
 40
1.0
 40
1.0
 40
1.0
 40
1.0
 10
85.8327094004
 20
130.0415656256
 30
0.0
 10
85.9162108236
 20
130.103711893
 30
0.0
 10
86.0916733475
 20
130.2144953882
 30
0.0
 10
86.3758504511
 20
130.3359099429
 30
0.0
 10
86.6725212502
 20
130.409099509
 30
0.0
 10
86.8747526544
 20
130.4252101884
 30
0.0
 10
86.9753712276
 20
130.4252101884
 30
0.0
  0
SPLINE
  5
5BD
100
AcDbEntity
  8
0
100
AcDbSpline
 62
7
  6
CONTINUOUS
 70
0
 71
3
 72
9
 73
5
 74
0
 42
0.0000001
 43
0.0000001
 44
0.0000000001
 40
0.0
 40
0.0
 40
0.0
 40
0.0
 40
0.5000000001
 40
1.0
 40
1.0
 40
1.0
 40
1.0
 10
85.2153471997
 20
130.0415656256
 30
0.0
 10
85.3161748111
 20
130.0652329682
 30
0.0
 10
85.5240283001
 20
130.08869747
 30
0.0
 10
85.731881789
 20
130.0652329682
 30
0.0
 10
85.8327094004
 20
130.0415656256
 30
0.0
  0
SPLINE
  5
5BE
100
AcDbEntity
  8
0
100
AcDbSpline
 62
7
  6
CONTINUOUS
 70
0
 71
3
 72
11
 73
7
 74
0
 42
0.0000001
 43
0.0000001
 44
0.0000000001
 40
0.0
 40
0.0
 40
0.0
 40
0.0
 40
0.2463756086
 40
0.4943399288
 40
0.745216784
 40
1.0
 40
1.0
 40
1.0
 40
1.0
 10
86.2910833125
 20
130.4240276472
 30
0.0
 10
86.1960140008
 20
130.4206658794
 30
0.0
 10
86.0054492364
 20
130.3994651161
 30
0.0
 10
85.7266546971
 20
130.3239890998
 30
0.0
 10
85.4596234377
 20
130.2056805261
 30
0.0
 10
85.2942643363
 20
130.1003000195
 30
0.0
 10
85.2153471997
 20
130.0415656256
 30
0.0
  0
SPLINE
  5
5BF
100
AcDbEntity
  8
0
100
AcDbSpline
 62
7
  6
CONTINUOUS
 70
0
 71
3
 72
15
 73
11
 74
0
 42
0.0000001
 43
0.0000001
 44
0.0000000001
 40
0.0
 40
0.0
 40
0.0
 40
0.0
 40
0.0289345714
 40
0.0528206665
 40
0.0840760934
 40
0.12289752
 40
0.1692703902
 40
0.2842245083
 40
0.5963259244
 40
1.0
 40
1.0
 40
1.0
 40
1.0
 10
66.2761180069
 20
170.1450485024
 30
0.0
 10
66.2761180069
 20
170.1518791082
 30
0.0
 10
66.2652462317
 20
170.1622263985
 30
0.0
 10
66.2482247378
 20
170.1709830679
 30
0.0
 10
66.2272830115
 20
170.1791277063
 30
0.0
 10
66.2009927934
 20
170.1869077173
 30
0.0
 10
66.1550133698
 20
170.1980263948
 30
0.0
 10
66.0449447104
 20
170.2176518036
 30
0.0
 10
65.8498244576
 20
170.2389701178
 30
0.0
 10
65.6812124082
 20
170.250210256
 30
0.0
 10
65.586045081
 20
170.2551538027
 30
0.0
  0
LINE
  5
5C0
100
AcDbEntity
  8
0
100
AcDbLine
 62
7
  6
CONTINUOUS
 10
65.586045081
 20
170.2551538027
 11
65.5698194463
 21
170.255982922
  0
SPLINE
  5
5C1
100
AcDbEntity
  8
0
100
AcDbSpline
 62
7
  6
CONTINUOUS
 70
0
 71
3
 72
21
 73
17
 74
0
 42
0.0000001
 43
0.0000001
 44
0.0000000001
 40
0.0
 40
0.0
 40
0.0
 40
0.0
 40
0.0580895243
 40
0.1168910301
 40
0.176995858
 40
0.2387583898
 40
0.3022677726
 40
0.3673483862
 40
0.5000011937
 40
0.6326530742
 40
0.697732725
 40
0.7612412006
 40
0.8230031626
 40
0.8831078879
 40
0.9419097151
 40
1.0
 40
1.0
 40
1.0
 40
1.0
 10
51.6457688069
 20
216.6786499536
 30
0.0
 10
51.6457688069
 20
217.6547901368
 30
0.0
 10
51.8710768079
 20
219.6261269043
 30
0.0
 10
52.8681337883
 20
222.4528954006
 30
0.0
 10
54.4816889373
 20
225.0516804726
 30
0.0
 10
56.6450945411
 20
227.3215067664
 30
0.0
 10
59.2732079475
 20
229.1790289055
 30
0.0
 10
63.279082349
 20
231.0245147206
 30
0.0
 10
68.8670150663
 20
231.9737238149
 30
0.0
 10
74.4549244831
 20
231.0244893368
 30
0.0
 10
78.460751367
 20
229.1790143619
 30
0.0
 10
81.0888294688
 20
227.3215145755
 30
0.0
 10
83.2522211048
 20
225.0517126282
 30
0.0
 10
84.8657827692
 20
222.4529388062
 30
0.0
 10
85.8628559346
 20
219.6261581914
 30
0.0
 10
86.0881688069
 20
217.6548029179
 30
0.0
 10
86.0881688069
 20
216.6786499535
 30
0.0
  0
SPLINE
  5
5C2
100
AcDbEntity
  8
0
100
AcDbSpline
 62
7
  6
CONTINUOUS
 70
0
 71
3
 72
21
 73
17
 74
0
 42
0.0000001
 43
0.0000001
 44
0.0000000001
 40
0.0
 40
0.0
 40
0.0
 40
0.0
 40
0.0580893078
 40
0.1168909944
 40
0.176996011
 40
0.2387582103
 40
0.3022676543
 40
0.3673482258
 40
0.5000009959
 40
0.6326527903
 40
0.6977323695
 40
0.7612409397
 40
0.8230026728
 40
0.8831077122
 40
0.9419098852
 40
1.0
 40
1.0
 40
1.0
 40
1.0
 10
53.8301684889
 20
209.2063326961
 30
0.0
 10
53.8301687271
 20
210.0586520186
 30
0.0
 10
54.0268965757
 20
211.7799353995
 30
0.0
 10
54.8974779084
 20
214.2481490935
 30
0.0
 10
56.3063689317
 20
216.5172923705
 30
0.0
 10
58.1953766434
 20
218.4991858711
 30
0.0
 10
60.4901278591
 20
220.1210838768
 30
0.0
 10
63.9878703483
 20
221.7324953758
 30
0.0
 10
68.8669996575
 20
222.5613660669
 30
0.0
 10
73.7461102886
 20
221.7324811596
 30
0.0
 10
77.2438113209
 20
220.121080921
 30
0.0
 10
79.5385354784
 20
218.4992051895
 30
0.0
 10
81.4275361222
 20
216.5173324214
 30
0.0
 10
82.8364386675
 20
214.248195551
 30
0.0
 10
83.70703558
 20
211.7799664125
 30
0.0
 10
83.9037688069
 20
210.0586638592
 30
0.0
 10
83.9037688069
 20
209.2063326961
 30
0.0
  0
SPLINE
  5
5C3
100
AcDbEntity
  8
0
100
AcDbSpline
 62
7
  6
CONTINUOUS
 70
0
 71
3
 72
21
 73
17
 74
0
 42
0.0000001
 43
0.0000001
 44
0.0000000001
 40
0.0
 40
0.0
 40
0.0
 40
0.0
 40
0.0580893074
 40
0.116890994
 40
0.1769960106
 40
0.2387582099
 40
0.3022676539
 40
0.3673482254
 40
0.5000009955
 40
0.63265279
 40
0.6977323691
 40
0.7612409393
 40
0.8230026724
 40
0.8831077118
 40
0.9419098848
 40
1.0
 40
1.0
 40
1.0
 40
1.0
 10
83.9037688069
 20
211.6193326961
 30
0.0
 10
83.9037688069
 20
212.4716520123
 30
0.0
 10
83.7070410856
 20
214.1929354431
 30
0.0
 10
82.8364596783
 20
216.6611490996
 30
0.0
 10
81.4275686781
 20
218.9302923876
 30
0.0
 10
79.5385609553
 20
220.9121858812
 30
0.0
 10
77.2438097397
 20
222.5340838862
 30
0.0
 10
73.7460672475
 20
224.1454953809
 30
0.0
 10
68.8669379379
 20
224.9743660669
 30
0.0
 10
63.9878273073
 20
224.1454811545
 30
0.0
 10
60.4901262779
 20
222.5340809116
 30
0.0
 10
58.1954021202
 20
220.9122051794
 30
0.0
 10
56.3064014876
 20
218.9303324042
 30
0.0
 10
54.8974989191
 20
216.6611955447
 30
0.0
 10
54.0269020815
 20
214.1929663688
 30
0.0
 10
53.8301687252
 20
212.4716638655
 30
0.0
 10
53.8301684871
 20
211.6193326961
 30
0.0
  0
SPLINE
  5
5C4
100
AcDbEntity
  8
0
100
AcDbSpline
 62
7
  6
CONTINUOUS
 70
0
 71
3
 72
21
 73
17
 74
0
 42
0.0000001
 43
0.0000001
 44
0.0000000001
 40
0.0
 40
0.0
 40
0.0
 40
0.0
 40
0.0580895243
 40
0.1168910301
 40
0.176995858
 40
0.2387583898
 40
0.3022677726
 40
0.3673483862
 40
0.5000011937
 40
0.6326530742
 40
0.697732725
 40
0.7612412006
 40
0.8230031626
 40
0.8831078879
 40
0.9419097151
 40
1.0
 40
1.0
 40
1.0
 40
1.0
 10
91.5491688069
 20
216.6786405676
 30
0.0
 10
91.5491688069
 20
217.6547807508
 30
0.0
 10
91.774476808
 20
219.6261175183
 30
0.0
 10
92.7715337883
 20
222.4528860146
 30
0.0
 10
94.3850889373
 20
225.0516710865
 30
0.0
 10
96.5484945411
 20
227.3214973804
 30
0.0
 10
99.1766079476
 20
229.1790195195
 30
0.0
 10
103.182482349
 20
231.0245053346
 30
0.0
 10
108.7704150663
 20
231.9737144288
 30
0.0
 10
114.3583244831
 20
231.0244799508
 30
0.0
 10
118.364151367
 20
229.1790049759
 30
0.0
 10
120.9922294688
 20
227.3215051895
 30
0.0
 10
123.1556211048
 20
225.0517032422
 30
0.0
 10
124.7691827692
 20
222.4529294202
 30
0.0
 10
125.7662559346
 20
219.6261488054
 30
0.0
 10
125.9915688069
 20
217.6547935319
 30
0.0
 10
125.9915688069
 20
216.6786405675
 30
0.0
  0
SPLINE
  5
5C5
100
AcDbEntity
  8
0
100
AcDbSpline
 62
7
  6
CONTINUOUS
 70
0
 71
3
 72
21
 73
17
 74
0
 42
0.0000001
 43
0.0000001
 44
0.0000000001
 40
0.0
 40
0.0
 40
0.0
 40
0.0
 40
0.0580893078
 40
0.1168909944
 40
0.176996011
 40
0.2387582103
 40
0.3022676543
 40
0.3673482258
 40
0.5000009959
 40
0.6326527903
 40
0.6977323695
 40
0.7612409397
 40
0.8230026728
 40
0.8831077122
 40
0.9419098852
 40
1.0
 40
1.0
 40
1.0
 40
1.0
 10
93.7335684889
 20
209.2063233101
 30
0.0
 10
93.7335687271
 20
210.0586426325
 30
0.0
 10
93.9302965757
 20
211.7799260135
 30
0.0
 10
94.8008779084
 20
214.2481397075
 30
0.0
 10
96.2097689317
 20
216.5172829845
 30
0.0
 10
98.0987766434
 20
218.4991764851
 30
0.0
 10
100.3935278591
 20
220.1210744907
 30
0.0
 10
103.8912703484
 20
221.7324859898
 30
0.0
 10
108.7703996576
 20
222.5613566809
 30
0.0
 10
113.6495102886
 20
221.7324717736
 30
0.0
 10
117.1472113209
 20
220.121071535
 30
0.0
 10
119.4419354784
 20
218.4991958035
 30
0.0
 10
121.3309361222
 20
216.5173230353
 30
0.0
 10
122.7398386675
 20
214.248186165
 30
0.0
 10
123.61043558
 20
211.7799570265
 30
0.0
 10
123.8071688069
 20
210.0586544732
 30
0.0
 10
123.8071688069
 20
209.2063233101
 30
0.0
  0
SPLINE
  5
5C6
100
AcDbEntity
  8
0
100
AcDbSpline
 62
7
  6
CONTINUOUS
 70
0
 71
3
 72
21
 73
17
 74
0
 42
0.0000001
 43
0.0000001
 44
0.0000000001
 40
0.0
 40
0.0
 40
0.0
 40
0.0
 40
0.0580893074
 40
0.116890994
 40
0.1769960106
 40
0.2387582099
 40
0.3022676539
 40
0.3673482254
 40
0.5000009955
 40
0.63265279
 40
0.6977323691
 40
0.7612409393
 40
0.8230026724
 40
0.8831077118
 40
0.9419098848
 40
1.0
 40
1.0
 40
1.0
 40
1.0
 10
123.8071688069
 20
211.6193233101
 30
0.0
 10
123.8071688069
 20
212.4716426262
 30
0.0
 10
123.6104410856
 20
214.1929260571
 30
0.0
 10
122.7398596783
 20
216.6611397136
 30
0.0
 10
121.3309686781
 20
218.9302830016
 30
0.0
 10
119.4419609553
 20
220.9121764952
 30
0.0
 10
117.1472097397
 20
222.5340745002
 30
0.0
 10
113.6494672475
 20
224.1454859949
 30
0.0
 10
108.7703379379
 20
224.9743566809
 30
0.0
 10
103.8912273073
 20
224.1454717685
 30
0.0
 10
100.3935262779
 20
222.5340715256
 30
0.0
 10
98.0988021202
 20
220.9121957934
 30
0.0
 10
96.2098014876
 20
218.9303230182
 30
0.0
 10
94.8008989191
 20
216.6611861587
 30
0.0
 10
93.9303020815
 20
214.1929569828
 30
0.0
 10
93.7335687252
 20
212.4716544795
 30
0.0
 10
93.7335684871
 20
211.6193233101
 30
0.0
  0
SPLINE
  5
5C7
100
AcDbEntity
  8
0
100
AcDbSpline
 62
7
  6
CONTINUOUS
 70
0
 71
3
 72
21
 73
17
 74
0
 42
0.0000001
 43
0.0000001
 44
0.0000000001
 40
0.0
 40
0.0
 40
0.0
 40
0.0
 40
0.0580895243
 40
0.1168910301
 40
0.176995858
 40
0.2387583898
 40
0.3022677726
 40
0.3673483862
 40
0.5000011937
 40
0.6326530742
 40
0.697732725
 40
0.7612412006
 40
0.8230031626
 40
0.8831078879
 40
0.9419097151
 40
1.0
 40
1.0
 40
1.0
 40
1.0
 10
131.4525688069
 20
216.6717256571
 30
0.0
 10
131.4525688069
 20
217.6478658403
 30
0.0
 10
131.677876808
 20
219.6192026078
 30
0.0
 10
132.6749337883
 20
222.4459711041
 30
0.0
 10
134.2884889373
 20
225.044756176
 30
0.0
 10
136.4518945411
 20
227.3145824699
 30
0.0
 10
139.0800079476
 20
229.172104609
 30
0.0
 10
143.085882349
 20
231.0175904241
 30
0.0
 10
148.6738150663
 20
231.9667995183
 30
0.0
 10
154.2617244831
 20
231.0175650403
 30
0.0
 10
158.267551367
 20
229.1720900653
 30
0.0
 10
160.8956294688
 20
227.314590279
 30
0.0
 10
163.0590211048
 20
225.0447883317
 30
0.0
 10
164.6725827692
 20
222.4460145097
 30
0.0
 10
165.6696559346
 20
219.6192338949
 30
0.0
 10
165.8949688069
 20
217.6478786214
 30
0.0
 10
165.8949688069
 20
216.671725657
 30
0.0
  0
SPLINE
  5
5C8
100
AcDbEntity
  8
0
100
AcDbSpline
 62
7
  6
CONTINUOUS
 70
0
 71
3
 72
21
 73
17
 74
0
 42
0.0000001
 43
0.0000001
 44
0.0000000001
 40
0.0
 40
0.0
 40
0.0
 40
0.0
 40
0.0580893078
 40
0.1168909944
 40
0.176996011
 40
0.2387582103
 40
0.3022676543
 40
0.3673482258
 40
0.5000009959
 40
0.6326527903
 40
0.6977323695
 40
0.7612409397
 40
0.8230026728
 40
0.8831077122
 40
0.9419098852
 40
1.0
 40
1.0
 40
1.0
 40
1.0
 10
133.6369684889
 20
209.1994083996
 30
0.0
 10
133.6369687271
 20
210.051727722
 30
0.0
 10
133.8336965757
 20
211.773011103
 30
0.0
 10
134.7042779084
 20
214.241224797
 30
0.0
 10
136.1131689317
 20
216.510368074
 30
0.0
 10
138.0021766434
 20
218.4922615746
 30
0.0
 10
140.2969278591
 20
220.1141595802
 30
0.0
 10
143.7946703484
 20
221.7255710793
 30
0.0
 10
148.6737996575
 20
222.5544417704
 30
0.0
 10
153.5529102886
 20
221.7255568631
 30
0.0
 10
157.0506113209
 20
220.1141566245
 30
0.0
 10
159.3453354784
 20
218.492280893
 30
0.0
 10
161.2343361222
 20
216.5104081248
 30
0.0
 10
162.6432386675
 20
214.2412712545
 30
0.0
 10
163.51383558
 20
211.773042116
 30
0.0
 10
163.7105688069
 20
210.0517395627
 30
0.0
 10
163.7105688069
 20
209.1994083996
 30
0.0
  0
SPLINE
  5
5C9
100
AcDbEntity
  8
0
100
AcDbSpline
 62
7
  6
CONTINUOUS
 70
0
 71
3
 72
21
 73
17
 74
0
 42
0.0000001
 43
0.0000001
 44
0.0000000001
 40
0.0
 40
0.0
 40
0.0
 40
0.0
 40
0.0580893074
 40
0.116890994
 40
0.1769960106
 40
0.2387582099
 40
0.3022676539
 40
0.3673482254
 40
0.5000009955
 40
0.63265279
 40
0.6977323691
 40
0.7612409393
 40
0.8230026724
 40
0.8831077118
 40
0.9419098848
 40
1.0
 40
1.0
 40
1.0
 40
1.0
 10
163.7105688069
 20
211.6124083996
 30
0.0
 10
163.7105688069
 20
212.4647277157
 30
0.0
 10
163.5138410856
 20
214.1860111466
 30
0.0
 10
162.6432596783
 20
216.6542248031
 30
0.0
 10
161.2343686781
 20
218.923368091
 30
0.0
 10
159.3453609553
 20
220.9052615847
 30
0.0
 10
157.0506097397
 20
222.5271595897
 30
0.0
 10
153.5528672475
 20
224.1385710844
 30
0.0
 10
148.6737379379
 20
224.9674417704
 30
0.0
 10
143.7946273073
 20
224.138556858
 30
0.0
 10
140.2969262779
 20
222.5271566151
 30
0.0
 10
138.0022021202
 20
220.9052808829
 30
0.0
 10
136.1132014876
 20
218.9234081077
 30
0.0
 10
134.7042989191
 20
216.6542712482
 30
0.0
 10
133.8337020815
 20
214.1860420723
 30
0.0
 10
133.6369687252
 20
212.464739569
 30
0.0
 10
133.6369684871
 20
211.6124083996
 30
0.0
  0
SPLINE
  5
5CA
100
AcDbEntity
  8
0
100
AcDbSpline
 62
7
  6
CONTINUOUS
 70
0
 71
3
 72
9
 73
5
 74
0
 42
0.0000001
 43
0.0000001
 44
0.0000000001
 40
0.0
 40
0.0
 40
0.0
 40
0.0
 40
0.4950373757
 40
1.0
 40
1.0
 40
1.0
 40
1.0
 10
70.2755132264
 20
166.7139836291
 30
0.0
 10
70.4020443398
 20
166.5391385059
 30
0.0
 10
70.7045474072
 20
166.2170536276
 30
0.0
 10
71.09257357
 20
165.9982144299
 30
0.0
 10
71.3006032684
 20
165.9261647423
 30
0.0
  0
SPLINE
  5
5CB
100
AcDbEntity
  8
0
100
AcDbSpline
 62
7
  6
CONTINUOUS
 70
0
 71
3
 72
12
 73
8
 74
0
 42
0.0000001
 43
0.0000001
 44
0.0000000001
 40
0.0
 40
0.0
 40
0.0
 40
0.0
 40
0.2200713716
 40
0.3396217816
 40
0.4649791769
 40
0.7278346135
 40
1.0
 40
1.0
 40
1.0
 40
1.0
 10
69.7801429815
 20
175.8535078021
 30
0.0
 10
69.7801394528
 20
175.6277520694
 30
0.0
 10
69.8619402349
 20
175.2752144794
 30
0.0
 10
70.1041665884
 20
174.8619472017
 30
0.0
 10
70.4519731656
 20
174.4698705611
 30
0.0
 10
71.0424464
 20
174.1044761779
 30
0.0
 10
71.5964463967
 20
174.0021862068
 30
0.0
 10
71.8756417132
 20
174.0021862068
 30
0.0
  0
SPLINE
  5
5CC
100
AcDbEntity
  8
0
100
AcDbSpline
 62
7
  6
CONTINUOUS
 70
0
 71
3
 72
9
 73
5
 74
0
 42
0.0000001
 43
0.0000001
 44
0.0000000001
 40
0.0
 40
0.0
 40
0.0
 40
0.0
 40
0.4950257146
 40
1.0
 40
1.0
 40
1.0
 40
1.0
 10
109.9386430215
 20
166.6613863093
 30
0.0
 10
110.0632366475
 20
166.4984529996
 30
0.0
 10
110.3569748884
 20
166.1989267155
 30
0.0
 10
110.7268774428
 20
165.9946476306
 30
0.0
 10
110.9245884104
 20
165.9261698809
 30
0.0
  0
SPLINE
  5
5CD
100
AcDbEntity
  8
0
100
AcDbSpline
 62
7
  6
CONTINUOUS
 70
0
 71
3
 72
12
 73
8
 74
0
 42
0.0000001
 43
0.0000001
 44
0.0000000001
 40
0.0
 40
0.0
 40
0.0
 40
0.0
 40
0.2200713721
 40
0.3396217802
 40
0.4649791758
 40
0.7278346121
 40
1.0
 40
1.0
 40
1.0
 40
1.0
 10
109.404142983
 20
175.8535078014
 30
0.0
 10
109.4041394542
 20
175.6277520683
 30
0.0
 10
109.4859402331
 20
175.2752144787
 30
0.0
 10
109.728166589
 20
174.8619472039
 30
0.0
 10
110.0759731611
 20
174.4698705619
 30
0.0
 10
110.6664463984
 20
174.10447618
 30
0.0
 10
111.2204463953
 20
174.0021862068
 30
0.0
 10
111.4996417132
 20
174.0021862068
 30
0.0
  0
SPLINE
  5
5CE
100
AcDbEntity
  8
0
100
AcDbSpline
 62
7
  6
CONTINUOUS
 70
0
 71
3
 72
9
 73
5
 74
0
 42
0.0000001
 43
0.0000001
 44
0.0000000001
 40
0.0
 40
0.0
 40
0.0
 40
0.0
 40
0.4950440206
 40
1.0
 40
1.0
 40
1.0
 40
1.0
 10
149.6044249242
 20
166.608272689
 30
0.0
 10
149.72650241
 20
166.4574049324
 30
0.0
 10
150.010458225
 20
166.1806300548
 30
0.0
 10
150.3615324423
 20
165.9909572415
 30
0.0
 10
150.5485884104
 20
165.9261698809
 30
0.0
  0
SPLINE
  5
5CF
100
AcDbEntity
  8
0
100
AcDbSpline
 62
7
  6
CONTINUOUS
 70
0
 71
3
 72
12
 73
8
 74
0
 42
0.0000001
 43
0.0000001
 44
0.0000000001
 40
0.0
 40
0.0
 40
0.0
 40
0.0
 40
0.2200713721
 40
0.3396217802
 40
0.4649791758
 40
0.7278346121
 40
1.0
 40
1.0
 40
1.0
 40
1.0
 10
149.028142983
 20
175.8535078014
 30
0.0
 10
149.0281394542
 20
175.6277520683
 30
0.0
 10
149.1099402331
 20
175.2752144787
 30
0.0
 10
149.352166589
 20
174.8619472039
 30
0.0
 10
149.6999731611
 20
174.4698705619
 30
0.0
 10
150.2904463984
 20
174.10447618
 30
0.0
 10
150.8444463953
 20
174.0021862068
 30
0.0
 10
151.1236417132
 20
174.0021862068
 30
0.0
  0
SPLINE
  5
5D0
100
AcDbEntity
  8
0
100
AcDbSpline
 62
7
  6
CONTINUOUS
 70
0
 71
3
 72
9
 73
5
 74
0
 42
0.0000001
 43
0.0000001
 44
0.0000000001
 40
0.0
 40
0.0
 40
0.0
 40
0.0
 40
0.2776161189
 40
1.0
 40
1.0
 40
1.0
 40
1.0
 10
54.0761634056
 20
178.7395745679
 30
0.0
 10
54.0563185692
 20
178.7630010574
 30
0.0
 10
53.9825315563
 20
178.8452437169
 30
0.0
 10
53.898068352
 20
178.9190926378
 30
0.0
 10
53.8301085484
 20
178.9610907553
 30
0.0
  0
SPLINE
  5
5D1
100
AcDbEntity
  8
0
100
AcDbSpline
 62
7
  6
CONTINUOUS
 70
0
 71
3
 72
12
 73
8
 74
0
 42
0.0000001
 43
0.0000001
 44
0.0000000001
 40
0.0
 40
0.0
 40
0.0
 40
0.0
 40
0.2721655735
 40
0.535021083
 40
0.6603784554
 40
0.7799286931
 40
1.0
 40
1.0
 40
1.0
 40
1.0
 10
158.9818834221
 20
174.0021862068
 30
0.0
 10
159.2610789264
 20
174.0021862068
 30
0.0
 10
159.8150791473
 20
174.1044763784
 30
0.0
 10
160.4055526217
 20
174.469870909
 30
0.0
 10
160.7533587954
 20
174.8619477211
 30
0.0
 10
160.9955850622
 20
175.2752147223
 30
0.0
 10
161.07738561
 20
175.6277521131
 30
0.0
 10
161.0773820917
 20
175.8535077762
 30
0.0
  0
SPLINE
  5
5D2
100
AcDbEntity
  8
0
100
AcDbSpline
 62
7
  6
CONTINUOUS
 70
0
 71
3
 72
9
 73
5
 74
0
 42
0.0000001
 43
0.0000001
 44
0.0000000001
 40
0.0
 40
0.0
 40
0.0
 40
0.0
 40
0.5389292605
 40
1.0
 40
1.0
 40
1.0
 40
1.0
 10
144.093760474
 20
178.739574526
 30
0.0
 10
144.2053210059
 20
178.8304174417
 30
0.0
 10
144.4310467486
 20
178.9802622185
 30
0.0
 10
144.6994109137
 20
179.0419451132
 30
0.0
 10
144.8224946397
 20
179.0416413087
 30
0.0
  0
SPLINE
  5
5D3
100
AcDbEntity
  8
0
100
AcDbSpline
 62
7
  6
CONTINUOUS
 70
0
 71
3
 72
9
 73
5
 74
0
 42
0.0000001
 43
0.0000001
 44
0.0000000001
 40
0.0
 40
0.0
 40
0.0
 40
0.0
 40
0.5389292605
 40
1.0
 40
1.0
 40
1.0
 40
1.0
 10
64.845760474
 20
178.739574526
 30
0.0
 10
64.9573210058
 20
178.8304174417
 30
0.0
 10
65.1830467486
 20
178.9802622185
 30
0.0
 10
65.4514109137
 20
179.0419451132
 30
0.0
 10
65.5744946397
 20
179.0416413087
 30
0.0
  0
SPLINE
  5
5D4
100
AcDbEntity
  8
0
100
AcDbSpline
 62
7
  6
CONTINUOUS
 70
0
 71
3
 72
12
 73
8
 74
0
 42
0.0000001
 43
0.0000001
 44
0.0000000001
 40
0.0
 40
0.0
 40
0.0
 40
0.0
 40
0.2721655734
 40
0.5350210829
 40
0.6603784555
 40
0.7799286932
 40
1.0
 40
1.0
 40
1.0
 40
1.0
 10
79.7338834221
 20
174.0021862068
 30
0.0
 10
80.0130789264
 20
174.0021862068
 30
0.0
 10
80.5670791473
 20
174.1044763782
 30
0.0
 10
81.1575526215
 20
174.4698709092
 30
0.0
 10
81.5053587957
 20
174.8619477213
 30
0.0
 10
81.7475850619
 20
175.2752147227
 30
0.0
 10
81.8293856105
 20
175.6277521132
 30
0.0
 10
81.8293820917
 20
175.8535077762
 30
0.0
  0
SPLINE
  5
5D5
100
AcDbEntity
  8
0
100
AcDbSpline
 62
7
  6
CONTINUOUS
 70
0
 71
3
 72
9
 73
5
 74
0
 42
0.0000001
 43
0.0000001
 44
0.0000000001
 40
0.0
 40
0.0
 40
0.0
 40
0.0
 40
0.5389292605
 40
1.0
 40
1.0
 40
1.0
 40
1.0
 10
104.469760474
 20
178.739574526
 30
0.0
 10
104.5813210059
 20
178.8304174417
 30
0.0
 10
104.8070467486
 20
178.9802622185
 30
0.0
 10
105.0754109137
 20
179.0419451132
 30
0.0
 10
105.1984946397
 20
179.0416413087
 30
0.0
  0
SPLINE
  5
5D6
100
AcDbEntity
  8
0
100
AcDbSpline
 62
7
  6
CONTINUOUS
 70
0
 71
3
 72
15
 73
11
 74
0
 42
0.0000001
 43
0.0000001
 44
0.0000000001
 40
0.0
 40
0.0
 40
0.0
 40
0.0
 40
0.1224400739
 40
0.2455703603
 40
0.3697392748
 40
0.495107881
 40
0.6213999776
 40
0.7480728269
 40
0.8744629513
 40
1.0
 40
1.0
 40
1.0
 40
1.0
 10
102.1370119869
 20
179.2624465529
 30
0.0
 10
102.1370119869
 20
179.423625211
 30
0.0
 10
102.0891888725
 20
179.7488223736
 30
0.0
 10
101.8804478756
 20
180.1957009983
 30
0.0
 10
101.5514279458
 20
180.5685278542
 30
0.0
 10
101.1288907544
 20
180.8379256326
 30
0.0
 10
100.6460337416
 20
180.9832953378
 30
0.0
 10
100.140516545
 20
180.9935777596
 30
0.0
 10
99.6520278507
 20
180.868259794
 30
0.0
 10
99.3608558034
 20
180.6992184304
 30
0.0
 10
99.2309726718
 20
180.5970433578
 30
0.0
  0
SPLINE
  5
5D7
100
AcDbEntity
  8
0
100
AcDbSpline
 62
7
  6
CONTINUOUS
 70
0
 71
3
 72
15
 73
11
 74
0
 42
0.0000001
 43
0.0000001
 44
0.0000000001
 40
0.0
 40
0.0
 40
0.0
 40
0.0
 40
0.1230159609
 40
0.2471722475
 40
0.3729984122
 40
0.4999896722
 40
0.6269805395
 40
0.7528118886
 40
0.8769786155
 40
1.0
 40
1.0
 40
1.0
 40
1.0
 10
141.7610119869
 20
179.2624465529
 30
0.0
 10
141.7610119869
 20
179.4865999601
 30
0.0
 10
141.6671118666
 20
179.9421619116
 30
0.0
 10
141.2684050074
 20
180.5140149233
 30
0.0
 10
140.6758029767
 20
180.8947009492
 30
0.0
 10
139.9795687618
 20
181.0276853026
 30
0.0
 10
139.2833184406
 20
180.8947386012
 30
0.0
 10
138.690668976
 20
180.5140729525
 30
0.0
 10
138.2919138702
 20
179.9422015926
 30
0.0
 10
138.1980025983
 20
179.4866098427
 30
0.0
 10
138.1980025983
 20
179.262446553
 30
0.0
  0
SPLINE
  5
5D8
100
AcDbEntity
  8
0
100
AcDbSpline
 62
7
  6
CONTINUOUS
 70
0
 71
3
 72
9
 73
5
 74
0
 42
0.0000001
 43
0.0000001
 44
0.0000000001
 40
0.0
 40
0.0
 40
0.0
 40
0.0
 40
0.5037426031
 40
1.0
 40
1.0
 40
1.0
 40
1.0
 10
80.3475125691
 20
176.3042397101
 30
0.0
 10
80.6436557046
 20
176.2166873505
 30
0.0
 10
81.2010582607
 20
175.9108897746
 30
0.0
 10
81.5696629965
 20
175.3908471215
 30
0.0
 10
81.6842258703
 20
175.1090165892
 30
0.0
  0
SPLINE
  5
5D9
100
AcDbEntity
  8
0
100
AcDbSpline
 62
7
  6
CONTINUOUS
 70
0
 71
3
 72
13
 73
9
 74
0
 42
0.0000001
 43
0.0000001
 44
0.0000000001
 40
0.0
 40
0.0
 40
0.0
 40
0.0
 40
0.2913477811
 40
0.5461997426
 40
0.6624419494
 40
0.7747196092
 40
0.8862245325
 40
1.0
 40
1.0
 40
1.0
 40
1.0
 10
151.1236417132
 20
177.5267541788
 30
0.0
 10
150.8348519863
 20
177.5267541788
 30
0.0
 10
150.289109635
 20
177.445581835
 30
0.0
 10
149.6930174946
 20
177.1347717056
 30
0.0
 10
149.3519178645
 20
176.7936944315
 30
0.0
 10
149.1679988444
 20
176.5079495848
 30
0.0
 10
149.0536305628
 20
176.1905117358
 30
0.0
 10
149.0281447457
 20
175.9662843122
 30
0.0
 10
149.028142983
 20
175.8535078014
 30
0.0
  0
SPLINE
  5
5DA
100
AcDbEntity
  8
0
100
AcDbSpline
 62
7
  6
CONTINUOUS
 70
0
 71
3
 72
11
 73
7
 74
0
 42
0.0000001
 43
0.0000001
 44
0.0000000001
 40
0.0
 40
0.0
 40
0.0
 40
0.0
 40
0.2503968038
 40
0.5008059136
 40
0.7510529965
 40
1.0
 40
1.0
 40
1.0
 40
1.0
 10
151.1236417132
 20
170.4725064905
 30
0.0
 10
150.8839624606
 20
170.4725064905
 30
0.0
 10
150.4002875969
 20
170.3863804292
 30
0.0
 10
149.7681759592
 20
170.0141726253
 30
0.0
 10
149.3027113637
 20
169.4500967918
 30
0.0
 10
149.1314034406
 20
168.9941539587
 30
0.0
 10
149.0817415189
 20
168.7610948764
 30
0.0
  0
SPLINE
  5
5DB
100
AcDbEntity
  8
0
100
AcDbSpline
 62
7
  6
CONTINUOUS
 70
0
 71
3
 72
9
 73
5
 74
0
 42
0.0000001
 43
0.0000001
 44
0.0000000001
 40
0.0
 40
0.0
 40
0.0
 40
0.0
 40
0.5029167867
 40
1.0
 40
1.0
 40
1.0
 40
1.0
 10
159.9931321048
 20
176.1416718784
 30
0.0
 10
160.202858196
 20
176.0300638064
 30
0.0
 10
160.5853282444
 20
175.7352319996
 30
0.0
 10
160.8438001354
 20
175.3265486288
 30
0.0
 10
160.9322261178
 20
175.1090159804
 30
0.0
  0
SPLINE
  5
5DC
100
AcDbEntity
  8
0
100
AcDbSpline
 62
7
  6
CONTINUOUS
 70
0
 71
3
 72
11
 73
7
 74
0
 42
0.0000001
 43
0.0000001
 44
0.0000000001
 40
0.0
 40
0.0
 40
0.0
 40
0.0
 40
0.2503767956
 40
0.5007653901
 40
0.7510033918
 40
1.0
 40
1.0
 40
1.0
 40
1.0
 10
71.8756417132
 20
170.4725064905
 30
0.0
 10
71.6382094899
 20
170.4725064905
 30
0.0
 10
71.1591504844
 20
170.3880207548
 30
0.0
 10
70.5313356943
 20
170.0226089892
 30
0.0
 10
70.0657876756
 20
169.4677152223
 30
0.0
 10
69.8913571747
 20
169.0178889648
 30
0.0
 10
69.8395300099
 20
168.7875236
 30
0.0
  0
SPLINE
  5
5DD
100
AcDbEntity
  8
0
100
AcDbSpline
 62
7
  6
CONTINUOUS
 70
0
 71
3
 72
13
 73
9
 74
0
 42
0.0000001
 43
0.0000001
 44
0.0000000001
 40
0.0
 40
0.0
 40
0.0
 40
0.0
 40
0.2913477716
 40
0.5461997401
 40
0.6624419458
 40
0.7747196087
 40
0.8862245322
 40
1.0
 40
1.0
 40
1.0
 40
1.0
 10
71.8756417132
 20
177.5267541788
 30
0.0
 10
71.5868519959
 20
177.5267541788
 30
0.0
 10
71.0411096478
 20
177.4455818383
 30
0.0
 10
70.4450175073
 20
177.1347717151
 30
0.0
 10
70.1039178691
 20
176.793694437
 30
0.0
 10
69.9199988447
 20
176.5079495898
 30
0.0
 10
69.8056305655
 20
176.1905117366
 30
0.0
 10
69.7801447442
 20
175.9662843131
 30
0.0
 10
69.7801429815
 20
175.8535078021
 30
0.0
  0
SPLINE
  5
5DE
100
AcDbEntity
  8
0
100
AcDbSpline
 62
7
  6
CONTINUOUS
 70
0
 71
3
 72
11
 73
7
 74
0
 42
0.0000001
 43
0.0000001
 44
0.0000000001
 40
0.0
 40
0.0
 40
0.0
 40
0.0
 40
0.2465940857
 40
0.4956864819
 40
0.7471283224
 40
1.0
 40
1.0
 40
1.0
 40
1.0
 10
109.5490128694
 20
175.1083172671
 30
0.0
 10
109.6253513754
 20
175.29631462
 30
0.0
 10
109.8388140489
 20
175.6526171177
 30
0.0
 10
110.3040332201
 20
176.0678737764
 30
0.0
 10
110.874108168
 20
176.3325608669
 30
0.0
 10
111.291570986
 20
176.3929656457
 30
0.0
 10
111.4996417132
 20
176.3929656457
 30
0.0
  0
SPLINE
  5
5DF
100
AcDbEntity
  8
0
100
AcDbSpline
 62
7
  6
CONTINUOUS
 70
0
 71
3
 72
15
 73
11
 74
0
 42
0.0000001
 43
0.0000001
 44
0.0000000001
 40
0.0
 40
0.0
 40
0.0
 40
0.0
 40
0.1230159609
 40
0.2471722475
 40
0.3729984122
 40
0.4999896722
 40
0.6269805395
 40
0.7528118886
 40
0.8769786155
 40
1.0
 40
1.0
 40
1.0
 40
1.0
 10
62.5130119868
 20
179.262446553
 30
0.0
 10
62.5130119868
 20
179.4865999602
 30
0.0
 10
62.4191118665
 20
179.9421619117
 30
0.0
 10
62.0204050073
 20
180.5140149233
 30
0.0
 10
61.4278029766
 20
180.8947009492
 30
0.0
 10
60.7315687618
 20
181.0276853026
 30
0.0
 10
60.0353184405
 20
180.8947386012
 30
0.0
 10
59.442668976
 20
180.5140729524
 30
0.0
 10
59.0439138702
 20
179.9422015926
 30
0.0
 10
58.9500025983
 20
179.4866098427
 30
0.0
 10
58.9500025983
 20
179.262446553
 30
0.0
  0
SPLINE
  5
5E0
100
AcDbEntity
  8
0
100
AcDbSpline
 62
7
  6
CONTINUOUS
 70
0
 71
3
 72
11
 73
7
 74
0
 42
0.0000001
 43
0.0000001
 44
0.0000000001
 40
0.0
 40
0.0
 40
0.0
 40
0.0
 40
0.2465940879
 40
0.4956864854
 40
0.7471283251
 40
1.0
 40
1.0
 40
1.0
 40
1.0
 10
69.9250134357
 20
175.1083186618
 30
0.0
 10
70.0013520392
 20
175.2963158451
 30
0.0
 10
70.2148148151
 20
175.6526179812
 30
0.0
 10
70.6800338889
 20
176.0678741704
 30
0.0
 10
71.2501085533
 20
176.3325609415
 30
0.0
 10
71.6675711136
 20
176.3929656457
 30
0.0
 10
71.8756417132
 20
176.3929656457
 30
0.0
  0
SPLINE
  5
5E1
100
AcDbEntity
  8
0
100
AcDbSpline
 62
7
  6
CONTINUOUS
 70
0
 71
3
 72
11
 73
7
 74
0
 42
0.0000001
 43
0.0000001
 44
0.0000000001
 40
0.0
 40
0.0
 40
0.0
 40
0.0
 40
0.2481954528
 40
0.4917578312
 40
0.7393859732
 40
1.0
 40
1.0
 40
1.0
 40
1.0
 10
81.8293820917
 20
175.8535077762
 30
0.0
 10
81.8293801016
 20
175.9811810103
 30
0.0
 10
81.7965764237
 20
176.2354977039
 30
0.0
 10
81.6494389171
 20
176.5907100636
 30
0.0
 10
81.4142099623
 20
176.9024376439
 30
0.0
 10
81.2103081639
 20
177.0701378467
 30
0.0
 10
81.0985611595
 20
177.14419912
 30
0.0
  0
SPLINE
  5
5E2
100
AcDbEntity
  8
0
100
AcDbSpline
 62
7
  6
CONTINUOUS
 70
0
 71
3
 72
13
 73
9
 74
0
 42
0.0000001
 43
0.0000001
 44
0.0000000001
 40
0.0
 40
0.0
 40
0.0
 40
0.0
 40
0.2913477811
 40
0.5461997426
 40
0.6624419494
 40
0.7747196092
 40
0.8862245325
 40
1.0
 40
1.0
 40
1.0
 40
1.0
 10
111.4996417132
 20
177.5267541788
 30
0.0
 10
111.2108519863
 20
177.5267541788
 30
0.0
 10
110.665109635
 20
177.445581835
 30
0.0
 10
110.0690174946
 20
177.1347717056
 30
0.0
 10
109.7279178645
 20
176.7936944315
 30
0.0
 10
109.5439988444
 20
176.5079495848
 30
0.0
 10
109.4296305628
 20
176.1905117358
 30
0.0
 10
109.4041447457
 20
175.9662843122
 30
0.0
 10
109.404142983
 20
175.8535078014
 30
0.0
  0
SPLINE
  5
5E3
100
AcDbEntity
  8
0
100
AcDbSpline
 62
7
  6
CONTINUOUS
 70
0
 71
3
 72
11
 73
7
 74
0
 42
0.0000001
 43
0.0000001
 44
0.0000000001
 40
0.0
 40
0.0
 40
0.0
 40
0.0
 40
0.2465940857
 40
0.4956864819
 40
0.7471283224
 40
1.0
 40
1.0
 40
1.0
 40
1.0
 10
149.1730128694
 20
175.1083172671
 30
0.0
 10
149.2493513754
 20
175.29631462
 30
0.0
 10
149.4628140489
 20
175.6526171177
 30
0.0
 10
149.9280332201
 20
176.0678737764
 30
0.0
 10
150.498108168
 20
176.3325608669
 30
0.0
 10
150.915570986
 20
176.3929656457
 30
0.0
 10
151.1236417132
 20
176.3929656457
 30
0.0
  0
SPLINE
  5
5E4
100
AcDbEntity
  8
0
100
AcDbSpline
 62
7
  6
CONTINUOUS
 70
0
 71
3
 72
9
 73
5
 74
0
 42
0.0000001
 43
0.0000001
 44
0.0000000001
 40
0.0
 40
0.0
 40
0.0
 40
0.0
 40
0.5006803175
 40
1.0
 40
1.0
 40
1.0
 40
1.0
 10
161.0773820917
 20
175.8535077762
 30
0.0
 10
161.0773791824
 20
176.0401863084
 30
0.0
 10
161.0053420406
 20
176.4171137433
 30
0.0
 10
160.7955327616
 20
176.7368499298
 30
0.0
 10
160.6686123038
 20
176.8730516937
 30
0.0
  0
SPLINE
  5
5E5
100
AcDbEntity
  8
0
100
AcDbSpline
 62
7
  6
CONTINUOUS
 70
0
 71
3
 72
11
 73
7
 74
0
 42
0.0000001
 43
0.0000001
 44
0.0000000001
 40
0.0
 40
0.0
 40
0.0
 40
0.0
 40
0.2503956286
 40
0.5008035344
 40
0.7510500884
 40
1.0
 40
1.0
 40
1.0
 40
1.0
 10
111.4996417132
 20
170.4725064905
 30
0.0
 10
111.2600924555
 20
170.4725064905
 30
0.0
 10
110.7766846897
 20
170.3864757824
 30
0.0
 10
110.1448203532
 20
170.0146627103
 30
0.0
 10
109.6793477747
 20
169.4511189857
 30
0.0
 10
109.5078566697
 20
168.9955293426
 30
0.0
 10
109.4580681864
 20
168.7626254376
 30
0.0
  0
ELLIPSE
  5
5E6
100
AcDbEntity
  8
0
100
AcDbEllipse
 62
7
  6
CONTINUOUS
 10
65.2379694704
 20
170.1831607995
 30
0.0
 11
0.4194085185
 21
8.85795917
 31
0.0
 40
0.1711463944
 41
-2.0655879256
 42
-1.9443011861
  0
ELLIPSE
  5
5E7
100
AcDbEntity
  8
0
100
AcDbEllipse
 62
7
  6
CONTINUOUS
 10
65.2379694704
 20
170.1831607995
 30
0.0
 11
0.4194085185
 21
8.85795917
 31
0.0
 40
0.1711463944
 41
4.6228994137
 42
6.2319595646
  0
ELLIPSE
  5
5E8
100
AcDbEntity
  8
0
100
AcDbEllipse
 62
7
  6
CONTINUOUS
 10
144.4859694703
 20
170.1831607995
 30
0.0
 11
0.4194085185
 21
8.85795917
 31
0.0
 40
0.1711463944
 41
-1.6114238417
 42
-0.0512257426
  0
ELLIPSE
  5
5E9
100
AcDbEntity
  8
0
100
AcDbEllipse
 62
7
  6
CONTINUOUS
 10
144.4859694703
 20
170.1831607995
 30
0.0
 11
0.4194085185
 21
8.85795917
 31
0.0
 40
0.1711463944
 41
-2.0655879256
 42
-1.9152511417
  0
ELLIPSE
  5
5EA
100
AcDbEntity
  8
0
100
AcDbEllipse
 62
7
  6
CONTINUOUS
 10
104.8619694703
 20
170.1831607995
 30
0.0
 11
0.4194085185
 21
8.85795917
 31
0.0
 40
0.1711463944
 41
-1.6358727654
 42
-0.0512257426
  0
ELLIPSE
  5
5EB
100
AcDbEntity
  8
0
100
AcDbEllipse
 62
7
  6
CONTINUOUS
 10
104.8619694703
 20
170.1831607995
 30
0.0
 11
0.4194085185
 21
8.85795917
 31
0.0
 40
0.1711463944
 41
-2.0655879256
 42
-1.9346777583
  0
ENDSEC
  0
SECTION
  2
OBJECTS
  0
DICTIONARY
  5
C
100
AcDbDictionary
280
0
281
1
  3
ACAD_GROUP
350
D
  3
ACAD_MLINESTYLE
350
17
  3
ACAD_LAYOUT
350
1A
  3
ACAD_PLOTSETTINGS
350
19
  3
ACAD_PLOTSTYLENAME
350
E
  0
DICTIONARY
  5
D
102
{ACAD_REACTORS
330
C
102
}
100
AcDbDictionary
280
0
281
1
  0
ACDBDICTIONARYWDFLT
  5
E
102
{ACAD_REACTORS
330
C
102
}
100
AcDbDictionary
281
1
  3
Normal
350
F
100
AcDbDictionaryWithDefault
340
F
  0
DICTIONARY
  5
17
102
{ACAD_REACTORS
330
C
102
}
100
AcDbDictionary
280
0
281
1
  3
Standard
350
18
  0
DICTIONARY
  5
19
102
{ACAD_REACTORS
330
C
102
}
100
AcDbDictionary
281
1
  0
DICTIONARY
  5
1A
102
{ACAD_REACTORS
330
C
102
}
100
AcDbDictionary
281
1
  3
Model
350
5EC
  3
Layout1
350
5ED
  0
ACDBPLACEHOLDER
  5
F
102
{ACAD_REACTORS
330
E
102
}
  0
MLINESTYLE
  5
18
102
{ACAD_REACTORS
330
17
102
}
100
AcDbMlineStyle
  2
STANDARD
 70
0
  3

 62
256
 51
90.0
 52
90.0
 71
2
 49
0.5
 62
256
  6
BYLAYER
 49
-0.5
 62
256
  6
BYLAYER
  0
LAYOUT
  5
5EC
102
{ACAD_REACTORS
330
1A
102
}
100
AcDbPlotSettings
  1

  2
none_device
  4

  6

 40
0.0
 41
0.0
 42
0.0
 43
0.0
 44
210.0
 45
297.0
 46
0.0
 47
0.0
 48
0.0
 49
0.0
140
0.0
141
0.0
142
1.0
143
1.0
 70
1024
 72
1
 73
0
 74
0
  7

 75
0
147
1.0
148
0.0
149
0.0
100
AcDbLayout
  1
Model
 70
0
 71
0
 10
0.0
 20
0.0
 11
210.0
 21
297.0
 12
0.0
 22
0.0
 32
0.0
 14
0.0
 24
0.0
 34
0.0
 15
0.0
 25
0.0
 35
0.0
146
0.0
 13
0.0
 23
0.0
 33
0.0
 16
1.0
 26
0.0
 36
0.0
 17
0.0
 27
1.0
 37
0.0
 76
0
330
210
345
0
346
0
  0
LAYOUT
  5
5ED
102
{ACAD_REACTORS
330
1A
102
}
100
AcDbPlotSettings
  1

  2
none_device
  4

  6

 40
0.0
 41
0.0
 42
0.0
 43
0.0
 44
210.0
 45
297.0
 46
0.0
 47
0.0
 48
0.0
 49
0.0
140
0.0
141
0.0
142
1.0
143
1.0
 70
0
 72
1
 73
0
 74
0
  7

 75
0
147
1.0
148
0.0
149
0.0
100
AcDbLayout
  1
Layout1
 70
0
 71
1
 10
0.0
 20
0.0
 11
210.0
 21
297.0
 12
0.0
 22
0.0
 32
0.0
 14
0.0
 24
0.0
 34
0.0
 15
0.0
 25
0.0
 35
0.0
146
0.0
 13
0.0
 23
0.0
 33
0.0
 16
1.0
 26
0.0
 36
0.0
 17
0.0
 27
1.0
 37
0.0
 76
0
330
211
345
0
346
0
  0
ENDSEC
  0
EOF
