999
DXF file: C:\Users\sesa63760\Dev\_Creo\CAD\MCADID0005210_3D-CAD\drw0001_2.dxf
999
Pro/ENGINEER 2019471 by Parametric Technology Corporation
  0
SECTION
  2
HEADER
  9
$ACADVER
  1
AC1024
  9
$DWGCODEPAGE
  3
ANSI_1252
  9
$EXTMAX
 10
50.3444835803
 20
71.2014839206
 30
0.0
  9
$EXTMIN
 10
0.0
 20
0.0
 30
0.0
  9
$LIMMIN
 10
0.0
 20
0.0
  9
$LIMMAX
 10
50.3444835803
 20
71.2014839206
  9
$VIEWCTR
 10
25.1722417901
 20
35.6007419603
  9
$VIEWSIZE
 40
71.2014839206
  9
$CLAYER
  8
0
  9
$LTSCALE
 40
4.6412819148
  9
$CELTYPE
  6
BYLAYER
  9
$DIMSCALE
 40
1.0
  9
$DIMASZ
 40
0.5993390902
  9
$DIMEXO
 40
1.0
  9
$DIMDLI
 40
3.2067038684
  9
$DIMEXE
 40
1.0
  9
$DIMCEN
 40
0.7594824952
  9
$DIMLFAC
 40
1.0
  9
$DIMBLK
  1
_FILLED
  9
$DIMALT
 70
0
  9
$DIMALTF
 40
0.0393700787
  9
$DIMTXT
 40
0.8390747263
  9
$DIMTOL
 70
1
  9
$DIMLIM
 70
0
  9
$DIMTFAC
 40
1.0
  9
$DIMTP
 40
0.01
  9
$DIMTM
 40
0.01
  9
$DIMGAP
 40
0.625
  9
$DIMDSEP
 70
46
  9
$AUNITS
 70
0
  9
$PDMODE
 70
3
  9
$PDSIZE
 40
0.3125
  9
$HANDSEED
  5
32D
  9
$TILEMODE
 70
1
  9
$MEASUREMENT
 70
1
  9
$INSUNITS
 70
4
  0
ENDSEC
  0
SECTION
  2
CLASSES
  0
CLASS
  1
ACDBDICTIONARYWDFLT
  2
AcDbDictionaryWithDefault
  3
AutoCAD 2000
 90
0
 91
1
280
0
281
0
  0
CLASS
  1
ACDBPLACEHOLDER
  2
AcDbPlaceHolder
  3
AutoCAD 2000
 90
0
 91
1
280
0
281
0
  0
CLASS
  1
LAYOUT
  2
AcDbLayout
  3
AutoCAD 2000
 90
0
 91
0
280
0
281
0
  0
ENDSEC
  0
SECTION
  2
TABLES
  0
TABLE
  2
VPORT
  5
8
100
AcDbSymbolTable
 70
2
  0
VPORT
  5
1F4
100
AcDbSymbolTableRecord
100
AcDbViewportTableRecord
  2
*ACTIVE
 70
0
 10
0.0
 20
0.0
 11
1.0
 21
1.0
 12
25.1722417901
 22
35.6007419603
 13
0.0
 23
0.0
 14
1.0
 24
1.0
 15
0.0
 25
0.0
 16
0.0
 26
0.0
 36
1.0
 17
0.0
 27
0.0
 37
0.0
 40
71.2014839206
 41
0.7070707071
 42
50.0
 43
0.0
 44
0.0
 50
0.0
 51
0.0
 71
0
 72
100
 73
1
 74
1
 75
0
 76
0
 77
0
 78
0
  0
ENDTAB
  0
TABLE
  2
LTYPE
  5
5
100
AcDbSymbolTable
 70
6
  0
LTYPE
  5
14
100
AcDbSymbolTableRecord
100
AcDbLinetypeTableRecord
  2
BYBLOCK
 70
0
  3

 72
65
 73
0
 40
0.0
  0
LTYPE
  5
15
100
AcDbSymbolTableRecord
100
AcDbLinetypeTableRecord
  2
BYLAYER
 70
0
  3

 72
65
 73
0
 40
0.0
  0
LTYPE
  5
16
100
AcDbSymbolTableRecord
100
AcDbLinetypeTableRecord
  2
CONTINUOUS
 70
64
  3
Solid line
 72
65
 73
0
 40
0.0
  0
LTYPE
  5
1F5
100
AcDbSymbolTableRecord
100
AcDbLinetypeTableRecord
  2
CENTER
 70
64
  3
____ _ ____ _ ____ _ ____ _ ____ _ ____ _ ____
 72
65
 73
4
 40
0.6
 49
0.375
 74
0
 49
-0.075
 74
0
 49
0.075
 74
0
 49
-0.075
 74
0
  0
LTYPE
  5
1F6
100
AcDbSymbolTableRecord
100
AcDbLinetypeTableRecord
  2
HIDDEN
 70
64
  3
- - - - - - - - - - - - - - - - - - - -
 72
65
 73
2
 40
0.2
 49
0.1
 74
0
 49
-0.1
 74
0
  0
LTYPE
  5
1F7
100
AcDbSymbolTableRecord
100
AcDbLinetypeTableRecord
  2
PHANTOM
 70
64
  3
_____ _ _ _____ _ _ _____ _ _ _____
 72
65
 73
6
 40
0.8
 49
0.45
 74
0
 49
-0.05
 74
0
 49
0.1
 74
0
 49
-0.05
 74
0
 49
0.1
 74
0
 49
-0.05
 74
0
  0
LTYPE
  5
1F8
100
AcDbSymbolTableRecord
100
AcDbLinetypeTableRecord
  2
DOT
 70
64
  3
. . . . . . . . . . . . . . . . . . . .
 72
65
 73
2
 40
0.2
 49
0.1
 74
0
 49
-0.1
 74
0
  0
LTYPE
  5
1F9
100
AcDbSymbolTableRecord
100
AcDbLinetypeTableRecord
  2
DASHED
 70
64
  3
- - - - - - - - - - - - - - - - - - - -
 72
65
 73
2
 40
0.2
 49
0.1
 74
0
 49
-0.1
 74
0
  0
ENDTAB
  0
TABLE
  2
LAYER
  5
2
100
AcDbSymbolTable
 70
36
  0
LAYER
  5
10
100
AcDbSymbolTableRecord
100
AcDbLayerTableRecord
  2
0
 70
0
 62
7
  6
CONTINUOUS
370
-3
390
F
  0
LAYER
  5
1FA
100
AcDbSymbolTableRecord
100
AcDbLayerTableRecord
  2
DEFAULT_1
 70
0
 62
7
  6
CENTER
370
-3
390
F
  0
LAYER
  5
1FB
100
AcDbSymbolTableRecord
100
AcDbLayerTableRecord
  2
DEFAULT_2
 70
0
 62
7
  6
HIDDEN
370
-3
390
F
  0
LAYER
  5
1FC
100
AcDbSymbolTableRecord
100
AcDbLayerTableRecord
  2
DEFAULT_3
 70
0
 62
7
  6
PHANTOM
370
-3
390
F
  0
LAYER
  5
1FD
100
AcDbSymbolTableRecord
100
AcDbLayerTableRecord
  2
00_COMPONENTS
 70
0
 62
7
  6
CONTINUOUS
370
-3
390
F
  0
LAYER
  5
1FE
100
AcDbSymbolTableRecord
100
AcDbLayerTableRecord
  2
01_1_DEFAULT_DATUMS
 70
0
 62
7
  6
CONTINUOUS
370
-3
390
F
  0
LAYER
  5
1FF
100
AcDbSymbolTableRecord
100
AcDbLayerTableRecord
  2
01_PLANES
 70
0
 62
7
  6
CONTINUOUS
370
-3
390
F
  0
LAYER
  5
200
100
AcDbSymbolTableRecord
100
AcDbLayerTableRecord
  2
02_COORD_SYS
 70
0
 62
7
  6
CONTINUOUS
370
-3
390
F
  0
LAYER
  5
201
100
AcDbSymbolTableRecord
100
AcDbLayerTableRecord
  2
03_AXES
 70
0
 62
7
  6
CONTINUOUS
370
-3
390
F
  0
LAYER
  5
202
100
AcDbSymbolTableRecord
100
AcDbLayerTableRecord
  2
04_POINTS
 70
0
 62
7
  6
CONTINUOUS
370
-3
390
F
  0
LAYER
  5
203
100
AcDbSymbolTableRecord
100
AcDbLayerTableRecord
  2
05_CURVES
 70
0
 62
7
  6
CONTINUOUS
370
-3
390
F
  0
LAYER
  5
204
100
AcDbSymbolTableRecord
100
AcDbLayerTableRecord
  2
06_SURFS
 70
0
 62
7
  6
CONTINUOUS
370
-3
390
F
  0
LAYER
  5
205
100
AcDbSymbolTableRecord
100
AcDbLayerTableRecord
  2
07_COSMETICS
 70
0
 62
7
  6
CONTINUOUS
370
-3
390
F
  0
LAYER
  5
206
100
AcDbSymbolTableRecord
100
AcDbLayerTableRecord
  2
10_NOTES
 70
0
 62
7
  6
CONTINUOUS
370
-3
390
F
  0
LAYER
  5
207
100
AcDbSymbolTableRecord
100
AcDbLayerTableRecord
  2
11_NOTES_PUB
 70
0
 62
7
  6
CONTINUOUS
370
-3
390
F
  0
LAYER
  5
208
100
AcDbSymbolTableRecord
100
AcDbLayerTableRecord
  2
13_REF_GTOL
 70
0
 62
7
  6
CONTINUOUS
370
-3
390
F
  0
LAYER
  5
209
100
AcDbSymbolTableRecord
100
AcDbLayerTableRecord
  2
16_MISC
 70
0
 62
7
  6
CONTINUOUS
370
-3
390
F
  0
LAYER
  5
20A
100
AcDbSymbolTableRecord
100
AcDbLayerTableRecord
  2
17_NO_PRINT
 70
0
 62
7
  6
CONTINUOUS
370
-3
390
F
  0
LAYER
  5
20B
100
AcDbSymbolTableRecord
100
AcDbLayerTableRecord
  2
18_DATUM_CAMS_JOINTS
 70
0
 62
7
  6
CONTINUOUS
370
-3
390
F
  0
LAYER
  5
20C
100
AcDbSymbolTableRecord
100
AcDbLayerTableRecord
  2
19_DATUM_FUNCTIONAL
 70
0
 62
7
  6
CONTINUOUS
370
-3
390
F
  0
LAYER
  5
20D
100
AcDbSymbolTableRecord
100
AcDbLayerTableRecord
  2
20_DATUM_KINEMATIC_SCHEME
 70
0
 62
7
  6
CONTINUOUS
370
-3
390
F
  0
ENDTAB
  0
TABLE
  2
STYLE
  5
3
100
AcDbSymbolTable
 70
1
  0
STYLE
  5
11
100
AcDbSymbolTableRecord
100
AcDbTextStyleTableRecord
  2
STANDARD
 70
0
 40
0.0
 41
1.0
 50
0.0
 71
0
 42
0.2
  3
ARIAL.TTF
  4

  0
STYLE
  5
20E
100
AcDbSymbolTableRecord
100
AcDbTextStyleTableRecord
  2
TEXTSTYLE_1
 70
0
 40
0.0
 41
0.8
 50
0.0
 71
0
 42
0.2
  3
gdt
  4

  0
ENDTAB
  0
TABLE
  2
VIEW
  5
6
100
AcDbSymbolTable
 70
0
  0
ENDTAB
  0
TABLE
  2
UCS
  5
7
100
AcDbSymbolTable
 70
0
  0
ENDTAB
  0
TABLE
  2
APPID
  5
9
100
AcDbSymbolTable
 70
1
  0
APPID
  5
20F
100
AcDbSymbolTableRecord
100
AcDbRegAppTableRecord
  2
ACAD
 70
0
  0
ENDTAB
  0
TABLE
  2
BLOCK_RECORD
  5
1
100
AcDbSymbolTable
 70
0
  0
BLOCK_RECORD
  5
210
100
AcDbSymbolTableRecord
100
AcDbBlockTableRecord
  2
*Model_Space
  0
BLOCK_RECORD
  5
211
100
AcDbSymbolTableRecord
100
AcDbBlockTableRecord
  2
*Paper_Space
  0
BLOCK_RECORD
  5
212
100
AcDbSymbolTableRecord
100
AcDbBlockTableRecord
  2
_FILLED
  0
ENDTAB
  0
TABLE
  2
DIMSTYLE
  5
A
100
AcDbSymbolTable
 70
1
100
AcDbDimStyleTable
 71
0
  0
DIMSTYLE
105
213
100
AcDbSymbolTableRecord
100
AcDbDimStyleTableRecord
  2
STANDARD
 70
0
  3

  4

 40
1.0
 41
0.5993390902
 42
1.0
 43
0.38
 44
1.0
 45
0.0
 46
0.0
 47
0.01
 48
0.01
140
0.8390747263
141
0.09
142
0.0
143
25.4
144
1.0
145
0.0
146
1.0
147
0.625
 71
1
 72
0
 73
0
 74
0
 75
0
 76
0
 77
1
 78
8
 79
2
170
0
171
1
172
0
173
0
174
0
175
0
176
0
177
0
178
0
270
2
179
2
271
2
272
2
273
2
274
2
275
0
280
0
281
0
282
0
283
1
284
8
285
0
286
0
287
3
288
0
340
11
278
46
341
212
342
212
343
212
344
212
  0
ENDTAB
  0
ENDSEC
  0
SECTION
  2
BLOCKS
  0
BLOCK
  5
20
100
AcDbEntity
  8
0
100
AcDbBlockBegin
  2
*Model_Space
 70
0
 10
0.0
 20
0.0
 30
0.0
  3
*Model_Space
  1

  0
ENDBLK
  5
21
100
AcDbEntity
  8
0
100
AcDbBlockEnd
  0
BLOCK
  5
1C
100
AcDbEntity
  8
0
100
AcDbBlockBegin
  2
*Paper_Space
 70
0
 10
0.0
 20
0.0
 30
0.0
  3
*Paper_Space
  1

  0
ENDBLK
  5
1D
100
AcDbEntity
  8
0
100
AcDbBlockEnd
  0
BLOCK
  5
214
100
AcDbEntity
  8
0
100
AcDbBlockBegin
  2
_FILLED
 70
64
 10
0.0
 20
0.0
  3
_FILLED
  1

  0
SOLID
  5
215
100
AcDbEntity
  8
0
  6
BYBLOCK
 62
0
100
AcDbTrace
 10
0.0
 20
0.0
 11
-1.0
 21
0.25
 12
-1.0
 22
-0.25
 13
-1.0
 23
-0.25
  0
ENDBLK
  5
216
100
AcDbEntity
  8
0
  6
BYBLOCK
 62
0
100
AcDbBlockEnd
  0
ENDSEC
  0
SECTION
  2
ENTITIES
  0
LINE
  5
217
100
AcDbEntity
  8
0
100
AcDbLine
 62
7
  6
BYLAYER
 10
14.6064808528
 20
15.6672535127
 11
12.2208402069
 21
17.0446037819
  0
LINE
  5
218
100
AcDbEntity
  8
0
100
AcDbLine
 62
7
  6
BYLAYER
 10
35.9351794949
 20
15.5332784776
 11
30.0311937283
 21
15.5332767223
  0
LINE
  5
219
100
AcDbEntity
  8
0
100
AcDbLine
 62
7
  6
BYLAYER
 10
21.0104777846
 20
15.5332767232
 11
15.1064912078
 21
15.5332784778
  0
LINE
  5
21A
100
AcDbEntity
  8
0
100
AcDbLine
 62
7
  6
BYLAYER
 10
21.8465693799
 20
54.4676975584
 11
22.1685950928
 21
54.6510691194
  0
LINE
  5
21B
100
AcDbEntity
  8
0
100
AcDbLine
 62
7
  6
BYLAYER
 10
29.3208402068
 20
17.3328231306
 11
21.7208402068
 21
17.3328231306
  0
LINE
  5
21C
100
AcDbEntity
  8
0
100
AcDbLine
 62
7
  6
BYLAYER
 10
19.3208402068
 20
17.3493825553
 11
11.8930591845
 21
17.3496467586
  0
LINE
  5
21D
100
AcDbEntity
  8
0
100
AcDbLine
 62
7
  6
BYLAYER
 10
38.1208402068
 20
17.3493798575
 11
31.7208402068
 21
17.3493812514
  0
LINE
  5
21E
100
AcDbEntity
  8
0
100
AcDbLine
 62
7
  6
BYLAYER
 10
11.7671029073
 20
17.6099880192
 11
19.3208402068
 21
17.6099881054
  0
LINE
  5
21F
100
AcDbEntity
  8
0
100
AcDbLine
 62
7
  6
BYLAYER
 10
21.7208402068
 20
17.6099881054
 11
29.3208402068
 21
17.6099881054
  0
LINE
  5
220
100
AcDbEntity
  8
0
100
AcDbLine
 62
7
  6
BYLAYER
 10
31.7208402068
 20
17.6099881054
 11
38.1208402068
 21
17.6099881054
  0
LINE
  5
221
100
AcDbEntity
  8
0
100
AcDbLine
 62
7
  6
BYLAYER
 10
17.8477020607
 20
50.3956844734
 11
18.0957560822
 21
50.5644126645
  0
LINE
  5
222
100
AcDbEntity
  8
0
100
AcDbLine
 62
7
  6
BYLAYER
 10
11.7208402068
 20
18.6433380881
 11
19.3208402068
 21
18.6433380881
  0
LINE
  5
223
100
AcDbEntity
  8
0
100
AcDbLine
 62
7
  6
BYLAYER
 10
31.7208402068
 20
18.6433380881
 11
38.1208402068
 21
18.6433380881
  0
LINE
  5
224
100
AcDbEntity
  8
0
100
AcDbLine
 62
7
  6
BYLAYER
 10
21.7208402068
 20
18.9332789165
 11
29.3208402068
 21
18.9332789165
  0
LINE
  5
225
100
AcDbEntity
  8
0
100
AcDbLine
 62
7
  6
BYLAYER
 10
10.5708402068
 20
42.5332793929
 11
10.5708402068
 21
49.0332793929
  0
LINE
  5
226
100
AcDbEntity
  8
0
100
AcDbLine
 62
7
  6
BYLAYER
 10
10.5958402068
 20
21.5332793929
 11
10.5958402068
 21
26.0532793929
  0
LINE
  5
227
100
AcDbEntity
  8
0
100
AcDbLine
 62
7
  6
BYLAYER
 10
10.6208402068
 20
52.8332793929
 11
10.6208402068
 21
20.8332793929
  0
LINE
  5
228
100
AcDbEntity
  8
0
100
AcDbLine
 62
7
  6
BYLAYER
 10
10.7208402068
 20
34.1332793929
 11
10.7208402068
 21
39.5332793929
  0
LINE
  5
229
100
AcDbEntity
  8
0
100
AcDbLine
 62
7
  6
BYLAYER
 10
11.0208402068
 20
52.2311041941
 11
11.0208402068
 21
51.7757174258
  0
LINE
  5
22A
100
AcDbEntity
  8
0
100
AcDbLine
 62
7
  6
BYLAYER
 10
11.0208402068
 20
22.1147362775
 11
11.0208402068
 21
21.5228038588
  0
LINE
  5
22B
100
AcDbEntity
  8
0
100
AcDbLine
 62
7
  6
BYLAYER
 10
11.7208402068
 20
17.9106291857
 11
11.7208402068
 21
20.8332793929
  0
LINE
  5
22C
100
AcDbEntity
  8
0
100
AcDbLine
 62
7
  6
BYLAYER
 10
11.7208402068
 20
52.8332793929
 11
11.7208402068
 21
55.3332787109
  0
LINE
  5
22D
100
AcDbEntity
  8
0
100
AcDbLine
 62
7
  6
BYLAYER
 10
20.3708402068
 20
49.354634316
 11
20.4208402068
 21
49.4009935087
  0
LINE
  5
22E
100
AcDbEntity
  8
0
100
AcDbLine
 62
7
  6
BYLAYER
 10
21.7208402068
 20
20.7332789165
 11
29.3208402068
 21
20.7332789165
  0
LINE
  5
22F
100
AcDbEntity
  8
0
100
AcDbLine
 62
7
  6
BYLAYER
 10
20.3708402068
 20
20.8332793929
 11
10.6208402068
 21
20.8332793929
  0
LINE
  5
230
100
AcDbEntity
  8
0
100
AcDbLine
 62
7
  6
BYLAYER
 10
10.6208402068
 20
20.9247428076
 11
20.5008402068
 21
20.9247428076
  0
LINE
  5
231
100
AcDbEntity
  8
0
100
AcDbLine
 62
7
  6
BYLAYER
 10
20.3891255334
 20
21.3778440202
 11
18.5008402068
 21
21.3778440202
  0
LINE
  5
232
100
AcDbEntity
  8
0
100
AcDbLine
 62
7
  6
BYLAYER
 10
12.6208402068
 20
21.3778440202
 11
10.7325548802
 21
21.3778440202
  0
LINE
  5
233
100
AcDbEntity
  8
0
100
AcDbLine
 62
7
  6
BYLAYER
 10
22.1208402068
 20
21.4332789165
 11
28.9208402068
 21
21.4332789165
  0
LINE
  5
234
100
AcDbEntity
  8
0
100
AcDbLine
 62
7
  6
BYLAYER
 10
11.0208402068
 20
21.5228038588
 11
12.6208402068
 21
21.5228038588
  0
LINE
  5
235
100
AcDbEntity
  8
0
100
AcDbLine
 62
7
  6
BYLAYER
 10
18.5008402068
 20
21.5228038588
 11
20.1008402068
 21
21.5228038588
  0
LINE
  5
236
100
AcDbEntity
  8
0
100
AcDbLine
 62
7
  6
BYLAYER
 10
10.5958402068
 20
21.5332793929
 11
10.6208402068
 21
21.5332793929
  0
LINE
  5
237
100
AcDbEntity
  8
0
100
AcDbLine
 62
7
  6
BYLAYER
 10
10.5958402068
 20
21.6832793929
 11
10.6208402068
 21
21.6832793929
  0
LINE
  5
238
100
AcDbEntity
  8
0
100
AcDbLine
 62
7
  6
BYLAYER
 10
18.5008402068
 20
22.0691109848
 11
12.6208402068
 21
22.0691109848
  0
LINE
  5
239
100
AcDbEntity
  8
0
100
AcDbLine
 62
7
  6
BYLAYER
 10
12.6208402068
 20
52.4047989594
 11
12.6208402068
 21
51.769629711
  0
LINE
  5
23A
100
AcDbEntity
  8
0
100
AcDbLine
 62
7
  6
BYLAYER
 10
12.6208402068
 20
22.1147362775
 11
12.6208402068
 21
21.3778440201
  0
LINE
  5
23B
100
AcDbEntity
  8
0
100
AcDbLine
 62
7
  6
BYLAYER
 10
12.7108402068
 20
38.2832793929
 11
12.7108402068
 21
35.3832793929
  0
LINE
  5
23C
100
AcDbEntity
  8
0
100
AcDbLine
 62
7
  6
BYLAYER
 10
12.8408402068
 20
35.7332793929
 11
12.8408402068
 21
37.9332793929
  0
LINE
  5
23D
100
AcDbEntity
  8
0
100
AcDbLine
 62
7
  6
BYLAYER
 10
12.9208402068
 20
45.3832793929
 11
12.9208402068
 21
46.3832793929
  0
LINE
  5
23E
100
AcDbEntity
  8
0
100
AcDbLine
 62
7
  6
BYLAYER
 10
13.2458402068
 20
45.3832793929
 11
13.2458402068
 21
45.2832793929
  0
LINE
  5
23F
100
AcDbEntity
  8
0
100
AcDbLine
 62
7
  6
BYLAYER
 10
13.2458402068
 20
46.3832793929
 11
13.2458402068
 21
46.4832793929
  0
LINE
  5
240
100
AcDbEntity
  8
0
100
AcDbLine
 62
7
  6
BYLAYER
 10
13.4208402068
 20
46.3832793929
 11
13.4208402068
 21
45.3832793929
  0
LINE
  5
241
100
AcDbEntity
  8
0
100
AcDbLine
 62
7
  6
BYLAYER
 10
14.0208402068
 20
51.3466044164
 11
14.0208402068
 21
50.5332793929
  0
LINE
  5
242
100
AcDbEntity
  8
0
100
AcDbLine
 62
7
  6
BYLAYER
 10
14.0208402068
 20
49.1332793929
 11
14.0208402068
 21
48.5332793929
  0
LINE
  5
243
100
AcDbEntity
  8
0
100
AcDbLine
 62
7
  6
BYLAYER
 10
10.7707223874
 20
22.1147362775
 11
12.6208402068
 21
22.1147362775
  0
LINE
  5
244
100
AcDbEntity
  8
0
100
AcDbLine
 62
7
  6
BYLAYER
 10
18.5008402068
 20
22.1147362775
 11
20.3509580262
 21
22.1147362775
  0
LINE
  5
245
100
AcDbEntity
  8
0
100
AcDbLine
 62
7
  6
BYLAYER
 10
10.6208402068
 20
23.1021461221
 11
20.5008402068
 21
23.1021461221
  0
LINE
  5
246
100
AcDbEntity
  8
0
100
AcDbLine
 62
7
  6
BYLAYER
 10
31.5863162804
 20
23.3332789165
 11
31.6007920631
 21
23.3332789165
  0
LINE
  5
247
100
AcDbEntity
  8
0
100
AcDbLine
 62
7
  6
BYLAYER
 10
15.2958402068
 20
45.3832793929
 11
15.2958402068
 21
45.2832793929
  0
LINE
  5
248
100
AcDbEntity
  8
0
100
AcDbLine
 62
7
  6
BYLAYER
 10
15.2958402068
 20
46.3832793929
 11
15.2958402068
 21
46.4832793929
  0
LINE
  5
249
100
AcDbEntity
  8
0
100
AcDbLine
 62
7
  6
BYLAYER
 10
15.7458402068
 20
45.3832793929
 11
15.7458402068
 21
45.2832793929
  0
LINE
  5
24A
100
AcDbEntity
  8
0
100
AcDbLine
 62
7
  6
BYLAYER
 10
15.7458402068
 20
46.3832793929
 11
15.7458402068
 21
46.4832793929
  0
LINE
  5
24B
100
AcDbEntity
  8
0
100
AcDbLine
 62
7
  6
BYLAYER
 10
20.5008402068
 20
24.2332793929
 11
18.4208402068
 21
24.2332793929
  0
LINE
  5
24C
100
AcDbEntity
  8
0
100
AcDbLine
 62
7
  6
BYLAYER
 10
10.6208402068
 20
24.2332793929
 11
10.5958402068
 21
24.2332793929
  0
LINE
  5
24D
100
AcDbEntity
  8
0
100
AcDbLine
 62
7
  6
BYLAYER
 10
20.3958402068
 20
24.3232789165
 11
21.7208402068
 21
24.3232789165
  0
LINE
  5
24E
100
AcDbEntity
  8
0
100
AcDbLine
 62
7
  6
BYLAYER
 10
29.3208402068
 20
24.3232789165
 11
31.7208402068
 21
24.3232789165
  0
LINE
  5
24F
100
AcDbEntity
  8
0
100
AcDbLine
 62
7
  6
BYLAYER
 10
10.5958402068
 20
24.3332793929
 11
10.6208402068
 21
24.3332793929
  0
LINE
  5
250
100
AcDbEntity
  8
0
100
AcDbLine
 62
7
  6
BYLAYER
 10
20.3708402068
 20
24.3332793929
 11
20.3958402068
 21
24.3332793929
  0
LINE
  5
251
100
AcDbEntity
  8
0
100
AcDbLine
 62
7
  6
BYLAYER
 10
38.1208402068
 20
24.3332789165
 11
40.4208402068
 21
24.3332789165
  0
LINE
  5
252
100
AcDbEntity
  8
0
100
AcDbLine
 62
7
  6
BYLAYER
 10
18.4208402068
 20
24.5332793929
 11
20.3708402068
 21
24.5332793929
  0
LINE
  5
253
100
AcDbEntity
  8
0
100
AcDbLine
 62
7
  6
BYLAYER
 10
38.1208402068
 20
24.7332789165
 11
40.4208402068
 21
24.7332789165
  0
LINE
  5
254
100
AcDbEntity
  8
0
100
AcDbLine
 62
7
  6
BYLAYER
 10
10.6208402068
 20
25.6332793929
 11
10.5958402068
 21
25.6332793929
  0
LINE
  5
255
100
AcDbEntity
  8
0
100
AcDbLine
 62
7
  6
BYLAYER
 10
10.5958402068
 20
25.7802797054
 11
10.6208402068
 21
25.7802797054
  0
LINE
  5
256
100
AcDbEntity
  8
0
100
AcDbLine
 62
7
  6
BYLAYER
 10
10.6208402068
 20
25.950241317
 11
10.5958402068
 21
25.950241317
  0
LINE
  5
257
100
AcDbEntity
  8
0
100
AcDbLine
 62
7
  6
BYLAYER
 10
16.1408402068
 20
35.7332793929
 11
16.1408402068
 21
37.9332793929
  0
LINE
  5
258
100
AcDbEntity
  8
0
100
AcDbLine
 62
7
  6
BYLAYER
 10
17.0208402068
 20
48.5332793929
 11
17.0208402068
 21
49.1332793929
  0
LINE
  5
259
100
AcDbEntity
  8
0
100
AcDbLine
 62
7
  6
BYLAYER
 10
17.0208402068
 20
50.5332793929
 11
17.0208226751
 21
51.3466044164
  0
LINE
  5
25A
100
AcDbEntity
  8
0
100
AcDbLine
 62
7
  6
BYLAYER
 10
17.6208402068
 20
46.3832793929
 11
17.6208402068
 21
45.3832793929
  0
LINE
  5
25B
100
AcDbEntity
  8
0
100
AcDbLine
 62
7
  6
BYLAYER
 10
17.7958402068
 20
45.3832793929
 11
17.7958402068
 21
45.2832793929
  0
LINE
  5
25C
100
AcDbEntity
  8
0
100
AcDbLine
 62
7
  6
BYLAYER
 10
17.7958402068
 20
46.3832793929
 11
17.7958402068
 21
46.4832793929
  0
LINE
  5
25D
100
AcDbEntity
  8
0
100
AcDbLine
 62
7
  6
BYLAYER
 10
10.5958402068
 20
26.0532793929
 11
10.6208402068
 21
26.0532793929
  0
LINE
  5
25E
100
AcDbEntity
  8
0
100
AcDbLine
 62
7
  6
BYLAYER
 10
29.5208411861
 20
26.3332789165
 11
21.5208402068
 21
26.3332789165
  0
LINE
  5
25F
100
AcDbEntity
  8
0
100
AcDbLine
 62
7
  6
BYLAYER
 10
18.1208402068
 20
46.3832793929
 11
18.1208402068
 21
45.3832793929
  0
LINE
  5
260
100
AcDbEntity
  8
0
100
AcDbLine
 62
7
  6
BYLAYER
 10
18.4208402068
 20
20.8332793929
 11
18.4208402068
 21
20.9247428076
  0
LINE
  5
261
100
AcDbEntity
  8
0
100
AcDbLine
 62
7
  6
BYLAYER
 10
18.4208402068
 20
24.2332793929
 11
18.4208402068
 21
34.1332793929
  0
LINE
  5
262
100
AcDbEntity
  8
0
100
AcDbLine
 62
7
  6
BYLAYER
 10
18.4208402068
 20
35.3832793929
 11
18.4208402068
 21
38.2832793929
  0
LINE
  5
263
100
AcDbEntity
  8
0
100
AcDbLine
 62
7
  6
BYLAYER
 10
18.4208402068
 20
39.5332793929
 11
18.4208402068
 21
49.4332793929
  0
LINE
  5
264
100
AcDbEntity
  8
0
100
AcDbLine
 62
7
  6
BYLAYER
 10
18.4208402068
 20
52.7418159783
 11
18.4208402068
 21
52.8332793929
  0
LINE
  5
265
100
AcDbEntity
  8
0
100
AcDbLine
 62
7
  6
BYLAYER
 10
18.5008402068
 20
21.3778440202
 11
18.5008402068
 21
22.1147362775
  0
LINE
  5
266
100
AcDbEntity
  8
0
100
AcDbLine
 62
7
  6
BYLAYER
 10
18.5008402068
 20
51.769629711
 11
18.5008402068
 21
52.4047989594
  0
LINE
  5
267
100
AcDbEntity
  8
0
100
AcDbLine
 62
7
  6
BYLAYER
 10
19.3208402068
 20
17.3493192716
 11
19.3208402068
 21
20.8332793929
  0
LINE
  5
268
100
AcDbEntity
  8
0
100
AcDbLine
 62
7
  6
BYLAYER
 10
19.3708402068
 20
24.5332793929
 11
19.3708402068
 21
33.354385324
  0
LINE
  5
269
100
AcDbEntity
  8
0
100
AcDbLine
 62
7
  6
BYLAYER
 10
19.8557644473
 20
34.0546010882
 11
19.8557644473
 21
34.01217348
  0
LINE
  5
26A
100
AcDbEntity
  8
0
100
AcDbLine
 62
7
  6
BYLAYER
 10
28.6039826223
 20
54.178487723
 11
28.8730853208
 21
54.6510691194
  0
LINE
  5
26B
100
AcDbEntity
  8
0
100
AcDbLine
 62
7
  6
BYLAYER
 10
28.9208402068
 20
21.4332789165
 11
29.3208402068
 21
20.9565774794
  0
LINE
  5
26C
100
AcDbEntity
  8
0
100
AcDbLine
 62
7
  6
BYLAYER
 10
20.1008402068
 20
21.5228038588
 11
20.1008402068
 21
22.1147362775
  0
LINE
  5
26D
100
AcDbEntity
  8
0
100
AcDbLine
 62
7
  6
BYLAYER
 10
20.1008402068
 20
51.7757174258
 11
20.1008402068
 21
52.2311041941
  0
LINE
  5
26E
100
AcDbEntity
  8
0
100
AcDbLine
 62
7
  6
BYLAYER
 10
20.3708402068
 20
20.8332793929
 11
20.3708402068
 21
20.9247428076
  0
LINE
  5
26F
100
AcDbEntity
  8
0
100
AcDbLine
 62
7
  6
BYLAYER
 10
20.3708402068
 20
24.2332793929
 11
20.3708402068
 21
49.4332793929
  0
LINE
  5
270
100
AcDbEntity
  8
0
100
AcDbLine
 62
7
  6
BYLAYER
 10
20.3708402068
 20
52.7418159783
 11
20.3708402068
 21
52.8332793929
  0
LINE
  5
271
100
AcDbEntity
  8
0
100
AcDbLine
 62
7
  6
BYLAYER
 10
20.3958402068
 20
24.2332793929
 11
20.3958402068
 21
24.3332793929
  0
LINE
  5
272
100
AcDbEntity
  8
0
100
AcDbLine
 62
7
  6
BYLAYER
 10
20.4208402068
 20
33.2332793929
 11
20.4208402068
 21
40.0832793929
  0
LINE
  5
273
100
AcDbEntity
  8
0
100
AcDbLine
 62
7
  6
BYLAYER
 10
20.4208402068
 20
42.5332793929
 11
20.4208402068
 21
49.0332793929
  0
LINE
  5
274
100
AcDbEntity
  8
0
100
AcDbLine
 62
7
  6
BYLAYER
 10
20.4208402068
 20
49.4009935087
 11
20.4208402068
 21
49.4332793929
  0
LINE
  5
275
100
AcDbEntity
  8
0
100
AcDbLine
 62
7
  6
BYLAYER
 10
20.5008402068
 20
20.9247428075
 11
20.5008402068
 21
24.2332793929
  0
LINE
  5
276
100
AcDbEntity
  8
0
100
AcDbLine
 62
7
  6
BYLAYER
 10
20.5008402068
 20
49.4332793929
 11
20.5008402068
 21
52.7418159783
  0
LINE
  5
277
100
AcDbEntity
  8
0
100
AcDbLine
 62
7
  6
BYLAYER
 10
21.4708402068
 20
44.6332789165
 11
21.4708402068
 21
48.9332789165
  0
LINE
  5
278
100
AcDbEntity
  8
0
100
AcDbLine
 62
7
  6
BYLAYER
 10
21.5208402068
 20
26.3332789165
 11
21.5208402068
 21
29.6178440717
  0
LINE
  5
279
100
AcDbEntity
  8
0
100
AcDbLine
 62
7
  6
BYLAYER
 10
21.7208402068
 20
17.3328231306
 11
21.7208402068
 21
24.3232789165
  0
LINE
  5
27A
100
AcDbEntity
  8
0
100
AcDbLine
 62
7
  6
BYLAYER
 10
20.3704229978
 20
34.2855995385
 11
20.3708371024
 21
34.2985964601
  0
LINE
  5
27B
100
AcDbEntity
  8
0
100
AcDbLine
 62
7
  6
BYLAYER
 10
20.3704058341
 20
33.45476234
 11
20.3708385107
 21
33.4634793476
  0
LINE
  5
27C
100
AcDbEntity
  8
0
100
AcDbLine
 62
7
  6
BYLAYER
 10
20.3701805082
 20
34.2819640302
 11
20.3704229978
 21
34.2855995385
  0
LINE
  5
27D
100
AcDbEntity
  8
0
100
AcDbLine
 62
7
  6
BYLAYER
 10
20.3701361336
 20
34.2813777441
 11
20.3701805082
 21
34.2819640302
  0
LINE
  5
27E
100
AcDbEntity
  8
0
100
AcDbLine
 62
7
  6
BYLAYER
 10
19.8557644496
 20
34.012173328
 11
19.3855026944
 21
33.3538069585
  0
LINE
  5
27F
100
AcDbEntity
  8
0
100
AcDbLine
 62
7
  6
BYLAYER
 10
33.479012084
 20
30.5332788869
 11
30.8474244661
 21
30.5332789165
  0
LINE
  5
280
100
AcDbEntity
  8
0
100
AcDbLine
 62
7
  6
BYLAYER
 10
19.9031999861
 20
34.0707227551
 11
19.941950288
 21
34.0041689283
  0
LINE
  5
281
100
AcDbEntity
  8
0
100
AcDbLine
 62
7
  6
BYLAYER
 10
20.4208402068
 20
33.2332793929
 11
20.3708402068
 21
33.2332793929
  0
LINE
  5
282
100
AcDbEntity
  8
0
100
AcDbLine
 62
7
  6
BYLAYER
 10
19.3708402069
 20
33.3119590486
 11
18.4208402068
 21
33.3119590484
  0
LINE
  5
283
100
AcDbEntity
  8
0
100
AcDbLine
 62
7
  6
BYLAYER
 10
39.6208402068
 20
33.3332789165
 11
35.048300519
 21
33.3332789165
  0
LINE
  5
284
100
AcDbEntity
  8
0
100
AcDbLine
 62
7
  6
BYLAYER
 10
19.3708410222
 20
33.3543854948
 11
18.4208402068
 21
33.3543854572
  0
LINE
  5
285
100
AcDbEntity
  8
0
100
AcDbLine
 62
7
  6
BYLAYER
 10
20.3708402068
 20
33.7332793929
 11
20.4208402068
 21
33.7332793929
  0
LINE
  5
286
100
AcDbEntity
  8
0
100
AcDbLine
 62
7
  6
BYLAYER
 10
18.4208402068
 20
33.8332793929
 11
10.6208402068
 21
33.8332793929
  0
LINE
  5
287
100
AcDbEntity
  8
0
100
AcDbLine
 62
7
  6
BYLAYER
 10
19.8557644496
 20
34.012173328
 11
18.4208402068
 21
34.0121733286
  0
LINE
  5
288
100
AcDbEntity
  8
0
100
AcDbLine
 62
7
  6
BYLAYER
 10
18.4208402068
 20
34.0545997375
 11
19.8557644482
 21
34.0545997376
  0
LINE
  5
289
100
AcDbEntity
  8
0
100
AcDbLine
 62
7
  6
BYLAYER
 10
18.4208402068
 20
34.1332793929
 11
10.7208402068
 21
34.1332793929
  0
LINE
  5
28A
100
AcDbEntity
  8
0
100
AcDbLine
 62
7
  6
BYLAYER
 10
20.3708402068
 20
34.4432793929
 11
20.4208402068
 21
34.4432793929
  0
LINE
  5
28B
100
AcDbEntity
  8
0
100
AcDbLine
 62
7
  6
BYLAYER
 10
20.3708402068
 20
35.3832793929
 11
12.7108402068
 21
35.3832793929
  0
LINE
  5
28C
100
AcDbEntity
  8
0
100
AcDbLine
 62
7
  6
BYLAYER
 10
12.8408402068
 20
35.7332793929
 11
16.1408402068
 21
35.7332793929
  0
LINE
  5
28D
100
AcDbEntity
  8
0
100
AcDbLine
 62
7
  6
BYLAYER
 10
20.4208402068
 20
37.5829157206
 11
20.3708402068
 21
37.5829157206
  0
LINE
  5
28E
100
AcDbEntity
  8
0
100
AcDbLine
 62
7
  6
BYLAYER
 10
29.3208402068
 20
17.3328231306
 11
29.3208402068
 21
24.3232789165
  0
LINE
  5
28F
100
AcDbEntity
  8
0
100
AcDbLine
 62
7
  6
BYLAYER
 10
29.5208431447
 20
29.6178457003
 11
29.5208402068
 21
26.3332789165
  0
LINE
  5
290
100
AcDbEntity
  8
0
100
AcDbLine
 62
7
  6
BYLAYER
 10
29.5708402068
 20
48.9332789165
 11
29.5708402068
 21
44.6332789165
  0
LINE
  5
291
100
AcDbEntity
  8
0
100
AcDbLine
 62
7
  6
BYLAYER
 10
20.4208402068
 20
37.7632793929
 11
20.3708402068
 21
37.7632793929
  0
LINE
  5
292
100
AcDbEntity
  8
0
100
AcDbLine
 62
7
  6
BYLAYER
 10
16.1408402068
 20
37.9332793929
 11
12.8408402068
 21
37.9332793929
  0
LINE
  5
293
100
AcDbEntity
  8
0
100
AcDbLine
 62
7
  6
BYLAYER
 10
20.3708402068
 20
38.2832793929
 11
12.7108402068
 21
38.2832793929
  0
LINE
  5
294
100
AcDbEntity
  8
0
100
AcDbLine
 62
7
  6
BYLAYER
 10
33.3829324745
 20
39.3332799512
 11
39.6208402068
 21
39.3332789165
  0
LINE
  5
295
100
AcDbEntity
  8
0
100
AcDbLine
 62
7
  6
BYLAYER
 10
18.4208402068
 20
39.5332793929
 11
10.7208402068
 21
39.5332793929
  0
LINE
  5
296
100
AcDbEntity
  8
0
100
AcDbLine
 62
7
  6
BYLAYER
 10
20.4208402068
 20
39.5832793929
 11
20.3708402068
 21
39.5832793929
  0
LINE
  5
297
100
AcDbEntity
  8
0
100
AcDbLine
 62
7
  6
BYLAYER
 10
31.4708402068
 20
44.6332789165
 11
31.4708402068
 21
48.9332789165
  0
LINE
  5
298
100
AcDbEntity
  8
0
100
AcDbLine
 62
7
  6
BYLAYER
 10
18.4208402068
 20
39.8332793929
 11
10.6208402068
 21
39.8332793929
  0
LINE
  5
299
100
AcDbEntity
  8
0
100
AcDbLine
 62
7
  6
BYLAYER
 10
20.3708402068
 20
40.0832793929
 11
20.4208402068
 21
40.0832793929
  0
LINE
  5
29A
100
AcDbEntity
  8
0
100
AcDbLine
 62
7
  6
BYLAYER
 10
40.4208402068
 20
40.4474003501
 11
32.9370809164
 21
40.4474003501
  0
LINE
  5
29B
100
AcDbEntity
  8
0
100
AcDbLine
 62
7
  6
BYLAYER
 10
12.9459229068
 20
50.56441057
 11
13.1939771615
 21
50.3956827217
  0
LINE
  5
29C
100
AcDbEntity
  8
0
100
AcDbLine
 62
7
  6
BYLAYER
 10
31.7208402068
 20
24.3232789165
 11
31.7208402068
 21
17.3493178979
  0
LINE
  5
29D
100
AcDbEntity
  8
0
100
AcDbLine
 62
7
  6
BYLAYER
 10
22.1208402068
 20
21.4332789165
 11
21.7208402068
 21
20.9565774794
  0
LINE
  5
29E
100
AcDbEntity
  8
0
100
AcDbLine
 62
7
  6
BYLAYER
 10
40.4208402068
 20
41.7332789165
 11
39.5708402068
 21
41.7332789165
  0
LINE
  5
29F
100
AcDbEntity
  8
0
100
AcDbLine
 62
7
  6
BYLAYER
 10
20.4208402068
 20
42.5332793929
 11
20.3708402068
 21
42.5332793929
  0
LINE
  5
2A0
100
AcDbEntity
  8
0
100
AcDbLine
 62
7
  6
BYLAYER
 10
10.6208402068
 20
42.5332793929
 11
10.5708402068
 21
42.5332793929
  0
LINE
  5
2A1
100
AcDbEntity
  8
0
100
AcDbLine
 62
7
  6
BYLAYER
 10
22.1685950928
 20
54.6510691194
 11
22.4376977913
 21
54.178487723
  0
LINE
  5
2A2
100
AcDbEntity
  8
0
100
AcDbLine
 62
7
  6
BYLAYER
 10
34.1501278393
 20
31.4986312773
 11
34.1426844925
 21
32.7476056079
  0
LINE
  5
2A3
100
AcDbEntity
  8
0
100
AcDbLine
 62
7
  6
BYLAYER
 10
39.5708402068
 20
44.188725278
 11
40.4208402068
 21
44.188725278
  0
LINE
  5
2A4
100
AcDbEntity
  8
0
100
AcDbLine
 62
7
  6
BYLAYER
 10
10.5708402068
 20
44.3332793929
 11
10.6208402068
 21
44.3332793929
  0
LINE
  5
2A5
100
AcDbEntity
  8
0
100
AcDbLine
 62
7
  6
BYLAYER
 10
20.3708402068
 20
44.3332793929
 11
20.4208402068
 21
44.3332793929
  0
LINE
  5
2A6
100
AcDbEntity
  8
0
100
AcDbLine
 62
7
  6
BYLAYER
 10
20.4208402068
 20
44.6332789165
 11
21.4708402068
 21
44.6332789165
  0
LINE
  5
2A7
100
AcDbEntity
  8
0
100
AcDbLine
 62
7
  6
BYLAYER
 10
29.5708402068
 20
44.6332789165
 11
31.4708402068
 21
44.6332789165
  0
LINE
  5
2A8
100
AcDbEntity
  8
0
100
AcDbLine
 62
7
  6
BYLAYER
 10
13.5208402068
 20
44.8832793929
 11
18.4208402068
 21
44.8832793929
  0
LINE
  5
2A9
100
AcDbEntity
  8
0
100
AcDbLine
 62
7
  6
BYLAYER
 10
18.4208402068
 20
44.9417788026
 11
13.3027883097
 21
44.9417788026
  0
LINE
  5
2AA
100
AcDbEntity
  8
0
100
AcDbLine
 62
7
  6
BYLAYER
 10
17.7958402068
 20
45.2832793929
 11
15.7458402068
 21
45.2832793929
  0
LINE
  5
2AB
100
AcDbEntity
  8
0
100
AcDbLine
 62
7
  6
BYLAYER
 10
15.2958402068
 20
45.2832793929
 11
13.2458402068
 21
45.2832793929
  0
LINE
  5
2AC
100
AcDbEntity
  8
0
100
AcDbLine
 62
7
  6
BYLAYER
 10
12.7463150662
 20
45.2915716127
 11
13.2458402068
 21
45.2915716127
  0
LINE
  5
2AD
100
AcDbEntity
  8
0
100
AcDbLine
 62
7
  6
BYLAYER
 10
15.2958402068
 20
45.2915716127
 11
15.7458402068
 21
45.2915716127
  0
LINE
  5
2AE
100
AcDbEntity
  8
0
100
AcDbLine
 62
7
  6
BYLAYER
 10
17.7958402068
 20
45.2915716127
 11
18.4208402068
 21
45.2915716127
  0
LINE
  5
2AF
100
AcDbEntity
  8
0
100
AcDbLine
 62
7
  6
BYLAYER
 10
12.9208402068
 20
45.3832793929
 11
18.1208402068
 21
45.3832793929
  0
LINE
  5
2B0
100
AcDbEntity
  8
0
100
AcDbLine
 62
7
  6
BYLAYER
 10
35.6122213348
 20
37.8639155179
 11
35.6231972144
 21
36.0222230028
  0
LINE
  5
2B1
100
AcDbEntity
  8
0
100
AcDbLine
 62
7
  6
BYLAYER
 10
12.6549812313
 20
46.3832793929
 11
18.4208402068
 21
46.3832793929
  0
LINE
  5
2B2
100
AcDbEntity
  8
0
100
AcDbLine
 62
7
  6
BYLAYER
 10
13.2458402068
 20
46.4832793929
 11
15.2958402068
 21
46.4832793929
  0
LINE
  5
2B3
100
AcDbEntity
  8
0
100
AcDbLine
 62
7
  6
BYLAYER
 10
15.7458402068
 20
46.4832793929
 11
17.7958402068
 21
46.4832793929
  0
LINE
  5
2B4
100
AcDbEntity
  8
0
100
AcDbLine
 62
7
  6
BYLAYER
 10
13.5208402068
 20
46.8832793929
 11
18.4208402068
 21
46.8832793929
  0
LINE
  5
2B5
100
AcDbEntity
  8
0
100
AcDbLine
 62
7
  6
BYLAYER
 10
20.4208402068
 20
47.2332793929
 11
20.3708402068
 21
47.2332793929
  0
LINE
  5
2B6
100
AcDbEntity
  8
0
100
AcDbLine
 62
7
  6
BYLAYER
 10
10.6208402068
 20
47.2332793929
 11
10.5708402068
 21
47.2332793929
  0
LINE
  5
2B7
100
AcDbEntity
  8
0
100
AcDbLine
 62
7
  6
BYLAYER
 10
38.1208402068
 20
16.6404585935
 11
38.1208402068
 21
24.7332789165
  0
LINE
  5
2B8
100
AcDbEntity
  8
0
100
AcDbLine
 62
7
  6
BYLAYER
 10
38.1208402068
 20
50.8180823146
 11
38.1208402068
 21
55.3332791316
  0
LINE
  5
2B9
100
AcDbEntity
  8
0
100
AcDbLine
 62
7
  6
BYLAYER
 10
17.020840208
 20
48.5332793929
 11
14.0208402046
 21
48.5332793929
  0
LINE
  5
2BA
100
AcDbEntity
  8
0
100
AcDbLine
 62
7
  6
BYLAYER
 10
14.0208402068
 20
48.8332793929
 11
17.0208402067
 21
48.8332793929
  0
LINE
  5
2BB
100
AcDbEntity
  8
0
100
AcDbLine
 62
7
  6
BYLAYER
 10
21.4708402068
 20
48.9332789165
 11
29.5708402068
 21
48.9332789165
  0
LINE
  5
2BC
100
AcDbEntity
  8
0
100
AcDbLine
 62
7
  6
BYLAYER
 10
31.4708402068
 20
48.9332789165
 11
39.5708402068
 21
48.9332789165
  0
LINE
  5
2BD
100
AcDbEntity
  8
0
100
AcDbLine
 62
7
  6
BYLAYER
 10
10.5708402068
 20
49.0332793929
 11
10.6208402068
 21
49.0332793929
  0
LINE
  5
2BE
100
AcDbEntity
  8
0
100
AcDbLine
 62
7
  6
BYLAYER
 10
20.3708402068
 20
49.0332793929
 11
20.4208402068
 21
49.0332793929
  0
LINE
  5
2BF
100
AcDbEntity
  8
0
100
AcDbLine
 62
7
  6
BYLAYER
 10
20.3708402068
 20
49.1332793929
 11
18.4208402068
 21
49.1332793929
  0
LINE
  5
2C0
100
AcDbEntity
  8
0
100
AcDbLine
 62
7
  6
BYLAYER
 10
14.0208402068
 20
49.1332793929
 11
17.0208402068
 21
49.1332793929
  0
LINE
  5
2C1
100
AcDbEntity
  8
0
100
AcDbLine
 62
7
  6
BYLAYER
 10
39.5708402068
 20
48.9332789165
 11
39.5708402068
 21
41.7332789165
  0
LINE
  5
2C2
100
AcDbEntity
  8
0
100
AcDbLine
 62
7
  6
BYLAYER
 10
39.6208402068
 20
39.3332792614
 11
39.6208402068
 21
33.3332789165
  0
LINE
  5
2C3
100
AcDbEntity
  8
0
100
AcDbLine
 62
7
  6
BYLAYER
 10
40.4208402068
 20
24.3332789165
 11
40.4208402068
 21
50.8180823146
  0
LINE
  5
2C4
100
AcDbEntity
  8
0
100
AcDbLine
 62
7
  6
BYLAYER
 10
20.5008402068
 20
49.4332793929
 11
18.4208402068
 21
49.4332793929
  0
LINE
  5
2C5
100
AcDbEntity
  8
0
100
AcDbLine
 62
7
  6
BYLAYER
 10
17.0208402068
 20
50.5332793929
 11
14.0208402068
 21
50.5332793929
  0
LINE
  5
2C6
100
AcDbEntity
  8
0
100
AcDbLine
 62
7
  6
BYLAYER
 10
10.6208402068
 20
50.5644124439
 11
12.945923497
 21
50.5644112418
  0
LINE
  5
2C7
100
AcDbEntity
  8
0
100
AcDbLine
 62
7
  6
BYLAYER
 10
20.5008402068
 20
50.5644126639
 11
18.0957560823
 21
50.5644126645
  0
LINE
  5
2C8
100
AcDbEntity
  8
0
100
AcDbLine
 62
7
  6
BYLAYER
 10
40.4208402068
 20
50.8180823146
 11
38.1208402068
 21
50.8180823146
  0
LINE
  5
2C9
100
AcDbEntity
  8
0
100
AcDbLine
 62
7
  6
BYLAYER
 10
14.0208402069
 20
50.8332793929
 11
17.0208291767
 21
50.8332793929
  0
LINE
  5
2CA
100
AcDbEntity
  8
0
100
AcDbLine
 62
7
  6
BYLAYER
 10
20.3925225193
 20
51.7757174253
 11
20.4187714889
 21
51.769629711
  0
LINE
  5
2CB
100
AcDbEntity
  8
0
100
AcDbLine
 62
7
  6
BYLAYER
 10
17.0208241273
 20
51.3466044744
 11
14.0208410311
 21
51.3466044744
  0
LINE
  5
2CC
100
AcDbEntity
  8
0
100
AcDbLine
 62
7
  6
BYLAYER
 10
10.6208402068
 20
51.5974478011
 11
20.5008402068
 21
51.5974478011
  0
LINE
  5
2CD
100
AcDbEntity
  8
0
100
AcDbLine
 62
7
  6
BYLAYER
 10
20.4187714889
 20
51.769629711
 11
18.5008402068
 21
51.769629711
  0
LINE
  5
2CE
100
AcDbEntity
  8
0
100
AcDbLine
 62
7
  6
BYLAYER
 10
12.6208402068
 20
51.769629711
 11
10.7029089246
 21
51.769629711
  0
LINE
  5
2CF
100
AcDbEntity
  8
0
100
AcDbLine
 62
7
  6
BYLAYER
 10
20.3925125164
 20
51.7757174258
 11
18.5008402068
 21
51.7757174258
  0
LINE
  5
2D0
100
AcDbEntity
  8
0
100
AcDbLine
 62
7
  6
BYLAYER
 10
12.6208402068
 20
51.7757174258
 11
10.7291678972
 21
51.7757174258
  0
LINE
  5
2D1
100
AcDbEntity
  8
0
100
AcDbLine
 62
7
  6
BYLAYER
 10
20.1008402068
 20
52.2311041941
 11
18.5008402068
 21
52.2311041941
  0
LINE
  5
2D2
100
AcDbEntity
  8
0
100
AcDbLine
 62
7
  6
BYLAYER
 10
12.6208402068
 20
52.2311041941
 11
11.0208402068
 21
52.2311041941
  0
LINE
  5
2D3
100
AcDbEntity
  8
0
100
AcDbLine
 62
7
  6
BYLAYER
 10
10.7029089246
 20
52.4047989595
 11
12.6208402068
 21
52.4047989595
  0
LINE
  5
2D4
100
AcDbEntity
  8
0
100
AcDbLine
 62
7
  6
BYLAYER
 10
18.5008402068
 20
52.4047989594
 11
20.4187714889
 21
52.4047989595
  0
LINE
  5
2D5
100
AcDbEntity
  8
0
100
AcDbLine
 62
7
  6
BYLAYER
 10
10.6208402068
 20
52.7418159783
 11
20.5008402068
 21
52.7418159783
  0
LINE
  5
2D6
100
AcDbEntity
  8
0
100
AcDbLine
 62
7
  6
BYLAYER
 10
20.3708402068
 20
52.8332793929
 11
10.6208402068
 21
52.8332793929
  0
LINE
  5
2D7
100
AcDbEntity
  8
0
100
AcDbLine
 62
7
  6
BYLAYER
 10
10.7029089246
 20
51.769629711
 11
10.7291432646
 21
51.7757174233
  0
LINE
  5
2D8
100
AcDbEntity
  8
0
100
AcDbLine
 62
7
  6
BYLAYER
 10
38.1208402068
 20
54.1871535419
 11
28.6470027314
 21
54.1871535419
  0
LINE
  5
2D9
100
AcDbEntity
  8
0
100
AcDbLine
 62
7
  6
BYLAYER
 10
11.7208402068
 20
54.1871535419
 11
22.3946776822
 21
54.1871535419
  0
LINE
  5
2DA
100
AcDbEntity
  8
0
100
AcDbLine
 62
7
  6
BYLAYER
 10
29.5313139943
 20
54.6432789165
 11
29.5145853163
 21
54.6432789165
  0
LINE
  5
2DB
100
AcDbEntity
  8
0
100
AcDbLine
 62
7
  6
BYLAYER
 10
21.5270950973
 20
54.6432789165
 11
21.5103664193
 21
54.6432789165
  0
LINE
  5
2DC
100
AcDbEntity
  8
0
100
AcDbLine
 62
7
  6
BYLAYER
 10
28.8730853208
 20
54.6510691194
 11
29.1900769147
 21
54.47056413
  0
LINE
  5
2DD
100
AcDbEntity
  8
0
100
AcDbLine
 62
7
  6
BYLAYER
 10
11.7208402068
 20
55.3332785242
 11
20.5368672877
 21
55.3332783143
  0
LINE
  5
2DE
100
AcDbEntity
  8
0
100
AcDbLine
 62
7
  6
BYLAYER
 10
30.5048165916
 20
55.3332793173
 11
38.1208402068
 21
55.3332790331
  0
LINE
  5
2DF
100
AcDbEntity
  8
0
100
AcDbLine
 62
7
  6
BYLAYER
 10
38.1208402068
 20
16.6404585935
 11
36.4351995607
 21
15.6672535127
  0
ARC
  5
2E0
100
AcDbEntity
  8
0
100
AcDbCircle
 62
7
  6
BYLAYER
 10
21.0072496184
 20
13.5332789165
 40
2.0
100
AcDbArc
 50
54.426578756
 51
89.9075198295
  0
ARC
  5
2E1
100
AcDbEntity
  8
0
100
AcDbCircle
 62
7
  6
BYLAYER
 10
12.7208402068
 20
17.9106291857
 40
1.0
100
AcDbArc
 50
180.0
 51
240.0000000046
  0
ARC
  5
2E2
100
AcDbEntity
  8
0
100
AcDbCircle
 62
7
  6
BYLAYER
 10
15.1064808529
 20
16.5332789165
 40
1.0
100
AcDbArc
 50
239.9999999959
 51
270.0005932969
  0
ARC
  5
2E3
100
AcDbEntity
  8
0
100
AcDbCircle
 62
7
  6
BYLAYER
 10
20.1009860708
 20
33.4640347619
 40
0.2698541387
100
AcDbArc
 50
357.9651409487
 51
0.008125233
  0
ARC
  5
2E4
100
AcDbEntity
  8
0
100
AcDbCircle
 62
7
  6
BYLAYER
 10
19.3708261794
 20
33.1680323553
 40
0.1863530885
100
AcDbArc
 50
85.4829160949
 51
89.995436483
  0
ARC
  5
2E5
100
AcDbEntity
  8
0
100
AcDbCircle
 62
7
  6
BYLAYER
 10
19.3708218693
 20
33.2014256961
 40
0.1105333555
100
AcDbArc
 50
84.1338477255
 51
89.9904946335
  0
ARC
  5
2E6
100
AcDbEntity
  8
0
100
AcDbCircle
 62
7
  6
BYLAYER
 10
20.2637972887
 20
34.2997853847
 40
0.107044576
100
AcDbArc
 50
352.6194119402
 51
354.1777119612
  0
ARC
  5
2E7
100
AcDbEntity
  8
0
100
AcDbCircle
 62
7
  6
BYLAYER
 10
20.264046522
 20
34.2997563701
 40
0.1067936851
100
AcDbArc
 50
354.1796337061
 51
359.9951132964
  0
ARC
  5
2E8
100
AcDbEntity
  8
0
100
AcDbCircle
 62
7
  6
BYLAYER
 10
14.0208402068
 20
49.8332793929
 40
1.3
100
AcDbArc
 50
145.7774283564
 51
269.999999903
  0
ARC
  5
2E9
100
AcDbEntity
  8
0
100
AcDbCircle
 62
7
  6
BYLAYER
 10
17.0208402068
 20
49.8332793929
 40
1.3
100
AcDbArc
 50
270.0000000537
 51
34.2226441704
  0
ARC
  5
2EA
100
AcDbEntity
  8
0
100
AcDbCircle
 62
7
  6
BYLAYER
 10
13.5208402068
 20
45.8832793929
 40
1.0
100
AcDbArc
 50
90.0
 51
270.0
  0
ARC
  5
2EB
100
AcDbEntity
  8
0
100
AcDbCircle
 62
7
  6
BYLAYER
 10
14.0208402068
 20
49.8332793929
 40
1.0
100
AcDbArc
 50
89.9999999936
 51
270.0
  0
ARC
  5
2EC
100
AcDbEntity
  8
0
100
AcDbCircle
 62
7
  6
BYLAYER
 10
17.0208402068
 20
49.8332793929
 40
1.0
100
AcDbArc
 50
270.0
 51
90.0003808516
  0
ARC
  5
2ED
100
AcDbEntity
  8
0
100
AcDbCircle
 62
7
  6
BYLAYER
 10
14.0208402068
 20
49.8332793929
 40
0.7
100
AcDbArc
 50
90.0
 51
270.0
  0
ARC
  5
2EE
100
AcDbEntity
  8
0
100
AcDbCircle
 62
7
  6
BYLAYER
 10
17.0208402068
 20
49.8332793929
 40
0.7
100
AcDbArc
 50
270.0
 51
90.0
  0
ARC
  5
2EF
100
AcDbEntity
  8
0
100
AcDbCircle
 62
7
  6
BYLAYER
 10
25.5208394607
 20
19.8332812379
 40
5.7500023214
100
AcDbArc
 50
234.3645758142
 51
305.6354078371
  0
ARC
  5
2F0
100
AcDbEntity
  8
0
100
AcDbCircle
 62
7
  6
BYLAYER
 10
30.0344322316
 20
13.5332698098
 40
2.000009109
100
AcDbArc
 50
90.0927758839
 51
125.5733847155
  0
ARC
  5
2F1
100
AcDbEntity
  8
0
100
AcDbCircle
 62
7
  6
BYLAYER
 10
25.5208414666
 20
36.8332793929
 40
20.0009064379
100
AcDbArc
 50
138.8195612773
 51
221.1804387227
  0
ARC
  5
2F2
100
AcDbEntity
  8
0
100
AcDbCircle
 62
7
  6
BYLAYER
 10
25.5208414666
 20
36.8332793929
 40
20.0009064379
100
AcDbArc
 50
68.5820184748
 51
111.4179903357
  0
ARC
  5
2F3
100
AcDbEntity
  8
0
100
AcDbCircle
 62
7
  6
BYLAYER
 10
25.5208414666
 20
36.8332793929
 40
20.0009064379
100
AcDbArc
 50
44.7897439346
 51
50.7918384101
  0
ARC
  5
2F4
100
AcDbEntity
  8
0
100
AcDbCircle
 62
7
  6
BYLAYER
 10
25.5208414666
 20
36.8332793929
 40
20.0009064379
100
AcDbArc
 50
309.2081615899
 51
41.1804497822
  0
ARC
  5
2F5
100
AcDbEntity
  8
0
100
AcDbCircle
 62
7
  6
BYLAYER
 10
25.5208414666
 20
36.8332793929
 40
17.5003267207
100
AcDbArc
 50
78.096764299
 51
101.9158686492
  0
ARC
  5
2F6
100
AcDbEntity
  8
0
100
AcDbCircle
 62
7
  6
BYLAYER
 10
25.5208414666
 20
36.8332793929
 40
17.5003267207
100
AcDbArc
 50
330.4476709465
 51
29.5419200374
  0
ARC
  5
2F7
100
AcDbEntity
  8
0
100
AcDbCircle
 62
7
  6
BYLAYER
 10
25.5208414666
 20
36.8332793929
 40
17.5003267207
100
AcDbArc
 50
150.8089293635
 51
209.5419018818
  0
ARC
  5
2F8
100
AcDbEntity
  8
0
100
AcDbCircle
 62
7
  6
BYLAYER
 10
25.5208414666
 20
36.8332793929
 40
14.9997470034
100
AcDbArc
 50
177.5543851378
 51
182.4456148622
  0
ARC
  5
2F9
100
AcDbEntity
  8
0
100
AcDbCircle
 62
7
  6
BYLAYER
 10
25.5208414666
 20
36.8332793929
 40
14.9997470034
100
AcDbArc
 50
357.5543233605
 51
2.4456766395
  0
ARC
  5
2FA
100
AcDbEntity
  8
0
100
AcDbCircle
 62
7
  6
BYLAYER
 10
25.5208402068
 20
36.8332789165
 40
14.8
100
AcDbArc
 50
250.1652088519
 51
255.1222937884
  0
ARC
  5
2FB
100
AcDbEntity
  8
0
100
AcDbCircle
 62
7
  6
BYLAYER
 10
25.5208402068
 20
36.8332789165
 40
14.8
100
AcDbArc
 50
284.8777062116
 51
294.1941224753
  0
ARC
  5
2FC
100
AcDbEntity
  8
0
100
AcDbCircle
 62
7
  6
BYLAYER
 10
25.5208402067
 20
36.8232789164
 40
14.7999999999
100
AcDbArc
 50
250.1639676013
 51
255.1222937885
  0
ARC
  5
2FD
100
AcDbEntity
  8
0
100
AcDbCircle
 62
7
  6
BYLAYER
 10
25.5208402068
 20
36.8232789164
 40
14.7999999999
100
AcDbArc
 50
284.8777062115
 51
294.7663531225
  0
ARC
  5
2FE
100
AcDbEntity
  8
0
100
AcDbCircle
 62
7
  6
BYLAYER
 10
25.5208414666
 20
36.8332793929
 40
14.4997916724
100
AcDbArc
 50
285.261284795
 51
295.6538821289
  0
ARC
  5
2FF
100
AcDbEntity
  8
0
100
AcDbCircle
 62
7
  6
BYLAYER
 10
25.5208414666
 20
36.8332793929
 40
14.4997916724
100
AcDbArc
 50
249.607491874
 51
254.7279353958
  0
ARC
  5
300
100
AcDbEntity
  8
0
100
AcDbCircle
 62
7
  6
BYLAYER
 10
25.5208414666
 20
36.8332793929
 40
14.2496525062
100
AcDbArc
 50
285.5297694464
 51
296.137285405
  0
ARC
  5
301
100
AcDbEntity
  8
0
100
AcDbCircle
 62
7
  6
BYLAYER
 10
25.5208414666
 20
36.8332793929
 40
14.2496525062
100
AcDbArc
 50
249.2146457286
 51
254.4598307429
  0
ARC
  5
302
100
AcDbEntity
  8
0
100
AcDbCircle
 62
7
  6
BYLAYER
 10
25.5208414666
 20
36.8332793929
 40
13.5748483983
100
AcDbArc
 50
286.3030551385
 51
291.7036586335
  0
ARC
  5
303
100
AcDbEntity
  8
0
100
AcDbCircle
 62
7
  6
BYLAYER
 10
25.5208414666
 20
36.8332793929
 40
13.5748483983
100
AcDbArc
 50
248.2469074263
 51
253.6877067915
  0
ARC
  5
304
100
AcDbEntity
  8
0
100
AcDbCircle
 62
7
  6
BYLAYER
 10
25.5208414669
 20
36.8332793929
 40
10.1500000535
100
AcDbArc
 50
246.7908435338
 51
293.2091451593
  0
ARC
  5
305
100
AcDbEntity
  8
0
100
AcDbCircle
 62
7
  6
BYLAYER
 10
25.5208402068
 20
36.8332789165
 40
10.15
100
AcDbArc
 50
321.6334855309
 51
14.2589929068
  0
ARC
  5
306
100
AcDbEntity
  8
0
100
AcDbCircle
 62
7
  6
BYLAYER
 10
25.5208414666
 20
36.8332793929
 40
9.6559656607
100
AcDbArc
 50
245.2609271106
 51
294.7328555759
  0
ARC
  5
307
100
AcDbEntity
  8
0
100
AcDbCircle
 62
7
  6
BYLAYER
 10
25.5208414666
 20
36.8332793929
 40
9.6559656607
100
AcDbArc
 50
319.1349311238
 51
15.1458383109
  0
ARC
  5
308
100
AcDbEntity
  8
0
100
AcDbCircle
 62
7
  6
BYLAYER
 10
25.5208402073
 20
36.8305241411
 40
9.0027308569
100
AcDbArc
 50
82.445431982
 51
97.5545878658
  0
ARC
  5
309
100
AcDbEntity
  8
0
100
AcDbCircle
 62
7
  6
BYLAYER
 10
25.5208402068
 20
36.8332789165
 40
8.25
100
AcDbArc
 50
231.3507994294
 51
240.9974539733
  0
ARC
  5
30A
100
AcDbEntity
  8
0
100
AcDbCircle
 62
7
  6
BYLAYER
 10
25.5208402068
 20
36.8332789165
 40
8.25
100
AcDbArc
 50
299.0025693557
 51
310.21417092
  0
ARC
  5
30B
100
AcDbEntity
  8
0
100
AcDbCircle
 62
7
  6
BYLAYER
 10
25.5208402068
 20
36.8332789165
 40
8.25
100
AcDbArc
 50
102.3419505494
 51
128.6919564335
  0
ARC
  5
30C
100
AcDbEntity
  8
0
100
AcDbCircle
 62
7
  6
BYLAYER
 10
25.5208402068
 20
36.8332789165
 40
8.25
100
AcDbArc
 50
17.6397089345
 51
77.6580692985
  0
ARC
  5
30D
100
AcDbEntity
  8
0
100
AcDbCircle
 62
7
  6
BYLAYER
 10
35.9351995607
 20
16.5332789164
 40
0.9999999999
100
AcDbArc
 50
269.9988503105
 51
299.9999999982
  0
ARC
  5
30E
100
AcDbEntity
  8
0
100
AcDbCircle
 62
7
  6
BYLAYER
 10
36.6574848655
 20
31.9549773992
 40
17.3285342746
100
AcDbArc
 50
175.3698137673
 51
175.5105412361
  0
ARC
  5
30F
100
AcDbEntity
  8
0
100
AcDbCircle
 62
7
  6
BYLAYER
 10
25.5208402068
 20
61.3432789165
 40
7.8
100
AcDbArc
 50
239.2016182897
 51
269.0869988889
  0
ARC
  5
310
100
AcDbEntity
  8
0
100
AcDbCircle
 62
7
  6
BYLAYER
 10
25.5208402068
 20
61.3432789165
 40
7.8
100
AcDbArc
 50
270.0
 51
279.2308594388
  0
ARC
  5
311
100
AcDbEntity
  8
0
100
AcDbCircle
 62
7
  6
BYLAYER
 10
25.5208402068
 20
61.3432789165
 40
7.8
100
AcDbArc
 50
289.8848526219
 51
300.7983817103
  0
ARC
  5
312
100
AcDbEntity
  8
0
100
AcDbCircle
 62
7
  6
BYLAYER
 10
25.5208402068
 20
61.3332789165
 40
7.8
100
AcDbArc
 50
230.2848734404
 51
309.7151583786
  0
ARC
  5
313
100
AcDbEntity
  8
0
100
AcDbCircle
 62
7
  6
BYLAYER
 10
25.5207647423
 20
44.3333658644
 40
1.8498867926
100
AcDbArc
 50
129.7753952821
 51
162.4032488457
  0
ARC
  5
314
100
AcDbEntity
  8
0
100
AcDbCircle
 62
7
  6
BYLAYER
 10
25.5212580145
 20
44.3335977488
 40
1.8494878932
100
AcDbArc
 50
17.5931540896
 51
50.2282414778
  0
SPLINE
  5
315
100
AcDbEntity
  8
0
100
AcDbSpline
 62
7
  6
BYLAYER
 70
0
 71
3
 72
9
 73
5
 74
0
 42
0.0000001
 43
0.0000001
 44
0.0000000001
 40
0.0
 40
0.0
 40
0.0
 40
0.0
 40
0.5235800703
 40
1.0
 40
1.0
 40
1.0
 40
1.0
 10
19.9031987388
 20
34.0707248978
 30
0.0
 10
19.8955836349
 20
34.066292326
 30
0.0
 10
19.8805138525
 20
34.0587605218
 30
0.0
 10
19.863782015
 20
34.0545995975
 30
0.0
 10
19.8557644482
 20
34.0545996392
 30
0.0
  0
SPLINE
  5
316
100
AcDbEntity
  8
0
100
AcDbSpline
 62
7
  6
BYLAYER
 70
0
 71
3
 72
17
 73
13
 74
0
 42
0.0000001
 43
0.0000001
 44
0.0000000001
 40
0.0
 40
0.0
 40
0.0
 40
0.0
 40
0.1691431333
 40
0.3345651226
 40
0.4142873555
 40
0.4912259718
 40
0.634042599
 40
0.758028177
 40
0.860032704
 40
0.9026158918
 40
0.9398060842
 40
1.0
 40
1.0
 40
1.0
 40
1.0
 10
19.3855027893
 20
33.3538070583
 30
0.0
 10
19.4402519384
 20
33.3545468841
 30
0.0
 10
19.5485701554
 20
33.3485339882
 30
0.0
 10
19.6820501707
 20
33.3360092665
 30
0.0
 10
19.7859853707
 20
33.3276110559
 30
0.0
 10
19.8827684093
 20
33.321928957
 30
0.0
 10
19.9940772913
 20
33.319427053
 30
0.0
 10
20.1134593666
 20
33.3242497145
 30
0.0
 10
20.1998463787
 20
33.3359934351
 30
0.0
 10
20.2568864627
 20
33.350942179
 30
0.0
 10
20.2992886267
 20
33.3667983492
 30
0.0
 10
20.3270708748
 20
33.3832716929
 30
0.0
 10
20.3411431169
 20
33.3967499409
 30
0.0
  0
SPLINE
  5
317
100
AcDbEntity
  8
0
100
AcDbSpline
 62
7
  6
BYLAYER
 70
0
 71
3
 72
9
 73
5
 74
0
 42
0.0000001
 43
0.0000001
 44
0.0000000001
 40
0.0
 40
0.0
 40
0.0
 40
0.0
 40
0.5151540157
 40
1.0
 40
1.0
 40
1.0
 40
1.0
 10
20.3411431169
 20
33.3967499409
 30
0.0
 10
20.3493401764
 20
33.4046009998
 30
0.0
 10
20.363286228
 20
33.4223297023
 30
0.0
 10
20.369393922
 20
33.4441374305
 30
0.0
 10
20.3704057465
 20
33.4547719986
 30
0.0
  0
SPLINE
  5
318
100
AcDbEntity
  8
0
100
AcDbSpline
 62
7
  6
BYLAYER
 70
0
 71
3
 72
21
 73
17
 74
0
 42
0.0000001
 43
0.0000001
 44
0.0000000001
 40
0.0
 40
0.0
 40
0.0
 40
0.0
 40
0.0398176765
 40
0.0783892274
 40
0.1171375419
 40
0.1576200815
 40
0.2013239735
 40
0.2495256536
 40
0.3621666944
 40
0.4274161421
 40
0.4982462991
 40
0.5741123563
 40
0.6542115857
 40
0.8237566508
 40
0.9114763031
 40
1.0
 40
1.0
 40
1.0
 40
1.0
 10
20.3706700419
 20
33.4544529093
 30
0.0
 10
20.3701406895
 20
33.4396121259
 30
0.0
 10
20.3666120327
 20
33.4103896942
 30
0.0
 10
20.3527074478
 20
33.3686395546
 30
0.0
 10
20.3298923894
 20
33.3306700018
 30
0.0
 10
20.2980948084
 20
33.2971702435
 30
0.0
 10
20.2573997877
 20
33.2686925111
 30
0.0
 10
20.1879390119
 20
33.2363970031
 30
0.0
 10
20.1043887151
 20
33.218833895
 30
0.0
 10
20.0118227453
 20
33.2127619326
 30
0.0
 10
19.932684528
 20
33.2140089165
 30
0.0
 10
19.848357092
 20
33.2211713667
 30
0.0
 10
19.7281457032
 20
33.2387371999
 30
0.0
 10
19.6055347184
 20
33.2674050765
 30
0.0
 10
19.4791522558
 20
33.2930537741
 30
0.0
 10
19.4145499365
 20
33.3051959277
 30
0.0
 10
19.3821189191
 20
33.3113802362
 30
0.0
  0
SPLINE
  5
319
100
AcDbEntity
  8
0
100
AcDbSpline
 62
7
  6
BYLAYER
 70
0
 71
3
 72
9
 73
5
 74
0
 42
0.0000001
 43
0.0000001
 44
0.0000000001
 40
0.0
 40
0.0
 40
0.0
 40
0.0
 40
0.2599991498
 40
1.0
 40
1.0
 40
1.0
 40
1.0
 10
19.8557643364
 20
34.0121730034
 30
0.0
 10
19.8629870333
 20
34.0097369024
 30
0.0
 10
19.8914971279
 20
34.0024916133
 30
0.0
 10
19.9213460164
 20
34.0022840857
 30
0.0
 10
19.9429504933
 20
34.0042616651
 30
0.0
  0
SPLINE
  5
31A
100
AcDbEntity
  8
0
100
AcDbSpline
 62
7
  6
BYLAYER
 70
0
 71
3
 72
15
 73
11
 74
0
 42
0.0000001
 43
0.0000001
 44
0.0000000001
 40
0.0
 40
0.0
 40
0.0
 40
0.0
 40
0.2973576585
 40
0.4376551361
 40
0.5687203271
 40
0.6893741325
 40
0.8000757898
 40
0.8525987905
 40
0.9036324812
 40
1.0
 40
1.0
 40
1.0
 40
1.0
 10
19.942950372
 20
34.0042623801
 30
0.0
 10
19.9972973615
 20
34.0091365629
 30
0.0
 10
20.0767656382
 20
34.0247883415
 30
0.0
 10
20.175527261
 20
34.0587974468
 30
0.0
 10
20.2405532671
 20
34.0901842104
 30
0.0
 10
20.2949641259
 20
34.1290626619
 30
0.0
 10
20.3303015483
 20
34.1681661798
 30
0.0
 10
20.3498339355
 20
34.2024485918
 30
0.0
 10
20.3633602319
 20
34.2366417471
 30
0.0
 10
20.3686146432
 20
34.2634944692
 30
0.0
 10
20.3700668673
 20
34.2811181757
 30
0.0
  0
SPLINE
  5
31B
100
AcDbEntity
  8
0
100
AcDbSpline
 62
7
  6
BYLAYER
 70
0
 71
3
 72
16
 73
12
 74
0
 42
0.0000001
 43
0.0000001
 44
0.0000000001
 40
0.0
 40
0.0
 40
0.0
 40
0.0
 40
0.1487574753
 40
0.2965532156
 40
0.4408082487
 40
0.5778588092
 40
0.7037847412
 40
0.8150202871
 40
0.9116869493
 40
0.9564241441
 40
1.0
 40
1.0
 40
1.0
 40
1.0
 10
19.9031999867
 20
34.070722754
 30
0.0
 10
19.9299167884
 20
34.0729820417
 30
0.0
 10
19.9829385267
 20
34.0804917624
 30
0.0
 10
20.0605617891
 20
34.0975635796
 30
0.0
 10
20.1353976022
 20
34.1172028465
 30
0.0
 10
20.2052371876
 20
34.1399490097
 30
0.0
 10
20.2674385153
 20
34.1664409171
 30
0.0
 10
20.3187652602
 20
34.1984789021
 30
0.0
 10
20.3505170224
 20
34.2324254481
 30
0.0
 10
20.3651365264
 20
34.2626400486
 30
0.0
 10
20.3689460766
 20
34.2782454033
 30
0.0
 10
20.3699549728
 20
34.2860344804
 30
0.0
  0
SPLINE
  5
31C
100
AcDbEntity
  8
0
100
AcDbSpline
 62
7
  6
BYLAYER
 70
0
 71
3
 72
19
 73
15
 74
0
 42
0.0000001
 43
0.0000001
 44
0.0000000001
 40
0.0
 40
0.0
 40
0.0
 40
0.0
 40
0.1249403737
 40
0.1875376016
 40
0.2503093137
 40
0.3752824074
 40
0.4376289393
 40
0.5002266015
 40
0.5629030589
 40
0.6254068952
 40
0.6878091345
 40
0.7501936983
 40
0.8750719541
 40
1.0
 40
1.0
 40
1.0
 40
1.0
 10
19.9031999867
 20
34.070722754
 30
0.0
 10
19.9399555649
 20
34.1149244506
 30
0.0
 10
19.9920906833
 20
34.1839730474
 30
0.0
 10
20.0523932266
 20
34.2822090568
 30
0.0
 10
20.1054692947
 20
34.3844687903
 30
0.0
 10
20.1453394611
 20
34.4935597146
 30
0.0
 10
20.1638166523
 20
34.6072984748
 30
0.0
 10
20.1699347793
 20
34.6934705478
 30
0.0
 10
20.1719286426
 20
34.7798582689
 30
0.0
 10
20.1722697516
 20
34.8661698905
 30
0.0
 10
20.1715374497
 20
34.9523429836
 30
0.0
 10
20.1703963627
 20
35.0672124414
 30
0.0
 10
20.1704367865
 20
35.2108590277
 30
0.0
 10
20.1708231289
 20
35.3257978342
 30
0.0
 10
20.1708402218
 20
35.3832792233
 30
0.0
  0
SPLINE
  5
31D
100
AcDbEntity
  8
0
100
AcDbSpline
 62
7
  6
BYLAYER
 70
0
 71
3
 72
13
 73
9
 74
0
 42
0.0000001
 43
0.0000001
 44
0.0000000001
 40
0.0
 40
0.0
 40
0.0
 40
0.0
 40
0.2754857238
 40
0.4009180775
 40
0.5206141897
 40
0.6377115709
 40
0.7553012478
 40
1.0
 40
1.0
 40
1.0
 40
1.0
 10
10.7707223874
 20
22.1147362775
 30
0.0
 10
10.74753177
 20
22.1235597675
 30
0.0
 10
10.7146966046
 20
22.1398032499
 30
0.0
 10
10.6782759695
 20
22.1696195603
 30
0.0
 10
10.6567614934
 20
22.1943671174
 30
0.0
 10
10.6402735184
 20
22.2218975517
 30
0.0
 10
10.624823641
 20
22.2624047716
 30
0.0
 10
10.6208402068
 20
22.2953932366
 30
0.0
 10
10.6208402068
 20
22.317432784
 30
0.0
  0
SPLINE
  5
31E
100
AcDbEntity
  8
0
100
AcDbSpline
 62
7
  6
BYLAYER
 70
0
 71
3
 72
13
 73
9
 74
0
 42
0.0000001
 43
0.0000001
 44
0.0000000001
 40
0.0
 40
0.0
 40
0.0
 40
0.0
 40
0.24469988
 40
0.3622909301
 40
0.4793880287
 40
0.5990821756
 40
0.7245126821
 40
1.0
 40
1.0
 40
1.0
 40
1.0
 10
20.5008402068
 20
22.317432784
 30
0.0
 10
20.5008402068
 20
22.2953931429
 30
0.0
 10
20.4968554984
 20
22.2624045848
 30
0.0
 10
20.4814055067
 20
22.2218973236
 30
0.0
 10
20.4649183827
 20
22.1943665163
 30
0.0
 10
20.4434048101
 20
22.169618651
 30
0.0
 10
20.4069844514
 20
22.1398022085
 30
0.0
 10
20.3741487694
 20
22.1235598153
 30
0.0
 10
20.3509580262
 20
22.1147362775
 30
0.0
  0
SPLINE
  5
31F
100
AcDbEntity
  8
0
100
AcDbSpline
 62
7
  6
BYLAYER
 70
0
 71
3
 72
11
 73
7
 74
0
 42
0.0000001
 43
0.0000001
 44
0.0000000001
 40
0.0
 40
0.0
 40
0.0
 40
0.0
 40
0.313114341
 40
0.5779292229
 40
0.8017191745
 40
1.0
 40
1.0
 40
1.0
 40
1.0
 10
20.4187714889
 20
51.769629711
 30
0.0
 10
20.4310108886
 20
51.7627337224
 30
0.0
 10
20.4528903386
 20
51.7486144276
 30
0.0
 10
20.4794648717
 20
51.724016348
 30
0.0
 10
20.4965633929
 20
51.6978650423
 30
0.0
 10
20.5008402068
 20
51.6788136647
 30
0.0
 10
20.5008402068
 20
51.6699174625
 30
0.0
  0
SPLINE
  5
320
100
AcDbEntity
  8
0
100
AcDbSpline
 62
7
  6
BYLAYER
 70
0
 71
3
 72
11
 73
7
 74
0
 42
0.0000001
 43
0.0000001
 44
0.0000000001
 40
0.0
 40
0.0
 40
0.0
 40
0.0
 40
0.1982808648
 40
0.4220708809
 40
0.6868857057
 40
1.0
 40
1.0
 40
1.0
 40
1.0
 10
10.6208402068
 20
51.6699174625
 30
0.0
 10
10.6208402068
 20
51.6788136664
 30
0.0
 10
10.6251170244
 20
51.6978650482
 30
0.0
 10
10.6422155461
 20
51.7240163559
 30
0.0
 10
10.6687900807
 20
51.7486144316
 30
0.0
 10
10.6906695268
 20
51.7627337234
 30
0.0
 10
10.7029089246
 20
51.769629711
 30
0.0
  0
SPLINE
  5
321
100
AcDbEntity
  8
0
100
AcDbSpline
 62
7
  6
BYLAYER
 70
0
 71
3
 72
13
 73
9
 74
0
 42
0.0000001
 43
0.0000001
 44
0.0000000001
 40
0.0
 40
0.0
 40
0.0
 40
0.0
 40
0.3329915423
 40
0.6051530838
 40
0.7194623737
 40
0.8212299715
 40
0.9133591991
 40
1.0
 40
1.0
 40
1.0
 40
1.0
 10
20.3891255334
 20
21.3778440202
 30
0.0
 10
20.4054323315
 20
21.371795756
 30
0.0
 10
20.4344953905
 20
21.359154722
 30
0.0
 10
20.4662946522
 20
21.3385017642
 30
0.0
 10
20.4844211472
 20
21.3204289183
 30
0.0
 10
20.4937596906
 20
21.307192664
 30
0.0
 10
20.4995102172
 20
21.2935745668
 30
0.0
 10
20.5008402068
 20
21.284196569
 30
0.0
 10
20.5008402068
 20
21.2796712725
 30
0.0
  0
SPLINE
  5
322
100
AcDbEntity
  8
0
100
AcDbSpline
 62
7
  6
BYLAYER
 70
0
 71
3
 72
13
 73
9
 74
0
 42
0.0000001
 43
0.0000001
 44
0.0000000001
 40
0.0
 40
0.0
 40
0.0
 40
0.0
 40
0.0866408021
 40
0.1787700337
 40
0.2805376343
 40
0.3948469216
 40
0.6670084533
 40
1.0
 40
1.0
 40
1.0
 40
1.0
 10
10.6208402068
 20
21.2796712725
 30
0.0
 10
10.6208402068
 20
21.284196569
 30
0.0
 10
10.6221701971
 20
21.293574567
 30
0.0
 10
10.6279207249
 20
21.3071926641
 30
0.0
 10
10.6372592682
 20
21.3204289186
 30
0.0
 10
10.6553857617
 20
21.3385017652
 30
0.0
 10
10.6871850228
 20
21.3591547233
 30
0.0
 10
10.7162480819
 20
21.371795756
 30
0.0
 10
10.7325548802
 20
21.3778440202
 30
0.0
  0
SPLINE
  5
323
100
AcDbEntity
  8
0
100
AcDbSpline
 62
7
  6
BYLAYER
 70
0
 71
3
 72
13
 73
9
 74
0
 42
0.0000001
 43
0.0000001
 44
0.0000000001
 40
0.0
 40
0.0
 40
0.0
 40
0.0
 40
0.2594005629
 40
0.5216986092
 40
0.6510305662
 40
0.7766610698
 40
0.895312378
 40
1.0
 40
1.0
 40
1.0
 40
1.0
 10
20.1008402068
 20
21.5228038588
 30
0.0
 10
20.1266712849
 20
21.5122147297
 30
0.0
 10
20.1778218676
 20
21.4889453272
 30
0.0
 10
20.239951621
 20
21.4565159757
 30
0.0
 10
20.2886772023
 20
21.4295960613
 30
0.0
 10
20.3237784644
 20
21.4099735713
 30
0.0
 10
20.3567780744
 20
21.3920693157
 30
0.0
 10
20.3785620207
 20
21.3817620742
 30
0.0
 10
20.3891255334
 20
21.3778440202
 30
0.0
  0
SPLINE
  5
324
100
AcDbEntity
  8
0
100
AcDbSpline
 62
7
  6
BYLAYER
 70
0
 71
3
 72
15
 73
11
 74
0
 42
0.0000001
 43
0.0000001
 44
0.0000000001
 40
0.0
 40
0.0
 40
0.0
 40
0.0
 40
0.1282731152
 40
0.253382225
 40
0.3755975477
 40
0.4969776186
 40
0.619436218
 40
0.7441057696
 40
0.8712064901
 40
1.0
 40
1.0
 40
1.0
 40
1.0
 10
14.0208410311
 20
51.3466044744
 30
0.0
 10
13.9609924441
 20
51.3465924056
 30
0.0
 10
13.8424728471
 20
51.3352421162
 30
0.0
 10
13.6731961993
 20
51.286684363
 30
0.0
 10
13.5173934972
 20
51.2120525663
 30
0.0
 10
13.3756394422
 20
51.1157777989
 30
0.0
 10
13.247270848
 20
51.0007012837
 30
0.0
 10
13.1320713701
 20
50.8689631577
 30
0.0
 10
13.030611766
 20
50.7228591574
 30
0.0
 10
12.9725627412
 20
50.6182765259
 30
0.0
 10
12.945923307
 20
50.5644126637
 30
0.0
  0
SPLINE
  5
325
100
AcDbEntity
  8
0
100
AcDbSpline
 62
7
  6
BYLAYER
 70
0
 71
3
 72
14
 73
10
 74
0
 42
0.0000001
 43
0.0000001
 44
0.0000000001
 40
0.0
 40
0.0
 40
0.0
 40
0.0
 40
0.2556478871
 40
0.3803589733
 40
0.50285746
 40
0.6242781224
 40
0.7465342739
 40
0.8716842928
 40
1.0
 40
1.0
 40
1.0
 40
1.0
 10
18.0957560822
 20
50.5644126637
 30
0.0
 10
18.0428910517
 20
50.6712932638
 30
0.0
 10
17.9490647686
 20
50.8237998221
 30
0.0
 10
17.7944135568
 20
51.0006871766
 30
0.0
 10
17.6660348486
 20
51.1157906688
 30
0.0
 10
17.5242783273
 20
51.2120565146
 30
0.0
 10
17.3684705607
 20
51.2866830082
 30
0.0
 10
17.199196815
 20
51.3352596343
 30
0.0
 10
17.080673489
 20
51.346595244
 30
0.0
 10
17.0208241273
 20
51.3466044744
 30
0.0
  0
SPLINE
  5
326
100
AcDbEntity
  8
0
100
AcDbSpline
 62
7
  6
BYLAYER
 70
0
 71
3
 72
15
 73
11
 74
0
 42
0.0000001
 43
0.0000001
 44
0.0000000001
 40
0.0
 40
0.0
 40
0.0
 40
0.0
 40
0.0447115178
 40
0.0977491658
 40
0.2184891319
 40
0.3486688148
 40
0.4813698454
 40
0.6139111874
 40
0.7450350078
 40
1.0
 40
1.0
 40
1.0
 40
1.0
 10
20.4187714889
 20
52.4047989595
 30
0.0
 10
20.4140414342
 20
52.4021339265
 30
0.0
 10
20.4040925815
 20
52.3956271235
 30
0.0
 10
20.3825743318
 20
52.380116265
 30
0.0
 10
20.3528712232
 20
52.3582027728
 30
0.0
 10
20.3145891433
 20
52.3316422441
 30
0.0
 10
20.2738374567
 20
52.306208683
 30
0.0
 10
20.2316250638
 20
52.2830262852
 30
0.0
 10
20.1747524257
 20
52.2559402006
 30
0.0
 10
20.1305951035
 20
52.2396562343
 30
0.0
 10
20.1008402068
 20
52.2311041941
 30
0.0
  0
SPLINE
  5
327
100
AcDbEntity
  8
0
100
AcDbSpline
 62
7
  6
BYLAYER
 70
0
 71
3
 72
11
 73
7
 74
0
 42
0.0000001
 43
0.0000001
 44
0.0000000001
 40
0.0
 40
0.0
 40
0.0
 40
0.0
 40
0.313114341
 40
0.5779292229
 40
0.8017191745
 40
1.0
 40
1.0
 40
1.0
 40
1.0
 10
10.7029089246
 20
52.4047989595
 30
0.0
 10
10.690669525
 20
52.411694948
 30
0.0
 10
10.668790075
 20
52.4258142428
 30
0.0
 10
10.6422155418
 20
52.4504123224
 30
0.0
 10
10.6251170207
 20
52.4765636281
 30
0.0
 10
10.6208402068
 20
52.4956150058
 30
0.0
 10
10.6208402068
 20
52.5045112079
 30
0.0
  0
SPLINE
  5
328
100
AcDbEntity
  8
0
100
AcDbSpline
 62
7
  6
BYLAYER
 70
0
 71
3
 72
13
 73
9
 74
0
 42
0.0000001
 43
0.0000001
 44
0.0000000001
 40
0.0
 40
0.0
 40
0.0
 40
0.0
 40
0.1046877185
 40
0.2233306164
 40
0.3489600724
 40
0.4782929504
 40
0.7405953786
 40
1.0
 40
1.0
 40
1.0
 40
1.0
 10
10.7325548802
 20
21.3778440202
 30
0.0
 10
10.7431184028
 20
21.3817620778
 30
0.0
 10
10.7649014602
 20
21.3920690474
 30
0.0
 10
10.7979010524
 20
21.4099712312
 30
0.0
 10
10.8330003035
 20
21.4295954576
 30
0.0
 10
10.8817265971
 20
21.4565150492
 30
0.0
 10
10.9438577989
 20
21.4889437311
 30
0.0
 10
10.9950087241
 20
21.5122145638
 30
0.0
 10
11.0208402068
 20
21.5228038588
 30
0.0
  0
SPLINE
  5
329
100
AcDbEntity
  8
0
100
AcDbSpline
 62
7
  6
BYLAYER
 70
0
 71
3
 72
11
 73
7
 74
0
 42
0.0000001
 43
0.0000001
 44
0.0000000001
 40
0.0
 40
0.0
 40
0.0
 40
0.0
 40
0.1982808648
 40
0.422070881
 40
0.6868857057
 40
1.0
 40
1.0
 40
1.0
 40
1.0
 10
20.5008402068
 20
52.5045112079
 30
0.0
 10
20.5008402068
 20
52.495615004
 30
0.0
 10
20.4965633892
 20
52.4765636222
 30
0.0
 10
20.4794648675
 20
52.4504123145
 30
0.0
 10
20.4528903329
 20
52.4258142388
 30
0.0
 10
20.4310108867
 20
52.411694947
 30
0.0
 10
20.4187714889
 20
52.4047989595
 30
0.0
  0
SPLINE
  5
32A
100
AcDbEntity
  8
0
100
AcDbSpline
 62
7
  6
BYLAYER
 70
0
 71
3
 72
15
 73
11
 74
0
 42
0.0000001
 43
0.0000001
 44
0.0000000001
 40
0.0
 40
0.0
 40
0.0
 40
0.0
 40
0.2549584615
 40
0.3860741546
 40
0.5186103806
 40
0.6513150349
 40
0.7814878196
 40
0.9022339835
 40
0.9552836206
 40
1.0
 40
1.0
 40
1.0
 40
1.0
 10
11.0208402068
 20
52.2311041941
 30
0.0
 10
10.9910860397
 20
52.2396560246
 30
0.0
 10
10.9469279153
 20
52.255933067
 30
0.0
 10
10.8900604695
 20
52.2830256777
 30
0.0
 10
10.8478549421
 20
52.3062173213
 30
0.0
 10
10.8070918192
 20
52.3316303416
 30
0.0
 10
10.7688091583
 20
52.3581916891
 30
0.0
 10
10.7391170958
 20
52.3801224658
 30
0.0
 10
10.7175922325
 20
52.3956292577
 30
0.0
 10
10.7076394989
 20
52.4021336338
 30
0.0
 10
10.7029089246
 20
52.4047989595
 30
0.0
  0
ENDSEC
  0
SECTION
  2
OBJECTS
  0
DICTIONARY
  5
C
100
AcDbDictionary
280
0
281
1
  3
ACAD_GROUP
350
D
  3
ACAD_MLINESTYLE
350
17
  3
ACAD_LAYOUT
350
1A
  3
ACAD_PLOTSETTINGS
350
19
  3
ACAD_PLOTSTYLENAME
350
E
  0
DICTIONARY
  5
D
102
{ACAD_REACTORS
330
C
102
}
100
AcDbDictionary
280
0
281
1
  0
ACDBDICTIONARYWDFLT
  5
E
102
{ACAD_REACTORS
330
C
102
}
100
AcDbDictionary
281
1
  3
Normal
350
F
100
AcDbDictionaryWithDefault
340
F
  0
DICTIONARY
  5
17
102
{ACAD_REACTORS
330
C
102
}
100
AcDbDictionary
280
0
281
1
  3
Standard
350
18
  0
DICTIONARY
  5
19
102
{ACAD_REACTORS
330
C
102
}
100
AcDbDictionary
281
1
  0
DICTIONARY
  5
1A
102
{ACAD_REACTORS
330
C
102
}
100
AcDbDictionary
281
1
  3
Model
350
32B
  3
Layout1
350
32C
  0
ACDBPLACEHOLDER
  5
F
102
{ACAD_REACTORS
330
E
102
}
  0
MLINESTYLE
  5
18
102
{ACAD_REACTORS
330
17
102
}
100
AcDbMlineStyle
  2
STANDARD
 70
0
  3

 62
256
 51
90.0
 52
90.0
 71
2
 49
0.5
 62
256
  6
BYLAYER
 49
-0.5
 62
256
  6
BYLAYER
  0
LAYOUT
  5
32B
102
{ACAD_REACTORS
330
1A
102
}
100
AcDbPlotSettings
  1

  2
none_device
  4

  6

 40
0.0
 41
0.0
 42
0.0
 43
0.0
 44
210.0
 45
297.0
 46
0.0
 47
0.0
 48
0.0
 49
0.0
140
0.0
141
0.0
142
1.0
143
1.0
 70
1024
 72
1
 73
0
 74
0
  7

 75
0
147
1.0
148
0.0
149
0.0
100
AcDbLayout
  1
Model
 70
0
 71
0
 10
0.0
 20
0.0
 11
210.0
 21
297.0
 12
0.0
 22
0.0
 32
0.0
 14
0.0
 24
0.0
 34
0.0
 15
0.0
 25
0.0
 35
0.0
146
0.0
 13
0.0
 23
0.0
 33
0.0
 16
1.0
 26
0.0
 36
0.0
 17
0.0
 27
1.0
 37
0.0
 76
0
330
210
345
0
346
0
  0
LAYOUT
  5
32C
102
{ACAD_REACTORS
330
1A
102
}
100
AcDbPlotSettings
  1

  2
none_device
  4

  6

 40
0.0
 41
0.0
 42
0.0
 43
0.0
 44
210.0
 45
297.0
 46
0.0
 47
0.0
 48
0.0
 49
0.0
140
0.0
141
0.0
142
1.0
143
1.0
 70
0
 72
1
 73
0
 74
0
  7

 75
0
147
1.0
148
0.0
149
0.0
100
AcDbLayout
  1
Layout1
 70
0
 71
1
 10
0.0
 20
0.0
 11
210.0
 21
297.0
 12
0.0
 22
0.0
 32
0.0
 14
0.0
 24
0.0
 34
0.0
 15
0.0
 25
0.0
 35
0.0
146
0.0
 13
0.0
 23
0.0
 33
0.0
 16
1.0
 26
0.0
 36
0.0
 17
0.0
 27
1.0
 37
0.0
 76
0
330
211
345
0
346
0
  0
ENDSEC
  0
EOF
