999
DXF file: C:\Users\sesa63760\Dev\_Creo\CAD\MCADID0005798_3D-CAD\mcadid0005798_3d-simplified_2.dxf
999
Pro/ENGINEER 2019471 by Parametric Technology Corporation
  0
SECTION
  2
HEADER
  9
$ACADVER
  1
AC1024
  9
$DWGCODEPAGE
  3
ANSI_1252
  9
$EXTMAX
 10
37.5049404723
 20
53.0427015251
 30
0.0
  9
$EXTMIN
 10
0.0
 20
0.0
 30
0.0
  9
$LIMMIN
 10
0.0
 20
0.0
  9
$LIMMAX
 10
37.5049404723
 20
53.0427015251
  9
$VIEWCTR
 10
18.7524702361
 20
26.5213507625
  9
$VIEWSIZE
 40
53.0427015251
  9
$CLAYER
  8
0
  9
$LTSCALE
 40
3.4575983216
  9
$CELTYPE
  6
BYLAYER
  9
$DIMSCALE
 40
1.0
  9
$DIMASZ
 40
0.4464873866
  9
$DIMEXO
 40
1.0
  9
$DIMDLI
 40
2.3888861131
  9
$DIMEXE
 40
1.0
  9
$DIMCEN
 40
0.5657888163
  9
$DIMLFAC
 40
1.0
  9
$DIMBLK
  1
_FILLED
  9
$DIMALT
 70
0
  9
$DIMALTF
 40
0.0393700787
  9
$DIMTXT
 40
0.6250823412
  9
$DIMTOL
 70
1
  9
$DIMLIM
 70
0
  9
$DIMTFAC
 40
1.0
  9
$DIMTP
 40
0.01
  9
$DIMTM
 40
0.01
  9
$DIMGAP
 40
0.625
  9
$DIMDSEP
 70
46
  9
$AUNITS
 70
0
  9
$PDMODE
 70
3
  9
$PDSIZE
 40
0.3125
  9
$HANDSEED
  5
25D
  9
$TILEMODE
 70
1
  9
$MEASUREMENT
 70
1
  9
$INSUNITS
 70
4
  0
ENDSEC
  0
SECTION
  2
CLASSES
  0
CLASS
  1
ACDBDICTIONARYWDFLT
  2
AcDbDictionaryWithDefault
  3
AutoCAD 2000
 90
0
 91
1
280
0
281
0
  0
CLASS
  1
ACDBPLACEHOLDER
  2
AcDbPlaceHolder
  3
AutoCAD 2000
 90
0
 91
1
280
0
281
0
  0
CLASS
  1
LAYOUT
  2
AcDbLayout
  3
AutoCAD 2000
 90
0
 91
0
280
0
281
0
  0
ENDSEC
  0
SECTION
  2
TABLES
  0
TABLE
  2
VPORT
  5
8
100
AcDbSymbolTable
 70
2
  0
VPORT
  5
1F4
100
AcDbSymbolTableRecord
100
AcDbViewportTableRecord
  2
*ACTIVE
 70
0
 10
0.0
 20
0.0
 11
1.0
 21
1.0
 12
18.7524702361
 22
26.5213507625
 13
0.0
 23
0.0
 14
1.0
 24
1.0
 15
0.0
 25
0.0
 16
0.0
 26
0.0
 36
1.0
 17
0.0
 27
0.0
 37
0.0
 40
53.0427015251
 41
0.7070707071
 42
50.0
 43
0.0
 44
0.0
 50
0.0
 51
0.0
 71
0
 72
100
 73
1
 74
1
 75
0
 76
0
 77
0
 78
0
  0
ENDTAB
  0
TABLE
  2
LTYPE
  5
5
100
AcDbSymbolTable
 70
6
  0
LTYPE
  5
14
100
AcDbSymbolTableRecord
100
AcDbLinetypeTableRecord
  2
BYBLOCK
 70
0
  3

 72
65
 73
0
 40
0.0
  0
LTYPE
  5
15
100
AcDbSymbolTableRecord
100
AcDbLinetypeTableRecord
  2
BYLAYER
 70
0
  3

 72
65
 73
0
 40
0.0
  0
LTYPE
  5
16
100
AcDbSymbolTableRecord
100
AcDbLinetypeTableRecord
  2
CONTINUOUS
 70
64
  3
Solid line
 72
65
 73
0
 40
0.0
  0
LTYPE
  5
1F5
100
AcDbSymbolTableRecord
100
AcDbLinetypeTableRecord
  2
CENTER
 70
64
  3
____ _ ____ _ ____ _ ____ _ ____ _ ____ _ ____
 72
65
 73
4
 40
0.6
 49
0.375
 74
0
 49
-0.075
 74
0
 49
0.075
 74
0
 49
-0.075
 74
0
  0
LTYPE
  5
1F6
100
AcDbSymbolTableRecord
100
AcDbLinetypeTableRecord
  2
HIDDEN
 70
64
  3
- - - - - - - - - - - - - - - - - - - -
 72
65
 73
2
 40
0.2
 49
0.1
 74
0
 49
-0.1
 74
0
  0
LTYPE
  5
1F7
100
AcDbSymbolTableRecord
100
AcDbLinetypeTableRecord
  2
PHANTOM
 70
64
  3
_____ _ _ _____ _ _ _____ _ _ _____
 72
65
 73
6
 40
0.8
 49
0.45
 74
0
 49
-0.05
 74
0
 49
0.1
 74
0
 49
-0.05
 74
0
 49
0.1
 74
0
 49
-0.05
 74
0
  0
LTYPE
  5
1F8
100
AcDbSymbolTableRecord
100
AcDbLinetypeTableRecord
  2
DOT
 70
64
  3
. . . . . . . . . . . . . . . . . . . .
 72
65
 73
2
 40
0.2
 49
0.1
 74
0
 49
-0.1
 74
0
  0
LTYPE
  5
1F9
100
AcDbSymbolTableRecord
100
AcDbLinetypeTableRecord
  2
DASHED
 70
64
  3
- - - - - - - - - - - - - - - - - - - -
 72
65
 73
2
 40
0.2
 49
0.1
 74
0
 49
-0.1
 74
0
  0
ENDTAB
  0
TABLE
  2
LAYER
  5
2
100
AcDbSymbolTable
 70
36
  0
LAYER
  5
10
100
AcDbSymbolTableRecord
100
AcDbLayerTableRecord
  2
0
 70
0
 62
7
  6
CONTINUOUS
370
-3
390
F
  0
LAYER
  5
1FA
100
AcDbSymbolTableRecord
100
AcDbLayerTableRecord
  2
DEFAULT_1
 70
0
 62
7
  6
CENTER
370
-3
390
F
  0
LAYER
  5
1FB
100
AcDbSymbolTableRecord
100
AcDbLayerTableRecord
  2
DEFAULT_2
 70
0
 62
7
  6
HIDDEN
370
-3
390
F
  0
LAYER
  5
1FC
100
AcDbSymbolTableRecord
100
AcDbLayerTableRecord
  2
DEFAULT_3
 70
0
 62
7
  6
PHANTOM
370
-3
390
F
  0
LAYER
  5
1FD
100
AcDbSymbolTableRecord
100
AcDbLayerTableRecord
  2
00_COMPONENTS
 70
0
 62
7
  6
CONTINUOUS
370
-3
390
F
  0
LAYER
  5
1FE
100
AcDbSymbolTableRecord
100
AcDbLayerTableRecord
  2
01_1_DEFAULT_DATUMS
 70
0
 62
7
  6
CONTINUOUS
370
-3
390
F
  0
LAYER
  5
1FF
100
AcDbSymbolTableRecord
100
AcDbLayerTableRecord
  2
01_PLANES
 70
0
 62
7
  6
CONTINUOUS
370
-3
390
F
  0
LAYER
  5
200
100
AcDbSymbolTableRecord
100
AcDbLayerTableRecord
  2
02_COORD_SYS
 70
0
 62
7
  6
CONTINUOUS
370
-3
390
F
  0
LAYER
  5
201
100
AcDbSymbolTableRecord
100
AcDbLayerTableRecord
  2
03_AXES
 70
0
 62
7
  6
CONTINUOUS
370
-3
390
F
  0
LAYER
  5
202
100
AcDbSymbolTableRecord
100
AcDbLayerTableRecord
  2
04_POINTS
 70
0
 62
7
  6
CONTINUOUS
370
-3
390
F
  0
LAYER
  5
203
100
AcDbSymbolTableRecord
100
AcDbLayerTableRecord
  2
05_CURVES
 70
0
 62
7
  6
CONTINUOUS
370
-3
390
F
  0
LAYER
  5
204
100
AcDbSymbolTableRecord
100
AcDbLayerTableRecord
  2
06_SURFS
 70
0
 62
7
  6
CONTINUOUS
370
-3
390
F
  0
LAYER
  5
205
100
AcDbSymbolTableRecord
100
AcDbLayerTableRecord
  2
07_COSMETICS
 70
0
 62
7
  6
CONTINUOUS
370
-3
390
F
  0
LAYER
  5
206
100
AcDbSymbolTableRecord
100
AcDbLayerTableRecord
  2
10_NOTES
 70
0
 62
7
  6
CONTINUOUS
370
-3
390
F
  0
LAYER
  5
207
100
AcDbSymbolTableRecord
100
AcDbLayerTableRecord
  2
11_NOTES_PUB
 70
0
 62
7
  6
CONTINUOUS
370
-3
390
F
  0
LAYER
  5
208
100
AcDbSymbolTableRecord
100
AcDbLayerTableRecord
  2
13_REF_GTOL
 70
0
 62
7
  6
CONTINUOUS
370
-3
390
F
  0
LAYER
  5
209
100
AcDbSymbolTableRecord
100
AcDbLayerTableRecord
  2
16_MISC
 70
0
 62
7
  6
CONTINUOUS
370
-3
390
F
  0
LAYER
  5
20A
100
AcDbSymbolTableRecord
100
AcDbLayerTableRecord
  2
17_NO_PRINT
 70
0
 62
7
  6
CONTINUOUS
370
-3
390
F
  0
LAYER
  5
20B
100
AcDbSymbolTableRecord
100
AcDbLayerTableRecord
  2
18_DATUM_CAMS_JOINTS
 70
0
 62
7
  6
CONTINUOUS
370
-3
390
F
  0
LAYER
  5
20C
100
AcDbSymbolTableRecord
100
AcDbLayerTableRecord
  2
19_DATUM_FUNCTIONAL
 70
0
 62
7
  6
CONTINUOUS
370
-3
390
F
  0
LAYER
  5
20D
100
AcDbSymbolTableRecord
100
AcDbLayerTableRecord
  2
20_DATUM_KINEMATIC_SCHEME
 70
0
 62
7
  6
CONTINUOUS
370
-3
390
F
  0
ENDTAB
  0
TABLE
  2
STYLE
  5
3
100
AcDbSymbolTable
 70
1
  0
STYLE
  5
11
100
AcDbSymbolTableRecord
100
AcDbTextStyleTableRecord
  2
STANDARD
 70
0
 40
0.0
 41
1.0
 50
0.0
 71
0
 42
0.2
  3
ARIAL.TTF
  4

  0
STYLE
  5
20E
100
AcDbSymbolTableRecord
100
AcDbTextStyleTableRecord
  2
TEXTSTYLE_1
 70
0
 40
0.0
 41
0.8
 50
0.0
 71
0
 42
0.2
  3
gdt
  4

  0
ENDTAB
  0
TABLE
  2
VIEW
  5
6
100
AcDbSymbolTable
 70
0
  0
ENDTAB
  0
TABLE
  2
UCS
  5
7
100
AcDbSymbolTable
 70
0
  0
ENDTAB
  0
TABLE
  2
APPID
  5
9
100
AcDbSymbolTable
 70
1
  0
APPID
  5
20F
100
AcDbSymbolTableRecord
100
AcDbRegAppTableRecord
  2
ACAD
 70
0
  0
ENDTAB
  0
TABLE
  2
BLOCK_RECORD
  5
1
100
AcDbSymbolTable
 70
0
  0
BLOCK_RECORD
  5
210
100
AcDbSymbolTableRecord
100
AcDbBlockTableRecord
  2
*Model_Space
  0
BLOCK_RECORD
  5
211
100
AcDbSymbolTableRecord
100
AcDbBlockTableRecord
  2
*Paper_Space
  0
BLOCK_RECORD
  5
212
100
AcDbSymbolTableRecord
100
AcDbBlockTableRecord
  2
_FILLED
  0
ENDTAB
  0
TABLE
  2
DIMSTYLE
  5
A
100
AcDbSymbolTable
 70
1
100
AcDbDimStyleTable
 71
0
  0
DIMSTYLE
105
213
100
AcDbSymbolTableRecord
100
AcDbDimStyleTableRecord
  2
STANDARD
 70
0
  3

  4

 40
1.0
 41
0.4464873866
 42
1.0
 43
0.38
 44
1.0
 45
0.0
 46
0.0
 47
0.01
 48
0.01
140
0.6250823412
141
0.09
142
0.0
143
25.4
144
1.0
145
0.0
146
1.0
147
0.625
 71
1
 72
0
 73
0
 74
0
 75
0
 76
0
 77
1
 78
8
 79
2
170
0
171
1
172
0
173
0
174
0
175
0
176
0
177
0
178
0
270
2
179
2
271
2
272
2
273
2
274
2
275
0
280
0
281
0
282
0
283
1
284
8
285
0
286
0
287
3
288
0
340
11
278
46
341
212
342
212
343
212
344
212
  0
ENDTAB
  0
ENDSEC
  0
SECTION
  2
BLOCKS
  0
BLOCK
  5
20
100
AcDbEntity
  8
0
100
AcDbBlockBegin
  2
*Model_Space
 70
0
 10
0.0
 20
0.0
 30
0.0
  3
*Model_Space
  1

  0
ENDBLK
  5
21
100
AcDbEntity
  8
0
100
AcDbBlockEnd
  0
BLOCK
  5
1C
100
AcDbEntity
  8
0
100
AcDbBlockBegin
  2
*Paper_Space
 70
0
 10
0.0
 20
0.0
 30
0.0
  3
*Paper_Space
  1

  0
ENDBLK
  5
1D
100
AcDbEntity
  8
0
100
AcDbBlockEnd
  0
BLOCK
  5
214
100
AcDbEntity
  8
0
100
AcDbBlockBegin
  2
_FILLED
 70
64
 10
0.0
 20
0.0
  3
_FILLED
  1

  0
SOLID
  5
215
100
AcDbEntity
  8
0
  6
BYBLOCK
 62
0
100
AcDbTrace
 10
0.0
 20
0.0
 11
-1.0
 21
0.25
 12
-1.0
 22
-0.25
 13
-1.0
 23
-0.25
  0
ENDBLK
  5
216
100
AcDbEntity
  8
0
  6
BYBLOCK
 62
0
100
AcDbBlockEnd
  0
ENDSEC
  0
SECTION
  2
ENTITIES
  0
LINE
  5
217
100
AcDbEntity
  8
0
100
AcDbLine
 62
7
  6
BYLAYER
 10
5.2121652252
 20
43.7989651417
 11
8.3298566789
 21
45.5989651417
  0
LINE
  5
218
100
AcDbEntity
  8
0
100
AcDbLine
 62
7
  6
BYLAYER
 10
5.1121652252
 20
5.7989651417
 11
32.9121652252
 21
5.7989651417
  0
LINE
  5
219
100
AcDbEntity
  8
0
100
AcDbLine
 62
7
  6
BYLAYER
 10
32.4121652252
 20
6.6806000452
 11
25.5121652252
 21
6.6806000452
  0
LINE
  5
21A
100
AcDbEntity
  8
0
100
AcDbLine
 62
7
  6
BYLAYER
 10
24.0121652252
 20
6.6806000452
 11
14.0121652252
 21
6.6806000452
  0
LINE
  5
21B
100
AcDbEntity
  8
0
100
AcDbLine
 62
7
  6
BYLAYER
 10
12.5121652252
 20
6.6806000452
 11
5.6121652252
 21
6.6806000452
  0
LINE
  5
21C
100
AcDbEntity
  8
0
100
AcDbLine
 62
7
  6
BYLAYER
 10
32.9121652252
 20
6.9450905163
 11
5.1121652252
 21
6.9450905163
  0
LINE
  5
21D
100
AcDbEntity
  8
0
100
AcDbLine
 62
7
  6
BYLAYER
 10
33.8871652252
 20
8.2989651417
 11
24.0871652252
 21
8.2989651417
  0
LINE
  5
21E
100
AcDbEntity
  8
0
100
AcDbLine
 62
7
  6
BYLAYER
 10
33.8871652252
 20
9.7989651417
 11
24.0871652252
 21
9.7989651417
  0
LINE
  5
21F
100
AcDbEntity
  8
0
100
AcDbLine
 62
7
  6
BYLAYER
 10
5.1121652252
 20
10.906081219
 11
13.0621652252
 21
10.906081219
  0
LINE
  5
220
100
AcDbEntity
  8
0
100
AcDbLine
 62
7
  6
BYLAYER
 10
14.9621652252
 20
10.906081219
 11
23.0621652252
 21
10.906081219
  0
LINE
  5
221
100
AcDbEntity
  8
0
100
AcDbLine
 62
7
  6
BYLAYER
 10
4.1121652252
 20
11.5989651417
 11
4.1121652252
 21
34.7989651417
  0
LINE
  5
222
100
AcDbEntity
  8
0
100
AcDbLine
 62
7
  6
BYLAYER
 10
4.9621652252
 20
11.5989651417
 11
4.9621652252
 21
19.3989651417
  0
LINE
  5
223
100
AcDbEntity
  8
0
100
AcDbLine
 62
7
  6
BYLAYER
 10
5.1121652252
 20
5.7989651417
 11
5.1121652252
 21
11.5989651417
  0
LINE
  5
224
100
AcDbEntity
  8
0
100
AcDbLine
 62
7
  6
BYLAYER
 10
5.2121652252
 20
34.7989651417
 11
5.2121652252
 21
43.7989651417
  0
LINE
  5
225
100
AcDbEntity
  8
0
100
AcDbLine
 62
7
  6
BYLAYER
 10
5.6121652252
 20
5.7989651417
 11
5.6121652252
 21
6.6806000452
  0
LINE
  5
226
100
AcDbEntity
  8
0
100
AcDbLine
 62
7
  6
BYLAYER
 10
33.9121652252
 20
11.5989651417
 11
33.8871652252
 21
11.5989651417
  0
LINE
  5
227
100
AcDbEntity
  8
0
100
AcDbLine
 62
7
  6
BYLAYER
 10
4.1121652252
 20
11.5989651417
 11
5.1121652252
 21
11.5989651417
  0
LINE
  5
228
100
AcDbEntity
  8
0
100
AcDbLine
 62
7
  6
BYLAYER
 10
13.0621652252
 20
12.1989651417
 11
4.9621652252
 21
12.1989651417
  0
LINE
  5
229
100
AcDbEntity
  8
0
100
AcDbLine
 62
7
  6
BYLAYER
 10
14.9621652252
 20
12.1989651417
 11
23.0621652252
 21
12.1989651417
  0
LINE
  5
22A
100
AcDbEntity
  8
0
100
AcDbLine
 62
7
  6
BYLAYER
 10
8.9166904865
 20
23.9554270302
 11
8.9127907303
 21
24.6097960393
  0
LINE
  5
22B
100
AcDbEntity
  8
0
100
AcDbLine
 62
7
  6
BYLAYER
 10
13.0621652252
 20
15.206081219
 11
14.5019588033
 21
15.206081219
  0
LINE
  5
22C
100
AcDbEntity
  8
0
100
AcDbLine
 62
7
  6
BYLAYER
 10
23.5223716472
 20
15.206081219
 11
24.0871652252
 21
15.206081219
  0
LINE
  5
22D
100
AcDbEntity
  8
0
100
AcDbLine
 62
7
  6
BYLAYER
 10
10.3841645222
 20
29.4176693436
 11
10.3845376777
 21
29.3550548265
  0
LINE
  5
22E
100
AcDbEntity
  8
0
100
AcDbLine
 62
7
  6
BYLAYER
 10
10.4454125758
 20
19.1404043886
 11
10.4460602039
 21
19.0317340641
  0
LINE
  5
22F
100
AcDbEntity
  8
0
100
AcDbLine
 62
7
  6
BYLAYER
 10
4.1121652252
 20
16.9435187801
 11
4.9621652252
 21
16.9435187801
  0
LINE
  5
230
100
AcDbEntity
  8
0
100
AcDbLine
 62
7
  6
BYLAYER
 10
33.8871652252
 20
16.9435187801
 11
33.9121652252
 21
16.9435187801
  0
LINE
  5
231
100
AcDbEntity
  8
0
100
AcDbLine
 62
7
  6
BYLAYER
 10
4.1121652252
 20
19.3989651417
 11
4.9621652252
 21
19.3989651417
  0
LINE
  5
232
100
AcDbEntity
  8
0
100
AcDbLine
 62
7
  6
BYLAYER
 10
33.8871652252
 20
19.3989651417
 11
33.9121652252
 21
19.3989651417
  0
LINE
  5
233
100
AcDbEntity
  8
0
100
AcDbLine
 62
7
  6
BYLAYER
 10
12.5121652252
 20
6.6806000452
 11
12.5121652252
 21
5.7989651417
  0
LINE
  5
234
100
AcDbEntity
  8
0
100
AcDbLine
 62
7
  6
BYLAYER
 10
13.0621652252
 20
10.906081219
 11
13.0621652252
 21
16.0758270545
  0
LINE
  5
235
100
AcDbEntity
  8
0
100
AcDbLine
 62
7
  6
BYLAYER
 10
14.0121652252
 20
5.7989651417
 11
14.0121652252
 21
6.6806000452
  0
LINE
  5
236
100
AcDbEntity
  8
0
100
AcDbLine
 62
7
  6
BYLAYER
 10
14.9621652252
 20
14.9919785187
 11
14.9621652252
 21
10.906081219
  0
LINE
  5
237
100
AcDbEntity
  8
0
100
AcDbLine
 62
7
  6
BYLAYER
 10
23.0621652252
 20
10.906081219
 11
23.0621652252
 21
14.9919785187
  0
LINE
  5
238
100
AcDbEntity
  8
0
100
AcDbLine
 62
7
  6
BYLAYER
 10
24.0121652252
 20
6.6806000452
 11
24.0121652252
 21
5.7989651417
  0
LINE
  5
239
100
AcDbEntity
  8
0
100
AcDbLine
 62
7
  6
BYLAYER
 10
24.0871652252
 20
40.2989651417
 11
24.0871652252
 21
8.2989651417
  0
LINE
  5
23A
100
AcDbEntity
  8
0
100
AcDbLine
 62
7
  6
BYLAYER
 10
25.5121652252
 20
5.7989651417
 11
25.5121652252
 21
6.6806000452
  0
LINE
  5
23B
100
AcDbEntity
  8
0
100
AcDbLine
 62
7
  6
BYLAYER
 10
4.1121652252
 20
34.7989651417
 11
5.2121652252
 21
34.7989651417
  0
LINE
  5
23C
100
AcDbEntity
  8
0
100
AcDbLine
 62
7
  6
BYLAYER
 10
33.8871652252
 20
34.7989651417
 11
33.9121652252
 21
34.7989651417
  0
LINE
  5
23D
100
AcDbEntity
  8
0
100
AcDbLine
 62
7
  6
BYLAYER
 10
5.2121652252
 20
36.3989651417
 11
24.0871652252
 21
36.3989651417
  0
LINE
  5
23E
100
AcDbEntity
  8
0
100
AcDbLine
 62
7
  6
BYLAYER
 10
5.2121652252
 20
36.7989651417
 11
24.0871652252
 21
36.7989651417
  0
LINE
  5
23F
100
AcDbEntity
  8
0
100
AcDbLine
 62
7
  6
BYLAYER
 10
32.4121652252
 20
6.6806000452
 11
32.4121652252
 21
5.7989651417
  0
LINE
  5
240
100
AcDbEntity
  8
0
100
AcDbLine
 62
7
  6
BYLAYER
 10
24.0871652252
 20
38.7989651417
 11
33.8871652252
 21
38.7989651417
  0
LINE
  5
241
100
AcDbEntity
  8
0
100
AcDbLine
 62
7
  6
BYLAYER
 10
32.8121652252
 20
40.2989651417
 11
32.8121652252
 21
43.7989651417
  0
LINE
  5
242
100
AcDbEntity
  8
0
100
AcDbLine
 62
7
  6
BYLAYER
 10
32.9121652252
 20
5.7989651417
 11
32.9121652252
 21
8.2989651417
  0
LINE
  5
243
100
AcDbEntity
  8
0
100
AcDbLine
 62
7
  6
BYLAYER
 10
33.8871652252
 20
8.2989651417
 11
33.8871652252
 21
40.2989651417
  0
LINE
  5
244
100
AcDbEntity
  8
0
100
AcDbLine
 62
7
  6
BYLAYER
 10
33.9121652252
 20
11.5989651417
 11
33.9121652252
 21
34.7989651417
  0
LINE
  5
245
100
AcDbEntity
  8
0
100
AcDbLine
 62
7
  6
BYLAYER
 10
33.8871652252
 20
40.2989651417
 11
24.0871652252
 21
40.2989651417
  0
LINE
  5
246
100
AcDbEntity
  8
0
100
AcDbLine
 62
7
  6
BYLAYER
 10
5.2121652252
 20
42.3268901232
 11
32.8121652252
 21
42.3268901232
  0
LINE
  5
247
100
AcDbEntity
  8
0
100
AcDbLine
 62
7
  6
BYLAYER
 10
5.2121652252
 20
43.5989651417
 11
32.8121652252
 21
43.5989651417
  0
LINE
  5
248
100
AcDbEntity
  8
0
100
AcDbLine
 62
7
  6
BYLAYER
 10
29.6944737716
 20
45.5989651417
 11
22.8295596246
 21
45.5989651417
  0
LINE
  5
249
100
AcDbEntity
  8
0
100
AcDbLine
 62
7
  6
BYLAYER
 10
15.1947708259
 20
45.5989651417
 11
8.3298566789
 21
45.5989651417
  0
LINE
  5
24A
100
AcDbEntity
  8
0
100
AcDbLine
 62
7
  6
BYLAYER
 10
29.6944737716
 20
45.5989651417
 11
32.8121652252
 21
43.7989651417
  0
ARC
  5
24B
100
AcDbEntity
  8
0
100
AcDbCircle
 62
7
  6
BYLAYER
 10
19.0121652252
 20
24.2989651417
 40
10.15
100
AcDbArc
 50
60.0
 51
300.0068858013
  0
ARC
  5
24C
100
AcDbEntity
  8
0
100
AcDbCircle
 62
7
  6
BYLAYER
 10
19.0121652252
 20
24.2989651417
 40
10.0
100
AcDbArc
 50
59.4358417671
 51
300.5721192899
  0
ARC
  5
24D
100
AcDbEntity
  8
0
100
AcDbCircle
 62
7
  6
BYLAYER
 10
19.0121652252
 20
41.2989651417
 40
5.75
100
AcDbArc
 50
48.4024161073
 51
131.5975838927
  0
ARC
  5
24E
100
AcDbEntity
  8
0
100
AcDbCircle
 62
7
  6
BYLAYER
 10
28.89762201
 20
15.0453669811
 40
2.9103784099
100
AcDbArc
 50
163.9312765643
 51
171.5009857195
  0
ARC
  5
24F
100
AcDbEntity
  8
0
100
AcDbCircle
 62
7
  6
BYLAYER
 10
29.076884178
 20
15.0454276842
 40
2.9101944947
100
AcDbArc
 50
8.6702857394
 51
16.0611548002
  0
ARC
  5
250
100
AcDbEntity
  8
0
100
AcDbCircle
 62
7
  6
BYLAYER
 10
28.8772434683
 20
33.1376678407
 40
2.8900757843
100
AcDbArc
 50
178.750752163
 51
185.2205000222
  0
ARC
  5
251
100
AcDbEntity
  8
0
100
AcDbCircle
 62
7
  6
BYLAYER
 10
29.1038406787
 20
33.1186375425
 40
2.8833241583
100
AcDbArc
 50
345.9996953008
 51
348.9461348879
  0
SPLINE
  5
252
100
AcDbEntity
  8
0
100
AcDbSpline
 62
7
  6
BYLAYER
 70
0
 71
3
 72
15
 73
11
 74
0
 42
0.0000001
 43
0.0000001
 44
0.0000000001
 40
0.0
 40
0.0
 40
0.0
 40
0.0
 40
0.1250038683
 40
0.250009199
 40
0.3750132258
 40
0.5000116836
 40
0.6250120326
 40
0.7500087559
 40
0.87501436
 40
1.0
 40
1.0
 40
1.0
 40
1.0
 10
31.9394857485
 20
32.3998354372
 30
0.0
 10
31.955825191
 20
32.6067515744
 30
0.0
 10
31.9469444943
 20
33.0250667936
 30
0.0
 10
31.8090142075
 20
33.6363963709
 30
0.0
 10
31.5512633635
 20
34.2079712947
 30
0.0
 10
31.1830891601
 20
34.7155371845
 30
0.0
 10
30.7186948061
 20
35.136993958
 30
0.0
 10
30.176929562
 20
35.4532150135
 30
0.0
 10
29.5812453867
 20
35.649150185
 30
0.0
 10
29.164815977
 20
35.6933912825
 30
0.0
 10
28.9572859749
 20
35.6933912411
 30
0.0
  0
SPLINE
  5
253
100
AcDbEntity
  8
0
100
AcDbSpline
 62
7
  6
BYLAYER
 70
0
 71
3
 72
17
 73
13
 74
0
 42
0.0000001
 43
0.0000001
 44
0.0000000001
 40
0.0
 40
0.0
 40
0.0
 40
0.0
 40
0.124946596
 40
0.1875249861
 40
0.2500732621
 40
0.375026383
 40
0.4999918971
 40
0.5625395335
 40
0.6250864674
 40
0.7500544402
 40
0.875026896
 40
1.0
 40
1.0
 40
1.0
 40
1.0
 10
28.9572859749
 20
35.6933912411
 30
0.0
 10
28.768984268
 20
35.6933912035
 30
0.0
 10
28.4854119326
 20
35.6660134473
 30
0.0
 10
28.1189168353
 20
35.5764413141
 30
0.0
 10
27.7624953518
 20
35.4523352158
 30
0.0
 10
27.3416381079
 20
35.2344933122
 30
0.0
 10
26.9690811494
 20
34.9417194008
 30
0.0
 10
26.7077510431
 20
34.6695357062
 30
0.0
 10
26.472696612
 20
34.3743754805
 30
0.0
 10
26.231409434
 20
33.9665568435
 30
0.0
 10
26.0359453514
 20
33.433315342
 30
0.0
 10
25.9720474558
 20
33.0595920506
 30
0.0
 10
25.9572209299
 20
32.8718348841
 30
0.0
  0
SPLINE
  5
254
100
AcDbEntity
  8
0
100
AcDbSpline
 62
7
  6
BYLAYER
 70
0
 71
3
 72
17
 73
13
 74
0
 42
0.0000001
 43
0.0000001
 44
0.0000000001
 40
0.0
 40
0.0
 40
0.0
 40
0.0
 40
0.1259377537
 40
0.1889851355
 40
0.2519581393
 40
0.3775675735
 40
0.5028367267
 40
0.5653789784
 40
0.6278114042
 40
0.7522249868
 40
0.876254948
 40
1.0
 40
1.0
 40
1.0
 40
1.0
 10
28.9872479437
 20
30.1844045523
 30
0.0
 10
28.8023342947
 20
30.1849445318
 30
0.0
 10
28.5240717361
 20
30.2111598479
 30
0.0
 10
28.1635103367
 20
30.2955890076
 30
0.0
 10
27.8124739622
 20
30.4123185662
 30
0.0
 10
27.3966245732
 20
30.6171075878
 30
0.0
 10
27.02549776
 20
30.8938660633
 30
0.0
 10
26.7637313091
 20
31.1523725335
 30
0.0
 10
26.5277113311
 20
31.4329160526
 30
0.0
 10
26.2835921335
 20
31.8220446798
 30
0.0
 10
26.0831696951
 20
32.333663253
 30
0.0
 10
26.0156836425
 20
32.6937614169
 30
0.0
 10
25.9991559866
 20
32.8747030393
 30
0.0
  0
SPLINE
  5
255
100
AcDbEntity
  8
0
100
AcDbSpline
 62
7
  6
BYLAYER
 70
0
 71
3
 72
15
 73
11
 74
0
 42
0.0000001
 43
0.0000001
 44
0.0000000001
 40
0.0
 40
0.0
 40
0.0
 40
0.0
 40
0.1257141072
 40
0.2514134711
 40
0.3768606955
 40
0.5020749994
 40
0.6269886984
 40
0.7515928037
 40
0.8759145693
 40
1.0
 40
1.0
 40
1.0
 40
1.0
 10
28.9871650854
 20
17.9994663889
 30
0.0
 10
29.1487612149
 20
17.9994663913
 30
0.0
 10
29.4725176467
 20
17.9735822758
 30
0.0
 10
29.9450861986
 20
17.8584543419
 30
0.0
 10
30.3928000122
 20
17.6696856045
 30
0.0
 10
30.8037761371
 20
17.4124339348
 30
0.0
 10
31.167341852
 20
17.0932628616
 30
0.0
 10
31.4739803475
 20
16.7204994223
 30
0.0
 10
31.7156671243
 20
16.3040383878
 30
0.0
 10
31.8293621964
 20
16.0038498001
 30
0.0
 10
31.8734848944
 20
15.8505714168
 30
0.0
  0
SPLINE
  5
256
100
AcDbEntity
  8
0
100
AcDbSpline
 62
7
  6
BYLAYER
 70
0
 71
3
 72
17
 73
13
 74
0
 42
0.0000001
 43
0.0000001
 44
0.0000000001
 40
0.0
 40
0.0
 40
0.0
 40
0.0
 40
0.1249465839
 40
0.1875249695
 40
0.2500732395
 40
0.3750263558
 40
0.4999918757
 40
0.562539516
 40
0.6250864534
 40
0.7500544322
 40
0.8750268928
 40
1.0
 40
1.0
 40
1.0
 40
1.0
 10
28.9394247537
 20
29.5782790779
 30
0.0
 10
29.1277262745
 20
29.5782790779
 30
0.0
 10
29.4112983192
 20
29.6056573752
 30
0.0
 10
29.7777929011
 20
29.6952299845
 30
0.0
 10
30.1342139331
 20
29.8193362801
 30
0.0
 10
30.5550706143
 20
30.037178336
 30
0.0
 10
30.9276270114
 20
30.3299522811
 30
0.0
 10
31.1889567456
 20
30.6021358925
 30
0.0
 10
31.4240108253
 20
30.8972959935
 30
0.0
 10
31.6652976376
 20
31.3051143748
 30
0.0
 10
31.8607614251
 20
31.8383554626
 30
0.0
 10
31.9246592357
 20
32.2120784334
 30
0.0
 10
31.9394857485
 20
32.3998354372
 30
0.0
  0
SPLINE
  5
257
100
AcDbEntity
  8
0
100
AcDbSpline
 62
7
  6
BYLAYER
 70
0
 71
3
 72
15
 73
11
 74
0
 42
0.0000001
 43
0.0000001
 44
0.0000000001
 40
0.0
 40
0.0
 40
0.0
 40
0.0
 40
0.1250038651
 40
0.2500091911
 40
0.3750132119
 40
0.5000116634
 40
0.6250120066
 40
0.7500087324
 40
0.8750143476
 40
1.0
 40
1.0
 40
1.0
 40
1.0
 10
25.9572209299
 20
32.8718348841
 30
0.0
 10
25.9408814745
 20
32.6649185853
 30
0.0
 10
25.9497622119
 20
32.2466030375
 30
0.0
 10
26.0876927471
 20
31.6352730146
 30
0.0
 10
26.3454440204
 20
31.0636977535
 30
0.0
 10
26.7136187786
 20
30.5561316697
 30
0.0
 10
27.1780138229
 20
30.1346749102
 30
0.0
 10
27.7197797777
 20
29.8184540655
 30
0.0
 10
28.3154647277
 20
29.6225192781
 30
0.0
 10
28.7318945636
 20
29.5782790779
 30
0.0
 10
28.9394247537
 20
29.5782790779
 30
0.0
  0
SPLINE
  5
258
100
AcDbEntity
  8
0
100
AcDbSpline
 62
7
  6
BYLAYER
 70
0
 71
3
 72
15
 73
11
 74
0
 42
0.0000001
 43
0.0000001
 44
0.0000000001
 40
0.0
 40
0.0
 40
0.0
 40
0.0
 40
0.1238783687
 40
0.2479976487
 40
0.3724441725
 40
0.4972746619
 40
0.62250285
 40
0.7480679023
 40
0.8739817272
 40
1.0
 40
1.0
 40
1.0
 40
1.0
 10
31.9015140774
 20
32.4210834185
 30
0.0
 10
31.8620144566
 20
32.2626606022
 30
0.0
 10
31.7558238145
 20
31.9515751046
 30
0.0
 10
31.5202278025
 20
31.5183926294
 30
0.0
 10
31.2146873598
 20
31.1296119222
 30
0.0
 10
30.8476702057
 20
30.7961396488
 30
0.0
 10
30.4293341007
 20
30.5271854575
 30
0.0
 10
29.9711995404
 20
30.329973712
 30
0.0
 10
29.4860990483
 20
30.2101863215
 30
0.0
 10
29.1533404532
 20
30.1839195339
 30
0.0
 10
28.9872479437
 20
30.1844045523
 30
0.0
  0
SPLINE
  5
259
100
AcDbEntity
  8
0
100
AcDbSpline
 62
7
  6
BYLAYER
 70
0
 71
3
 72
15
 73
11
 74
0
 42
0.0000001
 43
0.0000001
 44
0.0000000001
 40
0.0
 40
0.0
 40
0.0
 40
0.0
 40
0.1240821517
 40
0.2484017959
 40
0.3730053601
 40
0.4979203164
 40
0.6231362729
 40
0.7485853502
 40
0.8742868482
 40
1.0
 40
1.0
 40
1.0
 40
1.0
 10
26.1009509459
 20
15.8509310369
 30
0.0
 10
26.1450875832
 20
16.0041848823
 30
0.0
 10
26.2588030815
 20
16.3043243784
 30
0.0
 10
26.50050229
 20
16.7207148928
 30
0.0
 10
26.8071420117
 20
17.0934137648
 30
0.0
 10
27.1706950524
 20
17.4125314602
 30
0.0
 10
27.5816464491
 20
17.6697448641
 30
0.0
 10
28.0293310038
 20
17.8584798355
 30
0.0
 10
28.5018596101
 20
17.9735862064
 30
0.0
 10
28.8255858961
 20
17.9994663864
 30
0.0
 10
28.9871650854
 20
17.9994663889
 30
0.0
  0
ELLIPSE
  5
25A
100
AcDbEntity
  8
0
100
AcDbEllipse
 62
7
  6
BYLAYER
 10
28.9871652252
 20
15.9126192614
 30
0.0
 11
0.0
 21
3.0462798357
 31
0.0
 40
0.984807753
 41
0.0
 42
6.2831853072
  0
ENDSEC
  0
SECTION
  2
OBJECTS
  0
DICTIONARY
  5
C
100
AcDbDictionary
280
0
281
1
  3
ACAD_GROUP
350
D
  3
ACAD_MLINESTYLE
350
17
  3
ACAD_LAYOUT
350
1A
  3
ACAD_PLOTSETTINGS
350
19
  3
ACAD_PLOTSTYLENAME
350
E
  0
DICTIONARY
  5
D
102
{ACAD_REACTORS
330
C
102
}
100
AcDbDictionary
280
0
281
1
  0
ACDBDICTIONARYWDFLT
  5
E
102
{ACAD_REACTORS
330
C
102
}
100
AcDbDictionary
281
1
  3
Normal
350
F
100
AcDbDictionaryWithDefault
340
F
  0
DICTIONARY
  5
17
102
{ACAD_REACTORS
330
C
102
}
100
AcDbDictionary
280
0
281
1
  3
Standard
350
18
  0
DICTIONARY
  5
19
102
{ACAD_REACTORS
330
C
102
}
100
AcDbDictionary
281
1
  0
DICTIONARY
  5
1A
102
{ACAD_REACTORS
330
C
102
}
100
AcDbDictionary
281
1
  3
Model
350
25B
  3
Layout1
350
25C
  0
ACDBPLACEHOLDER
  5
F
102
{ACAD_REACTORS
330
E
102
}
  0
MLINESTYLE
  5
18
102
{ACAD_REACTORS
330
17
102
}
100
AcDbMlineStyle
  2
STANDARD
 70
0
  3

 62
256
 51
90.0
 52
90.0
 71
2
 49
0.5
 62
256
  6
BYLAYER
 49
-0.5
 62
256
  6
BYLAYER
  0
LAYOUT
  5
25B
102
{ACAD_REACTORS
330
1A
102
}
100
AcDbPlotSettings
  1

  2
none_device
  4

  6

 40
0.0
 41
0.0
 42
0.0
 43
0.0
 44
210.0
 45
297.0
 46
0.0
 47
0.0
 48
0.0
 49
0.0
140
0.0
141
0.0
142
1.0
143
1.0
 70
1024
 72
1
 73
0
 74
0
  7

 75
0
147
1.0
148
0.0
149
0.0
100
AcDbLayout
  1
Model
 70
0
 71
0
 10
0.0
 20
0.0
 11
210.0
 21
297.0
 12
0.0
 22
0.0
 32
0.0
 14
0.0
 24
0.0
 34
0.0
 15
0.0
 25
0.0
 35
0.0
146
0.0
 13
0.0
 23
0.0
 33
0.0
 16
1.0
 26
0.0
 36
0.0
 17
0.0
 27
1.0
 37
0.0
 76
0
330
210
345
0
346
0
  0
LAYOUT
  5
25C
102
{ACAD_REACTORS
330
1A
102
}
100
AcDbPlotSettings
  1

  2
none_device
  4

  6

 40
0.0
 41
0.0
 42
0.0
 43
0.0
 44
210.0
 45
297.0
 46
0.0
 47
0.0
 48
0.0
 49
0.0
140
0.0
141
0.0
142
1.0
143
1.0
 70
0
 72
1
 73
0
 74
0
  7

 75
0
147
1.0
148
0.0
149
0.0
100
AcDbLayout
  1
Layout1
 70
0
 71
1
 10
0.0
 20
0.0
 11
210.0
 21
297.0
 12
0.0
 22
0.0
 32
0.0
 14
0.0
 24
0.0
 34
0.0
 15
0.0
 25
0.0
 35
0.0
146
0.0
 13
0.0
 23
0.0
 33
0.0
 16
1.0
 26
0.0
 36
0.0
 17
0.0
 27
1.0
 37
0.0
 76
0
330
211
345
0
346
0
  0
ENDSEC
  0
EOF
