999
DXF file: Y:\001_SCHNEIDER_PARIS\maxime fuentes - génération CAD 2D\TRAVAIL\XALD213_2D-Views\xald213_2d-views_1.dxf
999
Pro/ENGINEER 2018260 by Parametric Technology Corporation
  0
SECTION
  2
HEADER
  9
$ACADVER
  1
AC1027
  9
$DWGCODEPAGE
  3
ANSI_1252
  9
$EXTMAX
 10
558.8
 20
431.8
 30
0.0
  9
$EXTMIN
 10
0.0
 20
0.0
 30
0.0
  9
$LIMMIN
 10
0.0
 20
0.0
  9
$LIMMAX
 10
558.8
 20
431.8
  9
$VIEWCTR
 10
279.4
 20
215.9
  9
$VIEWSIZE
 40
431.8
  9
$CLAYER
  8
0
  9
$LTSCALE
 40
30.734
  9
$CELTYPE
  6
BYLAYER
  9
$DIMSCALE
 40
1.0
  9
$DIMASZ
 40
3.5
  9
$DIMEXO
 40
1.0
  9
$DIMDLI
 40
21.2344
  9
$DIMEXE
 40
3.0
  9
$DIMCEN
 40
5.0292
  9
$DIMLFAC
 40
1.0
  9
$DIMBLK
  1
_FILLED
  9
$DIMALT
 70
0
  9
$DIMALTF
 40
0.0393700787
  9
$DIMTXT
 40
4.0
  9
$DIMTOL
 70
1
  9
$DIMLIM
 70
0
  9
$DIMTFAC
 40
1.0
  9
$DIMTP
 40
0.0001
  9
$DIMTM
 40
0.0001
  9
$DIMGAP
 40
0.625
  9
$DIMDSEP
 70
46
  9
$AUNITS
 70
0
  9
$PDMODE
 70
0
  9
$PDSIZE
 40
0.01
  9
$HANDSEED
  5
393
  9
$TILEMODE
 70
1
  9
$MEASUREMENT
 70
1
  9
$INSUNITS
 70
4
  0
ENDSEC
  0
SECTION
  2
CLASSES
  0
CLASS
  1
ACDBDICTIONARYWDFLT
  2
AcDbDictionaryWithDefault
  3
AutoCAD 2000
 90
0
 91
1
280
0
281
0
  0
CLASS
  1
ACDBPLACEHOLDER
  2
AcDbPlaceHolder
  3
AutoCAD 2000
 90
0
 91
1
280
0
281
0
  0
CLASS
  1
LAYOUT
  2
AcDbLayout
  3
AutoCAD 2000
 90
0
 91
0
280
0
281
0
  0
ENDSEC
  0
SECTION
  2
TABLES
  0
TABLE
  2
VPORT
  5
8
100
AcDbSymbolTable
 70
2
  0
VPORT
  5
1F4
100
AcDbSymbolTableRecord
100
AcDbViewportTableRecord
  2
*ACTIVE
 70
0
 10
0.0
 20
0.0
 11
1.0
 21
1.0
 12
279.4
 22
215.9
 13
0.0
 23
0.0
 14
1.0
 24
1.0
 15
0.0
 25
0.0
 16
0.0
 26
0.0
 36
1.0
 17
0.0
 27
0.0
 37
0.0
 40
431.8
 41
1.2941176471
 42
50.0
 43
0.0
 44
0.0
 50
0.0
 51
0.0
 71
0
 72
100
 73
1
 74
1
 75
0
 76
0
 77
0
 78
0
  0
ENDTAB
  0
TABLE
  2
LTYPE
  5
5
100
AcDbSymbolTable
 70
6
  0
LTYPE
  5
14
100
AcDbSymbolTableRecord
100
AcDbLinetypeTableRecord
  2
BYBLOCK
 70
0
  3

 72
65
 73
0
 40
0.0
  0
LTYPE
  5
15
100
AcDbSymbolTableRecord
100
AcDbLinetypeTableRecord
  2
BYLAYER
 70
0
  3

 72
65
 73
0
 40
0.0
  0
LTYPE
  5
16
100
AcDbSymbolTableRecord
100
AcDbLinetypeTableRecord
  2
CONTINUOUS
 70
64
  3
Solid line
 72
65
 73
0
 40
0.0
  0
LTYPE
  5
1F5
100
AcDbSymbolTableRecord
100
AcDbLinetypeTableRecord
  2
CENTER
 70
64
  3
____ _ ____ _ ____ _ ____ _ ____ _ ____ _ ____
 72
65
 73
4
 40
0.6
 49
0.375
 74
0
 49
-0.075
 74
0
 49
0.075
 74
0
 49
-0.075
 74
0
  0
LTYPE
  5
1F6
100
AcDbSymbolTableRecord
100
AcDbLinetypeTableRecord
  2
HIDDEN
 70
64
  3
- - - - - - - - - - - - - - - - - - - -
 72
65
 73
2
 40
0.2
 49
0.1
 74
0
 49
-0.1
 74
0
  0
LTYPE
  5
1F7
100
AcDbSymbolTableRecord
100
AcDbLinetypeTableRecord
  2
PHANTOM
 70
64
  3
_____ _ _ _____ _ _ _____ _ _ _____
 72
65
 73
6
 40
0.8
 49
0.45
 74
0
 49
-0.05
 74
0
 49
0.1
 74
0
 49
-0.05
 74
0
 49
0.1
 74
0
 49
-0.05
 74
0
  0
LTYPE
  5
1F8
100
AcDbSymbolTableRecord
100
AcDbLinetypeTableRecord
  2
DOT
 70
64
  3
. . . . . . . . . . . . . . . . . . . .
 72
65
 73
2
 40
0.2
 49
0.1
 74
0
 49
-0.1
 74
0
  0
LTYPE
  5
1F9
100
AcDbSymbolTableRecord
100
AcDbLinetypeTableRecord
  2
DASHED
 70
64
  3
- - - - - - - - - - - - - - - - - - - -
 72
65
 73
2
 40
0.2
 49
0.1
 74
0
 49
-0.1
 74
0
  0
ENDTAB
  0
TABLE
  2
LAYER
  5
2
100
AcDbSymbolTable
 70
36
  0
LAYER
  5
10
100
AcDbSymbolTableRecord
100
AcDbLayerTableRecord
  2
0
 70
0
 62
7
  6
CONTINUOUS
370
-3
390
F
  0
LAYER
  5
1FA
100
AcDbSymbolTableRecord
100
AcDbLayerTableRecord
  2
DEFAULT_1
 70
0
 62
7
  6
CENTER
370
-3
390
F
  0
LAYER
  5
1FB
100
AcDbSymbolTableRecord
100
AcDbLayerTableRecord
  2
DEFAULT_2
 70
0
 62
8
  6
HIDDEN
370
-3
390
F
  0
LAYER
  5
1FC
100
AcDbSymbolTableRecord
100
AcDbLayerTableRecord
  2
DEFAULT_3
 70
0
 62
7
  6
PHANTOM
370
-3
390
F
  0
LAYER
  5
1FD
100
AcDbSymbolTableRecord
100
AcDbLayerTableRecord
  2
01_ALL_DTM_PLN
 70
0
 62
7
  6
CONTINUOUS
370
-3
390
F
  0
LAYER
  5
1FE
100
AcDbSymbolTableRecord
100
AcDbLayerTableRecord
  2
01__ASM_ALL_DTM_PLN
 70
0
 62
7
  6
CONTINUOUS
370
-3
390
F
  0
LAYER
  5
1FF
100
AcDbSymbolTableRecord
100
AcDbLayerTableRecord
  2
01__ASM_DEF_DTM_PLN
 70
0
 62
7
  6
CONTINUOUS
370
-3
390
F
  0
LAYER
  5
200
100
AcDbSymbolTableRecord
100
AcDbLayerTableRecord
  2
01___PRT_ALL_DTM_PLN
 70
0
 62
7
  6
CONTINUOUS
370
-3
390
F
  0
LAYER
  5
201
100
AcDbSymbolTableRecord
100
AcDbLayerTableRecord
  2
01___PRT_DEF_DTM_PLN
 70
0
 62
7
  6
CONTINUOUS
370
-3
390
F
  0
LAYER
  5
202
100
AcDbSymbolTableRecord
100
AcDbLayerTableRecord
  2
02_ALL_AXES
 70
0
 62
7
  6
CONTINUOUS
370
-3
390
F
  0
LAYER
  5
203
100
AcDbSymbolTableRecord
100
AcDbLayerTableRecord
  2
02__ASM_ALL_AXES
 70
0
 62
7
  6
CONTINUOUS
370
-3
390
F
  0
LAYER
  5
204
100
AcDbSymbolTableRecord
100
AcDbLayerTableRecord
  2
02___PRT_ALL_AXES
 70
0
 62
7
  6
CONTINUOUS
370
-3
390
F
  0
LAYER
  5
205
100
AcDbSymbolTableRecord
100
AcDbLayerTableRecord
  2
03_ALL_CURVES
 70
0
 62
7
  6
CONTINUOUS
370
-3
390
F
  0
LAYER
  5
206
100
AcDbSymbolTableRecord
100
AcDbLayerTableRecord
  2
03__ASM_ALL_CURVES
 70
0
 62
7
  6
CONTINUOUS
370
-3
390
F
  0
LAYER
  5
207
100
AcDbSymbolTableRecord
100
AcDbLayerTableRecord
  2
03___PRT_ALL_CURVES
 70
0
 62
7
  6
CONTINUOUS
370
-3
390
F
  0
LAYER
  5
208
100
AcDbSymbolTableRecord
100
AcDbLayerTableRecord
  2
04_ALL_DTM_PNT
 70
0
 62
7
  6
CONTINUOUS
370
-3
390
F
  0
LAYER
  5
209
100
AcDbSymbolTableRecord
100
AcDbLayerTableRecord
  2
04__ASM_ALL_DTM_PNT
 70
0
 62
7
  6
CONTINUOUS
370
-3
390
F
  0
LAYER
  5
20A
100
AcDbSymbolTableRecord
100
AcDbLayerTableRecord
  2
04___PRT_ALL_DTM_PNT
 70
0
 62
7
  6
CONTINUOUS
370
-3
390
F
  0
LAYER
  5
20B
100
AcDbSymbolTableRecord
100
AcDbLayerTableRecord
  2
05_ALL_DTM_CSYS
 70
0
 62
7
  6
CONTINUOUS
370
-3
390
F
  0
LAYER
  5
20C
100
AcDbSymbolTableRecord
100
AcDbLayerTableRecord
  2
05__ASM_ALL_DTM_CSYS
 70
0
 62
7
  6
CONTINUOUS
370
-3
390
F
  0
LAYER
  5
20D
100
AcDbSymbolTableRecord
100
AcDbLayerTableRecord
  2
05__ASM_DEF_DTM_CSYS
 70
0
 62
7
  6
CONTINUOUS
370
-3
390
F
  0
LAYER
  5
20E
100
AcDbSymbolTableRecord
100
AcDbLayerTableRecord
  2
05___PRT_ALL_DTM_CSYS
 70
0
 62
7
  6
CONTINUOUS
370
-3
390
F
  0
LAYER
  5
20F
100
AcDbSymbolTableRecord
100
AcDbLayerTableRecord
  2
05___PRT_DEF_DTM_CSYS
 70
0
 62
7
  6
CONTINUOUS
370
-3
390
F
  0
LAYER
  5
210
100
AcDbSymbolTableRecord
100
AcDbLayerTableRecord
  2
06_ALL_SURFS
 70
0
 62
7
  6
CONTINUOUS
370
-3
390
F
  0
LAYER
  5
211
100
AcDbSymbolTableRecord
100
AcDbLayerTableRecord
  2
06__ASM_ALL_SURFS
 70
0
 62
7
  6
CONTINUOUS
370
-3
390
F
  0
LAYER
  5
212
100
AcDbSymbolTableRecord
100
AcDbLayerTableRecord
  2
06___PRT_ALL_SURFS
 70
0
 62
7
  6
CONTINUOUS
370
-3
390
F
  0
LAYER
  5
213
100
AcDbSymbolTableRecord
100
AcDbLayerTableRecord
  2
07__ASM_ALL_SKELETONS
 70
0
 62
7
  6
CONTINUOUS
370
-3
390
F
  0
ENDTAB
  0
TABLE
  2
STYLE
  5
3
100
AcDbSymbolTable
 70
1
  0
STYLE
  5
11
100
AcDbSymbolTableRecord
100
AcDbTextStyleTableRecord
  2
STANDARD
 70
0
 40
0.0
 41
0.6
 50
0.0
 71
0
 42
0.2
  3
txt
  4

  0
STYLE
  5
214
100
AcDbSymbolTableRecord
100
AcDbTextStyleTableRecord
  2
TEXTSTYLE_1
 70
0
 40
0.0
 41
0.8
 50
0.0
 71
0
 42
0.2
  3
gdt
  4

  0
ENDTAB
  0
TABLE
  2
VIEW
  5
6
100
AcDbSymbolTable
 70
0
  0
ENDTAB
  0
TABLE
  2
UCS
  5
7
100
AcDbSymbolTable
 70
0
  0
ENDTAB
  0
TABLE
  2
APPID
  5
9
100
AcDbSymbolTable
 70
1
  0
APPID
  5
215
100
AcDbSymbolTableRecord
100
AcDbRegAppTableRecord
  2
ACAD
 70
0
  0
ENDTAB
  0
TABLE
  2
BLOCK_RECORD
  5
1
100
AcDbSymbolTable
 70
0
  0
BLOCK_RECORD
  5
216
100
AcDbSymbolTableRecord
100
AcDbBlockTableRecord
  2
*Model_Space
  0
BLOCK_RECORD
  5
217
100
AcDbSymbolTableRecord
100
AcDbBlockTableRecord
  2
*Paper_Space
  0
BLOCK_RECORD
  5
218
100
AcDbSymbolTableRecord
100
AcDbBlockTableRecord
  2
_FILLED
  0
ENDTAB
  0
TABLE
  2
DIMSTYLE
  5
A
100
AcDbSymbolTable
 70
1
100
AcDbDimStyleTable
 71
0
  0
DIMSTYLE
105
219
100
AcDbSymbolTableRecord
100
AcDbDimStyleTableRecord
  2
STANDARD
 70
0
  3

  4

 40
1.0
 41
3.5
 42
1.0
 43
0.38
 44
3.0
 45
0.0
 46
0.0
 47
0.0001
 48
0.0001
140
4.0
141
0.09
142
0.0
143
25.4
144
1.0
145
0.0
146
1.0
147
0.625
 71
1.0
 72
0.0
 73
0
 74
0
 75
0
 76
0
 77
1
 78
8
 79
2
170
0
171
3
172
0
173
0
174
0
175
0
176
0
177
0
178
0
270
2
179
4
271
4
272
4
273
2
274
2
275
0
280
0
281
0
282
0
283
1
284
8
285
0
286
0
287
3
288
0
340
11
278
46
341
218
342
218
343
218
344
218
  0
ENDTAB
  0
ENDSEC
  0
SECTION
  2
BLOCKS
  0
BLOCK
  5
20
100
AcDbEntity
  8
0
100
AcDbBlockBegin
  2
*Model_Space
 70
0
 10
0.0
 20
0.0
 30
0.0
  3
*Model_Space
  1

  0
ENDBLK
  5
21
100
AcDbEntity
  8
0
100
AcDbBlockEnd
  0
BLOCK
  5
1C
100
AcDbEntity
  8
0
100
AcDbBlockBegin
  2
*Paper_Space
 70
0
 10
0.0
 20
0.0
 30
0.0
  3
*Paper_Space
  1

  0
ENDBLK
  5
1D
100
AcDbEntity
  8
0
100
AcDbBlockEnd
  0
BLOCK
  5
21A
100
AcDbEntity
  8
0
100
AcDbBlockBegin
  2
_FILLED
 70
64
 10
0.0
 20
0.0
  3
_FILLED
  1

  0
SOLID
  5
21B
100
AcDbEntity
  8
0
  6
BYBLOCK
 62
0
100
AcDbTrace
 10
0.0
 20
0.0
 11
-1.0
 21
0.2857142857
 12
-1.0
 22
-0.2857142857
 13
-1.0
 23
-0.2857142857
  0
ENDBLK
  5
21C
100
AcDbEntity
  8
0
  6
BYBLOCK
 62
0
100
AcDbBlockEnd
  0
ENDSEC
  0
SECTION
  2
ENTITIES
  0
LINE
  5
21D
100
AcDbEntity
  8
0
100
AcDbLine
 62
7
  6
CONTINUOUS
 10
71.6130801487
 20
248.271930549
 11
71.6581589321
 21
248.2918701856
  0
LINE
  5
21E
100
AcDbEntity
  8
0
100
AcDbLine
 62
7
  6
CONTINUOUS
 10
60.0720698775
 20
151.2353928474
 11
75.1672962452
 21
142.5168012545
  0
LINE
  5
21F
100
AcDbEntity
  8
0
100
AcDbLine
 62
7
  6
CONTINUOUS
 10
129.4108099033
 20
142.6186334419
 11
101.3117698016
 21
135.0863755165
  0
LINE
  5
220
100
AcDbEntity
  8
0
100
AcDbLine
 62
7
  6
CONTINUOUS
 10
131.0998681025
 20
144.4010762586
 11
103.0008272228
 21
136.8688187826
  0
LINE
  5
221
100
AcDbEntity
  8
0
100
AcDbLine
 62
9
  6
CONTINUOUS
 10
91.4306317726
 20
137.4520639744
 11
87.2622407089
 21
137.763010339
  0
LINE
  5
222
100
AcDbEntity
  8
0
100
AcDbLine
 62
7
  6
CONTINUOUS
 10
75.2455933735
 20
142.6523634911
 11
88.7299537264
 21
134.8641642323
  0
LINE
  5
223
100
AcDbEntity
  8
0
100
AcDbLine
 62
9
  6
CONTINUOUS
 10
73.7777811405
 20
145.3704879994
 11
58.6043568604
 21
154.1342445766
  0
LINE
  5
224
100
AcDbEntity
  8
0
100
AcDbLine
 62
9
  6
CONTINUOUS
 10
87.2622407089
 20
137.763010339
 11
73.7778803561
 21
145.5512095978
  0
LINE
  5
225
100
AcDbEntity
  8
0
100
AcDbLine
 62
7
  6
CONTINUOUS
 10
139.4923791123
 20
153.3750721562
 11
138.6850782171
 21
153.1586662572
  0
LINE
  5
226
100
AcDbEntity
  8
0
100
AcDbLine
 62
7
  6
CONTINUOUS
 10
136.8286220164
 20
152.6610227199
 11
136.0213211212
 21
152.4446168209
  0
LINE
  5
227
100
AcDbEntity
  8
0
100
AcDbLine
 62
7
  6
CONTINUOUS
 10
97.1785293169
 20
142.0323785453
 11
96.3712284217
 21
141.8159726463
  0
LINE
  5
228
100
AcDbEntity
  8
0
100
AcDbLine
 62
7
  6
CONTINUOUS
 10
94.5147722211
 20
141.318329109
 11
93.7074713259
 21
141.10192321
  0
LINE
  5
229
100
AcDbEntity
  8
0
100
AcDbLine
 62
7
  6
CONTINUOUS
 10
138.7604514104
 20
153.7978136608
 11
137.5621099612
 21
153.4765850332
  0
LINE
  5
22A
100
AcDbEntity
  8
0
100
AcDbLine
 62
7
  6
CONTINUOUS
 10
136.4877348687
 20
153.1885869532
 11
136.0213203647
 21
153.0635594069
  0
LINE
  5
22B
100
AcDbEntity
  8
0
100
AcDbLine
 62
7
  6
CONTINUOUS
 10
96.4466016151
 20
142.4551200499
 11
95.2482601658
 21
142.1338914223
  0
LINE
  5
22C
100
AcDbEntity
  8
0
100
AcDbLine
 62
7
  6
CONTINUOUS
 10
94.1738850733
 20
141.8458933423
 11
93.7074705694
 21
141.720865796
  0
LINE
  5
22D
100
AcDbEntity
  8
0
100
AcDbLine
 62
7
  6
CONTINUOUS
 10
93.7074699775
 20
142.2051243847
 11
94.5147708727
 21
142.4215302837
  0
LINE
  5
22E
100
AcDbEntity
  8
0
100
AcDbLine
 62
7
  6
CONTINUOUS
 10
96.3712270733
 20
142.9191738209
 11
97.1785279685
 21
143.1355797199
  0
LINE
  5
22F
100
AcDbEntity
  8
0
100
AcDbLine
 62
7
  6
CONTINUOUS
 10
136.0213197728
 20
153.5478179956
 11
136.828620668
 21
153.7642238946
  0
LINE
  5
230
100
AcDbEntity
  8
0
100
AcDbLine
 62
7
  6
CONTINUOUS
 10
138.6850768687
 20
154.2618674318
 11
139.4923777639
 21
154.4782733309
  0
LINE
  5
231
100
AcDbEntity
  8
0
100
AcDbLine
 62
7
  6
CONTINUOUS
 10
95.2482601658
 20
142.1338914223
 11
96.3712284217
 21
141.8159726463
  0
LINE
  5
232
100
AcDbEntity
  8
0
100
AcDbLine
 62
7
  6
CONTINUOUS
 10
96.3712270733
 20
142.9191738209
 11
95.2482588174
 21
143.2370925969
  0
LINE
  5
233
100
AcDbEntity
  8
0
100
AcDbLine
 62
7
  6
CONTINUOUS
 10
93.0957373712
 20
138.8552190176
 11
93.4424216763
 21
138.6549836058
  0
LINE
  5
234
100
AcDbEntity
  8
0
100
AcDbLine
 62
7
  6
CONTINUOUS
 10
58.8858675149
 20
163.6172341916
 11
58.6043568604
 21
163.779827078
  0
LINE
  5
235
100
AcDbEntity
  8
0
100
AcDbLine
 62
7
  6
CONTINUOUS
 10
96.4466016151
 20
142.4551200499
 11
97.1785293169
 21
142.0323785453
  0
LINE
  5
236
100
AcDbEntity
  8
0
100
AcDbLine
 62
7
  6
CONTINUOUS
 10
97.0486110956
 20
145.8106412296
 11
97.4435776181
 21
145.5825193242
  0
LINE
  5
237
100
AcDbEntity
  8
0
100
AcDbLine
 62
7
  6
CONTINUOUS
 10
58.6043568604
 20
154.1343228333
 11
58.6043568604
 21
163.779827078
  0
LINE
  5
238
100
AcDbEntity
  8
0
100
AcDbLine
 62
7
  6
CONTINUOUS
 10
58.6043568604
 20
229.0528250192
 11
58.6043568604
 21
238.6983292597
  0
LINE
  5
239
100
AcDbEntity
  8
0
100
AcDbLine
 62
7
  6
CONTINUOUS
 10
58.8858675149
 20
163.6172341916
 11
58.8858675149
 21
228.8902321328
  0
LINE
  5
23A
100
AcDbEntity
  8
0
100
AcDbLine
 62
7
  6
CONTINUOUS
 10
94.5147722211
 20
141.318329109
 11
94.1738850733
 21
141.8458933423
  0
LINE
  5
23B
100
AcDbEntity
  8
0
100
AcDbLine
 62
7
  6
CONTINUOUS
 10
137.5621099612
 20
153.4765850332
 11
138.6850782171
 21
153.1586662572
  0
LINE
  5
23C
100
AcDbEntity
  8
0
100
AcDbLine
 62
7
  6
CONTINUOUS
 10
138.6850768687
 20
154.2618674318
 11
137.5621086128
 21
154.5797862079
  0
LINE
  5
23D
100
AcDbEntity
  8
0
100
AcDbLine
 62
7
  6
CONTINUOUS
 10
73.7777811405
 20
145.3705662603
 11
73.7777769962
 21
230.1150261867
  0
LINE
  5
23E
100
AcDbEntity
  8
0
100
AcDbLine
 62
7
  6
CONTINUOUS
 10
111.3026538772
 20
159.6752650964
 11
114.5681774698
 21
157.7891876142
  0
LINE
  5
23F
100
AcDbEntity
  8
0
100
AcDbLine
 62
7
  6
CONTINUOUS
 10
58.6043568604
 20
163.779827078
 11
58.8858675149
 21
163.8552886846
  0
LINE
  5
240
100
AcDbEntity
  8
0
100
AcDbLine
 62
7
  6
CONTINUOUS
 10
135.4072612228
 20
150.1992560303
 11
135.7562714717
 21
149.9976772167
  0
LINE
  5
241
100
AcDbEntity
  8
0
100
AcDbLine
 62
7
  6
CONTINUOUS
 10
138.7604514104
 20
153.7978136608
 11
139.4923791123
 21
153.3750721562
  0
LINE
  5
242
100
AcDbEntity
  8
0
100
AcDbLine
 62
7
  6
CONTINUOUS
 10
139.3606821025
 20
157.1543622203
 11
139.7574274134
 21
156.9252129351
  0
LINE
  5
243
100
AcDbEntity
  8
0
100
AcDbLine
 62
7
  6
CONTINUOUS
 10
87.262137349
 20
222.3269051888
 11
87.2622407089
 21
137.763010339
  0
LINE
  5
244
100
AcDbEntity
  8
0
100
AcDbLine
 62
7
  6
CONTINUOUS
 10
91.4306317726
 20
137.4520639744
 11
91.4305284127
 21
222.0159588241
  0
LINE
  5
245
100
AcDbEntity
  8
0
100
AcDbLine
 62
7
  6
CONTINUOUS
 10
93.7074713259
 20
141.10192321
 11
93.7074699775
 21
142.2051243847
  0
LINE
  5
246
100
AcDbEntity
  8
0
100
AcDbLine
 62
7
  6
CONTINUOUS
 10
93.7073758135
 20
219.2453397486
 11
93.7073744651
 21
220.3485409233
  0
LINE
  5
247
100
AcDbEntity
  8
0
100
AcDbLine
 62
7
  6
CONTINUOUS
 10
94.5147758607
 20
138.3405349054
 11
94.5147722211
 21
141.318329109
  0
LINE
  5
248
100
AcDbEntity
  8
0
100
AcDbLine
 62
7
  6
CONTINUOUS
 10
94.5147708727
 20
142.4215302837
 11
94.5147676916
 21
145.0241351548
  0
LINE
  5
249
100
AcDbEntity
  8
0
100
AcDbLine
 62
7
  6
CONTINUOUS
 10
94.5146803484
 20
216.483951444
 11
94.5146767087
 21
219.4617456476
  0
LINE
  5
24A
100
AcDbEntity
  8
0
100
AcDbLine
 62
7
  6
CONTINUOUS
 10
94.5146753603
 20
220.5649468223
 11
94.5146721792
 21
223.1675516934
  0
LINE
  5
24B
100
AcDbEntity
  8
0
100
AcDbLine
 62
7
  6
CONTINUOUS
 10
95.24816058
 20
223.6100217475
 11
95.248163305
 21
221.3805091355
  0
LINE
  5
24C
100
AcDbEntity
  8
0
100
AcDbLine
 62
7
  6
CONTINUOUS
 10
95.2481646534
 20
220.2773079609
 11
95.2481684142
 21
217.2004484671
  0
LINE
  5
24D
100
AcDbEntity
  8
0
100
AcDbLine
 62
7
  6
CONTINUOUS
 10
95.2482560923
 20
145.4666052089
 11
95.2482588174
 21
143.2370925969
  0
LINE
  5
24E
100
AcDbEntity
  8
0
100
AcDbLine
 62
7
  6
CONTINUOUS
 10
95.2482601658
 20
142.1338914223
 11
95.2482639266
 21
139.0570319285
  0
LINE
  5
24F
100
AcDbEntity
  8
0
100
AcDbLine
 62
7
  6
CONTINUOUS
 10
96.371128026
 20
223.9547335181
 11
96.3711315609
 21
221.0625903595
  0
LINE
  5
250
100
AcDbEntity
  8
0
100
AcDbLine
 62
7
  6
CONTINUOUS
 10
96.3711329093
 20
219.9593891849
 11
96.371136549
 21
216.9815949812
  0
LINE
  5
251
100
AcDbEntity
  8
0
100
AcDbLine
 62
7
  6
CONTINUOUS
 10
96.3712235383
 20
145.8113169795
 11
96.3712270733
 21
142.9191738209
  0
LINE
  5
252
100
AcDbEntity
  8
0
100
AcDbLine
 62
7
  6
CONTINUOUS
 10
96.3712284217
 20
141.8159726463
 11
96.3712320614
 21
138.8381784427
  0
LINE
  5
253
100
AcDbEntity
  8
0
100
AcDbLine
 62
7
  6
CONTINUOUS
 10
96.4465055108
 20
221.0827951772
 11
96.4465061027
 21
220.5985365885
  0
LINE
  5
254
100
AcDbEntity
  8
0
100
AcDbLine
 62
7
  6
CONTINUOUS
 10
96.4466010232
 20
142.9393786386
 11
96.4466016151
 21
142.4551200499
  0
LINE
  5
255
100
AcDbEntity
  8
0
100
AcDbLine
 62
7
  6
CONTINUOUS
 10
97.1784324561
 20
221.2789962585
 11
97.1784338045
 21
220.1757950839
  0
LINE
  5
256
100
AcDbEntity
  8
0
100
AcDbLine
 62
7
  6
CONTINUOUS
 10
97.1785279685
 20
143.1355797199
 11
97.1785293169
 21
142.0323785453
  0
LINE
  5
257
100
AcDbEntity
  8
0
100
AcDbLine
 62
7
  6
CONTINUOUS
 10
99.3815427052
 20
253.6734021546
 11
99.3815427052
 21
255.8338286393
  0
LINE
  5
258
100
AcDbEntity
  8
0
100
AcDbLine
 62
7
  6
CONTINUOUS
 10
111.3026201667
 20
187.2552944631
 11
114.5681437596
 21
185.3692169807
  0
LINE
  5
259
100
AcDbEntity
  8
0
100
AcDbLine
 62
7
  6
CONTINUOUS
 10
102.0752259861
 20
256.4796526514
 11
102.0752259861
 21
256.6756527628
  0
LINE
  5
25A
100
AcDbEntity
  8
0
100
AcDbLine
 62
7
  6
CONTINUOUS
 10
125.5567719196
 20
184.3546110932
 11
128.8222955124
 21
182.4685336109
  0
LINE
  5
25B
100
AcDbEntity
  8
0
100
AcDbLine
 62
9
  6
CONTINUOUS
 10
108.389884913
 20
250.6308567054
 11
108.389884913
 21
248.4704302206
  0
LINE
  5
25C
100
AcDbEntity
  8
0
100
AcDbLine
 62
7
  6
CONTINUOUS
 10
58.8858675149
 20
228.8902321328
 11
58.6043568604
 21
229.0528250192
  0
LINE
  5
25D
100
AcDbEntity
  8
0
100
AcDbLine
 62
9
  6
CONTINUOUS
 10
92.3526040277
 20
223.5950197196
 11
90.0302728212
 21
227.0673279695
  0
LINE
  5
25E
100
AcDbEntity
  8
0
100
AcDbLine
 62
7
  6
CONTINUOUS
 10
136.8286220164
 20
152.6610227199
 11
136.4877348687
 21
153.1885869532
  0
LINE
  5
25F
100
AcDbEntity
  8
0
100
AcDbLine
 62
7
  6
CONTINUOUS
 10
94.5146767087
 20
219.4617456476
 11
94.173789561
 21
219.9893098809
  0
LINE
  5
260
100
AcDbEntity
  8
0
100
AcDbLine
 62
7
  6
CONTINUOUS
 10
93.0956418588
 20
216.9986355562
 11
93.4423261639
 21
216.7984001444
  0
LINE
  5
261
100
AcDbEntity
  8
0
100
AcDbLine
 62
9
  6
CONTINUOUS
 10
103.0007148553
 20
228.8022423071
 11
101.311647557
 21
232.5358025622
  0
LINE
  5
262
100
AcDbEntity
  8
0
100
AcDbLine
 62
9
  6
CONTINUOUS
 10
142.6699558993
 20
235.7512518686
 11
143.4602191085
 21
237.3914201408
  0
LINE
  5
263
100
AcDbEntity
  8
0
100
AcDbLine
 62
9
  6
CONTINUOUS
 10
58.6043568604
 20
238.6984075206
 11
73.7777811405
 21
229.9346509434
  0
LINE
  5
264
100
AcDbEntity
  8
0
100
AcDbLine
 62
9
  6
CONTINUOUS
 10
73.7777769961
 20
230.1151044475
 11
87.262137349
 21
222.3269051888
  0
LINE
  5
265
100
AcDbEntity
  8
0
100
AcDbLine
 62
7
  6
CONTINUOUS
 10
96.4465061027
 20
220.5985365885
 11
97.1784338045
 21
220.1757950839
  0
LINE
  5
266
100
AcDbEntity
  8
0
100
AcDbLine
 62
9
  6
CONTINUOUS
 10
100.0344224009
 20
232.0829773937
 11
102.1066578778
 21
228.4852655372
  0
LINE
  5
267
100
AcDbEntity
  8
0
100
AcDbLine
 62
7
  6
CONTINUOUS
 10
139.4922835999
 20
231.5184886948
 11
138.6849827047
 21
231.3020827958
  0
LINE
  5
268
100
AcDbEntity
  8
0
100
AcDbLine
 62
7
  6
CONTINUOUS
 10
136.8285265041
 20
230.8044392585
 11
136.0212256089
 21
230.5880333595
  0
LINE
  5
269
100
AcDbEntity
  8
0
100
AcDbLine
 62
7
  6
CONTINUOUS
 10
97.1784338045
 20
220.1757950839
 11
96.3711329093
 21
219.9593891849
  0
LINE
  5
26A
100
AcDbEntity
  8
0
100
AcDbLine
 62
7
  6
CONTINUOUS
 10
94.5146767087
 20
219.4617456476
 11
93.7073758135
 21
219.2453397486
  0
LINE
  5
26B
100
AcDbEntity
  8
0
100
AcDbLine
 62
7
  6
CONTINUOUS
 10
138.7603558981
 20
231.9412301994
 11
137.5620144488
 21
231.6200015718
  0
LINE
  5
26C
100
AcDbEntity
  8
0
100
AcDbLine
 62
7
  6
CONTINUOUS
 10
136.4876393563
 20
231.3320034918
 11
136.0212248524
 21
231.2069759455
  0
LINE
  5
26D
100
AcDbEntity
  8
0
100
AcDbLine
 62
7
  6
CONTINUOUS
 10
96.4465061027
 20
220.5985365885
 11
95.2481646534
 21
220.2773079609
  0
LINE
  5
26E
100
AcDbEntity
  8
0
100
AcDbLine
 62
7
  6
CONTINUOUS
 10
94.173789561
 20
219.9893098809
 11
93.707375057
 21
219.8642823346
  0
LINE
  5
26F
100
AcDbEntity
  8
0
100
AcDbLine
 62
9
  6
CONTINUOUS
 10
87.262137349
 20
222.3269051888
 11
91.4305284127
 21
222.0159588241
  0
LINE
  5
270
100
AcDbEntity
  8
0
100
AcDbLine
 62
7
  6
CONTINUOUS
 10
95.2481646534
 20
220.2773079609
 11
96.3711329093
 21
219.9593891849
  0
LINE
  5
271
100
AcDbEntity
  8
0
100
AcDbLine
 62
7
  6
CONTINUOUS
 10
96.3711315609
 20
221.0625903595
 11
95.248163305
 21
221.3805091355
  0
LINE
  5
272
100
AcDbEntity
  8
0
100
AcDbLine
 62
7
  6
CONTINUOUS
 10
124.7835926576
 20
212.327626929
 11
124.7909197884
 21
212.3251453725
  0
LINE
  5
273
100
AcDbEntity
  8
0
100
AcDbLine
 62
7
  6
CONTINUOUS
 10
124.7839118075
 20
212.3282664773
 11
124.7909197884
 21
212.3251453725
  0
LINE
  5
274
100
AcDbEntity
  8
0
100
AcDbLine
 62
9
  6
CONTINUOUS
 10
76.4042997424
 20
234.7568715378
 11
61.372491494
 21
243.4388345523
  0
LINE
  5
275
100
AcDbEntity
  8
0
100
AcDbLine
 62
9
  6
CONTINUOUS
 10
90.030267096
 20
227.0673350974
 11
76.5459067431
 21
234.8555343562
  0
LINE
  5
276
100
AcDbEntity
  8
0
100
AcDbLine
 62
7
  6
CONTINUOUS
 10
97.0485155833
 20
223.9540577682
 11
97.4434821057
 21
223.7259358628
  0
LINE
  5
277
100
AcDbEntity
  8
0
100
AcDbLine
 62
7
  6
CONTINUOUS
 10
93.7073744651
 20
220.3485409233
 11
94.5146753603
 21
220.5649468223
  0
LINE
  5
278
100
AcDbEntity
  8
0
100
AcDbLine
 62
7
  6
CONTINUOUS
 10
96.3711315609
 20
221.0625903595
 11
97.1784324561
 21
221.2789962585
  0
LINE
  5
279
100
AcDbEntity
  8
0
100
AcDbLine
 62
7
  6
CONTINUOUS
 10
136.0212242605
 20
231.6912345342
 11
136.8285251557
 21
231.9076404332
  0
LINE
  5
27A
100
AcDbEntity
  8
0
100
AcDbLine
 62
7
  6
CONTINUOUS
 10
138.6849813563
 20
232.4052839704
 11
139.4922822515
 21
232.6216898694
  0
LINE
  5
27B
100
AcDbEntity
  8
0
100
AcDbLine
 62
7
  6
CONTINUOUS
 10
125.5567382095
 20
211.9346404597
 11
128.8222618022
 21
210.0485629775
  0
LINE
  5
27C
100
AcDbEntity
  8
0
100
AcDbLine
 62
7
  6
CONTINUOUS
 10
136.0213211212
 20
152.4446168209
 11
136.0213197728
 21
153.5478179956
  0
LINE
  5
27D
100
AcDbEntity
  8
0
100
AcDbLine
 62
7
  6
CONTINUOUS
 10
136.0212256089
 20
230.5880333595
 11
136.0212242605
 21
231.6912345342
  0
LINE
  5
27E
100
AcDbEntity
  8
0
100
AcDbLine
 62
7
  6
CONTINUOUS
 10
103.0007148553
 20
228.8022423071
 11
131.0997557351
 21
236.3344997831
  0
LINE
  5
27F
100
AcDbEntity
  8
0
100
AcDbLine
 62
7
  6
CONTINUOUS
 10
101.311649914
 20
232.5357970379
 11
129.4106907938
 21
240.0680545139
  0
LINE
  5
280
100
AcDbEntity
  8
0
100
AcDbLine
 62
7
  6
CONTINUOUS
 10
71.6130801487
 20
248.2719305503
 11
71.3315694942
 21
248.4345234367
  0
LINE
  5
281
100
AcDbEntity
  8
0
100
AcDbLine
 62
9
  6
CONTINUOUS
 10
86.3732977794
 20
239.7928066817
 11
71.6581588241
 21
248.2918701378
  0
LINE
  5
282
100
AcDbEntity
  8
0
100
AcDbLine
 62
9
  6
CONTINUOUS
 10
86.5512316097
 20
239.8704988986
 11
100.0344216462
 21
232.0829755828
  0
LINE
  5
283
100
AcDbEntity
  8
0
100
AcDbLine
 62
9
  6
CONTINUOUS
 10
72.9353879548
 20
248.7446873446
 11
87.8138516693
 21
240.1512919561
  0
LINE
  5
284
100
AcDbEntity
  8
0
100
AcDbLine
 62
9
  6
CONTINUOUS
 10
88.1083596444
 20
240.1616578723
 11
101.311649914
 21
232.5357970379
  0
LINE
  5
285
100
AcDbEntity
  8
0
100
AcDbLine
 62
7
  6
CONTINUOUS
 10
83.5966130514
 20
243.9847867993
 11
74.5882736605
 21
249.187759068
  0
LINE
  5
286
100
AcDbEntity
  8
0
100
AcDbLine
 62
7
  6
CONTINUOUS
 10
136.8286256561
 20
149.6832285163
 11
136.8286220164
 21
152.6610227199
  0
LINE
  5
287
100
AcDbEntity
  8
0
100
AcDbLine
 62
7
  6
CONTINUOUS
 10
136.828620668
 20
153.7642238946
 11
136.8286174856
 21
156.3679558055
  0
LINE
  5
288
100
AcDbEntity
  8
0
100
AcDbLine
 62
7
  6
CONTINUOUS
 10
136.8285301437
 20
227.8266450549
 11
136.8285265041
 21
230.8044392585
  0
LINE
  5
289
100
AcDbEntity
  8
0
100
AcDbLine
 62
7
  6
CONTINUOUS
 10
136.8285251557
 20
231.9076404332
 11
136.8285219746
 21
234.5102453043
  0
LINE
  5
28A
100
AcDbEntity
  8
0
100
AcDbLine
 62
7
  6
CONTINUOUS
 10
137.5620103753
 20
234.9527153584
 11
137.5620131004
 21
232.7232027464
  0
LINE
  5
28B
100
AcDbEntity
  8
0
100
AcDbLine
 62
7
  6
CONTINUOUS
 10
137.5620144488
 20
231.6200015718
 11
137.5620182096
 21
228.543142078
  0
LINE
  5
28C
100
AcDbEntity
  8
0
100
AcDbLine
 62
7
  6
CONTINUOUS
 10
137.5621058864
 20
156.8103263211
 11
137.5621086128
 21
154.5797862079
  0
LINE
  5
28D
100
AcDbEntity
  8
0
100
AcDbLine
 62
7
  6
CONTINUOUS
 10
137.5621099612
 20
153.4765850332
 11
137.5621137219
 21
150.3997255394
  0
LINE
  5
28E
100
AcDbEntity
  8
0
100
AcDbLine
 62
7
  6
CONTINUOUS
 10
138.6849778213
 20
235.297427129
 11
138.6849813563
 21
232.4052839704
  0
LINE
  5
28F
100
AcDbEntity
  8
0
100
AcDbLine
 62
7
  6
CONTINUOUS
 10
138.6849827047
 20
231.3020827958
 11
138.6849863444
 21
228.3242885921
  0
LINE
  5
290
100
AcDbEntity
  8
0
100
AcDbLine
 62
7
  6
CONTINUOUS
 10
138.6850733324
 20
157.1550371058
 11
138.6850768687
 21
154.2618674318
  0
LINE
  5
291
100
AcDbEntity
  8
0
100
AcDbLine
 62
7
  6
CONTINUOUS
 10
138.6850782171
 20
153.1586662572
 11
138.6850818568
 21
150.1808720536
  0
LINE
  5
292
100
AcDbEntity
  8
0
100
AcDbLine
 62
7
  6
CONTINUOUS
 10
138.7603553062
 20
232.4254887881
 11
138.7603558981
 21
231.9412301994
  0
LINE
  5
293
100
AcDbEntity
  8
0
100
AcDbLine
 62
7
  6
CONTINUOUS
 10
138.7604508186
 20
154.2820722495
 11
138.7604514104
 21
153.7978136608
  0
LINE
  5
294
100
AcDbEntity
  8
0
100
AcDbLine
 62
7
  6
CONTINUOUS
 10
139.4922822515
 20
232.6216898694
 11
139.4922835999
 21
231.5184886948
  0
LINE
  5
295
100
AcDbEntity
  8
0
100
AcDbLine
 62
7
  6
CONTINUOUS
 10
139.4923777639
 20
154.4782733309
 11
139.4923791123
 21
153.3750721562
  0
LINE
  5
296
100
AcDbEntity
  8
0
100
AcDbLine
 62
7
  6
CONTINUOUS
 10
142.6699558993
 20
235.7512518686
 11
142.6700592592
 21
151.1873570188
  0
LINE
  5
297
100
AcDbEntity
  8
0
100
AcDbLine
 62
7
  6
CONTINUOUS
 10
143.4603224684
 20
152.827525291
 11
143.4602191085
 21
237.3914201408
  0
LINE
  5
298
100
AcDbEntity
  8
0
100
AcDbLine
 62
9
  6
CONTINUOUS
 10
101.3117666666
 20
135.0863731643
 11
103.0008272228
 21
136.8688187826
  0
LINE
  5
299
100
AcDbEntity
  8
0
100
AcDbLine
 62
9
  6
CONTINUOUS
 10
100.0345407169
 20
134.8544452427
 11
102.1067690942
 21
136.7064670743
  0
LINE
  5
29A
100
AcDbEntity
  8
0
100
AcDbLine
 62
9
  6
CONTINUOUS
 10
90.0303772778
 20
134.5066338765
 11
92.3527106442
 21
136.3673519204
  0
LINE
  5
29B
100
AcDbEntity
  8
0
100
AcDbLine
 62
7
  6
CONTINUOUS
 10
137.5620144488
 20
231.6200015718
 11
138.6849827047
 21
231.3020827958
  0
LINE
  5
29C
100
AcDbEntity
  8
0
100
AcDbLine
 62
9
  6
CONTINUOUS
 10
129.4106884368
 20
240.0680600382
 11
131.0997557351
 21
236.3344997831
  0
LINE
  5
29D
100
AcDbEntity
  8
0
100
AcDbLine
 62
9
  6
CONTINUOUS
 10
130.6879200604
 20
240.299986093
 11
131.9938185792
 21
236.4968487672
  0
LINE
  5
29E
100
AcDbEntity
  8
0
100
AcDbLine
 62
7
  6
CONTINUOUS
 10
138.6849813563
 20
232.4052839704
 11
137.5620131004
 21
232.7232027464
  0
LINE
  5
29F
100
AcDbEntity
  8
0
100
AcDbLine
 62
7
  6
CONTINUOUS
 10
135.4094916542
 20
228.3413291671
 11
135.7561759593
 21
228.1410937553
  0
LINE
  5
2A0
100
AcDbEntity
  8
0
100
AcDbLine
 62
7
  6
CONTINUOUS
 10
99.3815427052
 20
253.6734021546
 11
108.389884913
 21
248.4704302206
  0
LINE
  5
2A1
100
AcDbEntity
  8
0
100
AcDbLine
 62
7
  6
CONTINUOUS
 10
138.7603558981
 20
231.9412301994
 11
139.4922835999
 21
231.5184886948
  0
LINE
  5
2A2
100
AcDbEntity
  8
0
100
AcDbLine
 62
7
  6
CONTINUOUS
 10
136.8285265041
 20
230.8044392585
 11
136.4876393563
 21
231.3320034918
  0
LINE
  5
2A3
100
AcDbEntity
  8
0
100
AcDbLine
 62
9
  6
CONTINUOUS
 10
140.6920791037
 20
240.6477985951
 11
141.7478773877
 21
236.8359522055
  0
LINE
  5
2A4
100
AcDbEntity
  8
0
100
AcDbLine
 62
7
  6
CONTINUOUS
 10
99.3815427052
 20
255.8338304845
 11
108.3898849434
 21
250.630858533
  0
LINE
  5
2A5
100
AcDbEntity
  8
0
100
AcDbLine
 62
9
  6
CONTINUOUS
 10
116.1177018223
 20
247.5652146743
 11
101.0344288334
 21
256.2769023211
  0
LINE
  5
2A6
100
AcDbEntity
  8
0
100
AcDbLine
 62
9
  6
CONTINUOUS
 10
116.2199099927
 20
247.6866902199
 11
129.4106907938
 21
240.0680545139
  0
LINE
  5
2A7
100
AcDbEntity
  8
0
100
AcDbLine
 62
9
  6
CONTINUOUS
 10
102.3116579642
 20
256.5088319308
 11
116.9720996447
 21
248.0413601308
  0
LINE
  5
2A8
100
AcDbEntity
  8
0
100
AcDbLine
 62
7
  6
CONTINUOUS
 10
102.0752259861
 20
256.675652984
 11
102.3567366407
 21
256.5130600976
  0
LINE
  5
2A9
100
AcDbEntity
  8
0
100
AcDbLine
 62
9
  6
CONTINUOUS
 10
130.6879200597
 20
240.2999860926
 11
117.204222713
 21
248.0878024171
  0
LINE
  5
2AA
100
AcDbEntity
  8
0
100
AcDbLine
 62
7
  6
CONTINUOUS
 10
139.3623653787
 20
235.2967513791
 11
139.7573319011
 21
235.0686294737
  0
LINE
  5
2AB
100
AcDbEntity
  8
0
100
AcDbLine
 62
9
  6
CONTINUOUS
 10
143.4603224684
 20
152.827525291
 11
142.6700592592
 21
151.1873570188
  0
LINE
  5
2AC
100
AcDbEntity
  8
0
100
AcDbLine
 62
9
  6
CONTINUOUS
 10
141.747980198
 20
149.6082981106
 11
140.6921922363
 21
148.0870915126
  0
LINE
  5
2AD
100
AcDbEntity
  8
0
100
AcDbLine
 62
9
  6
CONTINUOUS
 10
130.6880404819
 20
143.0714513156
 11
131.9939314941
 21
144.718048747
  0
LINE
  5
2AE
100
AcDbEntity
  8
0
100
AcDbLine
 62
9
  6
CONTINUOUS
 10
131.0998681025
 20
144.4010762586
 11
129.4108075463
 21
142.6186306403
  0
LINE
  5
2AF
100
AcDbEntity
  8
0
100
AcDbLine
 62
7
  6
CONTINUOUS
 10
77.1430816862
 20
247.7121713117
 11
99.3815427052
 21
253.6734021546
  0
LINE
  5
2B0
100
AcDbEntity
  8
0
100
AcDbLine
 62
7
  6
CONTINUOUS
 10
72.9353879548
 20
248.7446953562
 11
74.5882741345
 21
249.1877573499
  0
LINE
  5
2B1
100
AcDbEntity
  8
0
100
AcDbLine
 62
7
  6
CONTINUOUS
 10
99.3815427052
 20
255.8338286393
 11
101.034428834
 21
256.2769089943
  0
LINE
  5
2B2
100
AcDbEntity
  8
0
100
AcDbLine
 62
9
  6
CONTINUOUS
 10
112.0343040024
 20
257.0192149835
 11
126.8876042952
 21
248.4403533022
  0
LINE
  5
2B3
100
AcDbEntity
  8
0
100
AcDbLine
 62
9
  6
CONTINUOUS
 10
127.2077192509
 20
248.435991412
 11
140.6920770209
 21
240.6477936453
  0
LINE
  5
2B4
100
AcDbEntity
  8
0
100
AcDbLine
 62
7
  6
CONTINUOUS
 10
127.7186336058
 20
248.3539357276
 11
113.3347255298
 21
256.6616892497
  0
LINE
  5
2B5
100
AcDbEntity
  8
0
100
AcDbLine
 62
7
  6
CONTINUOUS
 10
128.5081456651
 20
248.0784655525
 11
141.992506018
 21
240.2902662937
  0
LINE
  5
2B6
100
AcDbEntity
  8
0
100
AcDbLine
 62
7
  6
CONTINUOUS
 10
102.311657781
 20
256.5088305752
 11
102.3567366407
 21
256.513059877
  0
ARC
  5
2B7
100
AcDbEntity
  8
0
100
AcDbCircle
 62
7
  6
CONTINUOUS
 10
110.1464311341
 20
170.3893481695
 40
86.6629719829
100
AcDbArc
 50
94.5302946894
 51
95.3438871365
  0
ARC
  5
2B8
100
AcDbEntity
  8
0
100
AcDbCircle
 62
7
  6
CONTINUOUS
 10
110.0758653774
 20
171.283192345
 40
85.7663467156
100
AcDbArc
 50
93.6029028421
 51
94.5304657511
  0
ARC
  5
2B9
100
AcDbEntity
  8
0
100
AcDbCircle
 62
7
  6
CONTINUOUS
 10
110.017340567
 20
172.2121690112
 40
84.8355283667
100
AcDbArc
 50
92.6685458536
 51
93.6028817445
  0
ARC
  5
2BA
100
AcDbEntity
  8
0
100
AcDbCircle
 62
7
  6
CONTINUOUS
 10
99.2511526215
 20
142.7529391144
 40
7.9386660638
100
AcDbArc
 50
280.3045914847
 51
285.0443798138
  0
ARC
  5
2BB
100
AcDbEntity
  8
0
100
AcDbCircle
 62
7
  6
CONTINUOUS
 10
99.3353445816
 20
142.2711735687
 40
7.4496114599
100
AcDbArc
 50
275.3855202649
 51
280.3303161566
  0
ARC
  5
2BC
100
AcDbEntity
  8
0
100
AcDbCircle
 62
7
  6
CONTINUOUS
 10
93.8801670987
 20
141.9591884761
 40
3.2046276055
100
AcDbArc
 50
281.419351188
 51
285.0275940271
  0
ARC
  5
2BD
100
AcDbEntity
  8
0
100
AcDbCircle
 62
7
  6
CONTINUOUS
 10
76.5432847919
 20
144.7187277292
 40
2.5949261948
100
AcDbArc
 50
237.896230766
 51
239.9917423475
  0
ARC
  5
2BE
100
AcDbEntity
  8
0
100
AcDbCircle
 62
7
  6
CONTINUOUS
 10
76.5428998233
 20
144.7180927675
 40
2.5941837339
100
AcDbArc
 50
236.5092237667
 51
237.8959800606
  0
ARC
  5
2BF
100
AcDbEntity
  8
0
100
AcDbCircle
 62
7
  6
CONTINUOUS
 10
94.6174997385
 20
140.6842598572
 40
2.3449445717
100
AcDbArc
 50
225.9646217447
 51
239.9264708173
  0
ARC
  5
2C0
100
AcDbEntity
  8
0
100
AcDbCircle
 62
7
  6
CONTINUOUS
 10
96.2731339572
 20
143.5597120339
 40
2.3370242196
100
AcDbArc
 50
47.8995480032
 51
59.9453207327
  0
ARC
  5
2C1
100
AcDbEntity
  8
0
100
AcDbCircle
 62
7
  6
CONTINUOUS
 10
83.966920919
 20
248.6375007938
 40
115.4433635815
100
AcDbArc
 50
295.3228150199
 51
296.0836829968
  0
ARC
  5
2C2
100
AcDbEntity
  8
0
100
AcDbCircle
 62
7
  6
CONTINUOUS
 10
84.5107306386
 20
247.4882406517
 40
114.1719360825
100
AcDbArc
 50
294.5563106372
 51
295.3228164049
  0
ARC
  5
2C3
100
AcDbEntity
  8
0
100
AcDbCircle
 62
7
  6
CONTINUOUS
 10
84.8967703386
 20
246.6460472412
 40
113.2454830964
100
AcDbArc
 50
294.2028986016
 51
294.5557446204
  0
ARC
  5
2C4
100
AcDbEntity
  8
0
100
AcDbCircle
 62
7
  6
CONTINUOUS
 10
85.1348578687
 20
246.1163506343
 40
112.6647386025
100
AcDbArc
 50
293.848840975
 51
294.2028984971
  0
ARC
  5
2C5
100
AcDbEntity
  8
0
100
AcDbCircle
 62
7
  6
CONTINUOUS
 10
86.7988084874
 20
246.8980890768
 40
111.7290945991
100
AcDbArc
 50
294.5570156318
 51
296.0872066723
  0
ARC
  5
2C6
100
AcDbEntity
  8
0
100
AcDbCircle
 62
7
  6
CONTINUOUS
 10
87.4641532065
 20
245.4457553141
 40
110.1316108165
100
AcDbArc
 50
293.8492981053
 51
294.5561961071
  0
ARC
  5
2C7
100
AcDbEntity
  8
0
100
AcDbCircle
 62
7
  6
CONTINUOUS
 10
91.8969790129
 20
221.371559959
 40
86.8989711189
100
AcDbArc
 50
274.9522998116
 51
275.3732744934
  0
ARC
  5
2C8
100
AcDbEntity
  8
0
100
AcDbCircle
 62
7
  6
CONTINUOUS
 10
91.9350672746
 20
220.9320308071
 40
86.4577947471
100
AcDbArc
 50
274.529892198
 51
274.9522977406
  0
ARC
  5
2C9
100
AcDbEntity
  8
0
100
AcDbCircle
 62
7
  6
CONTINUOUS
 10
91.9886711456
 20
220.2429129968
 40
85.7665959807
100
AcDbArc
 50
273.6029927154
 51
274.5305532539
  0
ARC
  5
2CA
100
AcDbEntity
  8
0
100
AcDbCircle
 62
7
  6
CONTINUOUS
 10
92.0472001101
 20
219.3139252198
 40
84.8357662818
100
AcDbArc
 50
272.6686366808
 51
273.6029702754
  0
ARC
  5
2CB
100
AcDbEntity
  8
0
100
AcDbCircle
 62
7
  6
CONTINUOUS
 10
94.1919538756
 20
220.8470299687
 40
84.5120028393
100
AcDbArc
 50
274.5304345313
 51
275.3738053315
  0
ARC
  5
2CC
100
AcDbEntity
  8
0
100
AcDbCircle
 62
7
  6
CONTINUOUS
 10
94.3039515132
 20
219.3536127101
 40
83.0144054378
100
AcDbArc
 50
272.6694763502
 51
274.5347932798
  0
ARC
  5
2CD
100
AcDbEntity
  8
0
100
AcDbCircle
 62
7
  6
CONTINUOUS
 10
75.3488323861
 20
239.9476171951
 40
9.1240138378
100
AcDbArc
 50
109.5554748428
 51
113.8598660454
  0
ARC
  5
2CE
100
AcDbEntity
  8
0
100
AcDbCircle
 62
7
  6
CONTINUOUS
 10
103.6896967307
 20
223.8277474243
 40
9.0282793428
100
AcDbArc
 50
109.5328889311
 51
113.8829505788
  0
ARC
  5
2CF
100
AcDbEntity
  8
0
100
AcDbCircle
 62
7
  6
CONTINUOUS
 10
75.1572564216
 20
240.4770536405
 40
8.560992876
100
AcDbArc
 50
105.0424113683
 51
109.5333033485
  0
ARC
  5
2D0
100
AcDbEntity
  8
0
100
AcDbCircle
 62
7
  6
CONTINUOUS
 10
103.5059848748
 20
224.3565767007
 40
8.468461461
100
AcDbArc
 50
105.0177599939
 51
109.5577448644
  0
ARC
  5
2D1
100
AcDbEntity
  8
0
100
AcDbCircle
 62
7
  6
CONTINUOUS
 10
78.4287612026
 20
229.9343037674
 40
4.6509800698
100
AcDbArc
 50
177.831375677
 51
179.9966871616
  0
ARC
  5
2D2
100
AcDbEntity
  8
0
100
AcDbCircle
 62
7
  6
CONTINUOUS
 10
88.3137920145
 20
235.6410545342
 40
4.5820124201
100
AcDbArc
 50
112.6232279426
 51
113.8953869757
  0
ARC
  5
2D3
100
AcDbEntity
  8
0
100
AcDbCircle
 62
7
  6
CONTINUOUS
 10
93.8800715863
 20
220.1026050146
 40
3.2046276055
100
AcDbArc
 50
281.4193511879
 51
285.0275940271
  0
ARC
  5
2D4
100
AcDbEntity
  8
0
100
AcDbCircle
 62
7
  6
CONTINUOUS
 10
94.6174042261
 20
218.8276763958
 40
2.3449445717
100
AcDbArc
 50
225.9646217447
 51
239.9264708173
  0
ARC
  5
2D5
100
AcDbEntity
  8
0
100
AcDbCircle
 62
7
  6
CONTINUOUS
 10
96.2730384449
 20
221.7031285725
 40
2.3370242196
100
AcDbArc
 50
47.8995480032
 51
59.9453207328
  0
ARC
  5
2D6
100
AcDbEntity
  8
0
100
AcDbCircle
 62
7
  6
CONTINUOUS
 10
133.2710180287
 20
134.3054622535
 40
115.4429936437
100
AcDbArc
 50
115.3228137618
 51
116.0836841786
  0
ARC
  5
2D7
100
AcDbEntity
  8
0
100
AcDbCircle
 62
7
  6
CONTINUOUS
 10
118.0974196792
 20
142.8887987429
 40
115.4428720618
100
AcDbArc
 50
115.3227405529
 51
116.0836115013
  0
ARC
  5
2D8
100
AcDbEntity
  8
0
100
AcDbCircle
 62
7
  6
CONTINUOUS
 10
146.7552180786
 20
126.5175962082
 40
115.4426238836
100
AcDbArc
 50
115.3228125814
 51
116.0836854355
  0
ARC
  5
2D9
100
AcDbEntity
  8
0
100
AcDbCircle
 62
7
  6
CONTINUOUS
 10
132.727217223
 20
135.4547147465
 40
114.1715768715
100
AcDbArc
 50
114.5563093575
 51
115.3228175345
  0
ARC
  5
2DA
100
AcDbEntity
  8
0
100
AcDbCircle
 62
7
  6
CONTINUOUS
 10
117.5536203916
 20
144.0380518143
 40
114.171455416
100
AcDbArc
 50
114.5562356013
 51
115.3227443231
  0
ARC
  5
2DB
100
AcDbEntity
  8
0
100
AcDbCircle
 62
7
  6
CONTINUOUS
 10
146.211426332
 20
127.6668410715
 40
114.1712178826
100
AcDbArc
 50
114.5563082249
 51
115.3228188126
  0
ARC
  5
2DC
100
AcDbEntity
  8
0
100
AcDbCircle
 62
7
  6
CONTINUOUS
 10
132.341275065
 20
136.2967011981
 40
113.2453526663
100
AcDbArc
 50
114.2028982752
 51
114.5557447003
  0
ARC
  5
2DD
100
AcDbEntity
  8
0
100
AcDbCircle
 62
7
  6
CONTINUOUS
 10
145.8255818029
 20
128.5086208362
 40
113.2452222401
100
AcDbArc
 50
114.2028981952
 51
114.5557450267
  0
ARC
  5
2DE
100
AcDbEntity
  8
0
100
AcDbCircle
 62
7
  6
CONTINUOUS
 10
117.0564405435
 20
145.1254473621
 40
112.9757895828
100
AcDbArc
 50
113.8743083403
 51
114.5560807787
  0
ARC
  5
2DF
100
AcDbEntity
  8
0
100
AcDbCircle
 62
7
  6
CONTINUOUS
 10
132.1203641807
 20
136.7879903881
 40
112.7066814486
100
AcDbArc
 50
113.900241824
 51
114.2028579835
  0
ARC
  5
2E0
100
AcDbEntity
  8
0
100
AcDbCircle
 62
7
  6
CONTINUOUS
 10
145.5874972192
 20
129.0383147865
 40
112.664481377
100
AcDbArc
 50
113.8488405709
 51
114.2028989013
  0
ARC
  5
2E1
100
AcDbEntity
  8
0
100
AcDbCircle
 62
7
  6
CONTINUOUS
 10
147.3017792068
 20
126.3052267191
 40
111.7290946512
100
AcDbArc
 50
114.5570156321
 51
116.0872066721
  0
ARC
  5
2E2
100
AcDbEntity
  8
0
100
AcDbCircle
 62
7
  6
CONTINUOUS
 10
146.6364344844
 20
127.7575604866
 40
110.1316108627
100
AcDbArc
 50
113.8492981054
 51
114.556196107
  0
ARC
  5
2E3
100
AcDbEntity
  8
0
100
AcDbCircle
 62
7
  6
CONTINUOUS
 10
138.82547003
 20
153.7829897697
 40
86.8988513851
100
AcDbArc
 50
94.9522995219
 51
95.3732747834
  0
ARC
  5
2E4
100
AcDbEntity
  8
0
100
AcDbCircle
 62
7
  6
CONTINUOUS
 10
125.3404463804
 20
161.5786338104
 40
86.8913771352
100
AcDbArc
 50
94.9522875606
 51
95.359026606
  0
ARC
  5
2E5
100
AcDbEntity
  8
0
100
AcDbCircle
 62
7
  6
CONTINUOUS
 10
125.3030275546
 20
162.0106569544
 40
86.4577365406
100
AcDbArc
 50
94.5298921722
 51
94.952298
  0
ARC
  5
2E6
100
AcDbEntity
  8
0
100
AcDbCircle
 62
7
  6
CONTINUOUS
 10
138.7873829033
 20
154.2225159114
 40
86.4576781102
100
AcDbArc
 50
94.5298919137
 51
94.9522980265
  0
ARC
  5
2E7
100
AcDbEntity
  8
0
100
AcDbCircle
 62
7
  6
CONTINUOUS
 10
125.2494173671
 20
162.699875795
 40
85.7664365536
100
AcDbArc
 50
93.6029920932
 51
94.5305543543
  0
ARC
  5
2E8
100
AcDbEntity
  8
0
100
AcDbCircle
 62
7
  6
CONTINUOUS
 10
138.7337660753
 20
154.9118353672
 40
85.7662773049
100
AcDbArc
 50
93.6029909974
 51
94.5305549802
  0
ARC
  5
2E9
100
AcDbEntity
  8
0
100
AcDbCircle
 62
7
  6
CONTINUOUS
 10
125.1908909782
 20
163.6288545935
 40
84.8356159773
100
AcDbArc
 50
92.6686357495
 51
93.6029710014
  0
ARC
  5
2EA
100
AcDbEntity
  8
0
100
AcDbCircle
 62
7
  6
CONTINUOUS
 10
138.6752432812
 20
155.8408050152
 40
84.8354660868
100
AcDbArc
 50
92.6686350249
 51
93.6029719282
  0
ARC
  5
2EB
100
AcDbEntity
  8
0
100
AcDbCircle
 62
7
  6
CONTINUOUS
 10
139.9086337925
 20
152.3562859205
 40
84.5120027929
100
AcDbArc
 50
94.5304345313
 51
95.3738053318
  0
ARC
  5
2EC
100
AcDbEntity
  8
0
100
AcDbCircle
 62
7
  6
CONTINUOUS
 10
139.7966361609
 20
153.8497030985
 40
83.0144054723
100
AcDbArc
 50
92.6694763506
 51
94.5347932795
  0
ARC
  5
2ED
100
AcDbEntity
  8
0
100
AcDbCircle
 62
7
  6
CONTINUOUS
 10
121.888345298
 20
168.8417452838
 40
15.2356719251
100
AcDbArc
 50
174.3248892123
 51
178.482230923
  0
ARC
  5
2EE
100
AcDbEntity
  8
0
100
AcDbCircle
 62
7
  6
CONTINUOUS
 10
119.1185251471
 20
172.8155324214
 40
13.1175070305
100
AcDbArc
 50
357.969421323
 51
358.4929254369
  0
ARC
  5
2EF
100
AcDbEntity
  8
0
100
AcDbCircle
 62
7
  6
CONTINUOUS
 10
127.032729265
 20
151.3267693344
 40
9.0283727099
100
AcDbArc
 50
289.5329121817
 51
293.882928778
  0
ARC
  5
2F0
100
AcDbEntity
  8
0
100
AcDbCircle
 62
7
  6
CONTINUOUS
 10
127.2162823724
 20
150.7984744201
 40
8.4691115038
100
AcDbArc
 50
285.017935036
 51
289.5575712088
  0
ARC
  5
2F1
100
AcDbEntity
  8
0
100
AcDbCircle
 62
7
  6
CONTINUOUS
 10
115.4486043811
 20
166.8458691147
 40
8.2830386657
100
AcDbArc
 50
233.0151640961
 51
233.9630089191
  0
ARC
  5
2F2
100
AcDbEntity
  8
0
100
AcDbCircle
 62
7
  6
CONTINUOUS
 10
120.7277894535
 20
177.5466564644
 40
8.2636221649
100
AcDbArc
 50
60.6087514627
 51
69.974090864
  0
ARC
  5
2F3
100
AcDbEntity
  8
0
100
AcDbCircle
 62
7
  6
CONTINUOUS
 10
115.4322703766
 20
166.8232341133
 40
8.2551257426
100
AcDbArc
 50
233.9622589573
 51
239.374527725
  0
ARC
  5
2F4
100
AcDbEntity
  8
0
100
AcDbCircle
 62
7
  6
CONTINUOUS
 10
121.4327011965
 20
177.2130593891
 40
8.2467950739
100
AcDbArc
 50
60.5981045036
 51
66.0068351969
  0
ARC
  5
2F5
100
AcDbEntity
  8
0
100
AcDbCircle
 62
7
  6
CONTINUOUS
 10
115.4200034483
 20
166.8036110741
 40
8.2319907615
100
AcDbArc
 50
239.3784214756
 51
239.9891677789
  0
ARC
  5
2F6
100
AcDbEntity
  8
0
100
AcDbCircle
 62
7
  6
CONTINUOUS
 10
121.4401436765
 20
177.2275115448
 40
8.2305506578
100
AcDbArc
 50
59.989176143
 51
60.593849978
  0
ARC
  5
2F7
100
AcDbEntity
  8
0
100
AcDbCircle
 62
7
  6
CONTINUOUS
 10
136.1940168941
 20
153.301882087
 40
3.2046276055
100
AcDbArc
 50
281.419351188
 51
285.0275940271
  0
ARC
  5
2F8
100
AcDbEntity
  8
0
100
AcDbCircle
 62
7
  6
CONTINUOUS
 10
136.9322201685
 20
152.0281472929
 40
2.3464139771
100
AcDbArc
 50
225.6228088598
 51
239.9226812275
  0
ARC
  5
2F9
100
AcDbEntity
  8
0
100
AcDbCircle
 62
7
  6
CONTINUOUS
 10
138.5869911918
 20
154.9024161927
 40
2.3370113641
100
AcDbArc
 50
47.9028267236
 51
59.9453490826
  0
ARC
  5
2FA
100
AcDbEntity
  8
0
100
AcDbCircle
 62
7
  6
CONTINUOUS
 10
121.6038704716
 20
196.4347746578
 40
14.9509955439
100
AcDbArc
 50
175.5691835833
 51
179.987388972
  0
ARC
  5
2FB
100
AcDbEntity
  8
0
100
AcDbCircle
 62
7
  6
CONTINUOUS
 10
119.3863680135
 20
200.3917029155
 40
12.8495930145
100
AcDbArc
 50
359.4433791545
 51
359.9996454606
  0
ARC
  5
2FC
100
AcDbEntity
  8
0
100
AcDbCircle
 62
7
  6
CONTINUOUS
 10
121.4304143449
 20
204.7888793713
 40
8.251563614
100
AcDbArc
 50
60.603168001
 51
65.967372252
  0
ARC
  5
2FD
100
AcDbEntity
  8
0
100
AcDbCircle
 62
7
  6
CONTINUOUS
 10
115.428466331
 20
194.3975039623
 40
8.2482493362
100
AcDbArc
 50
233.9704799848
 51
239.3808309274
  0
ARC
  5
2FE
100
AcDbEntity
  8
0
100
AcDbCircle
 62
7
  6
CONTINUOUS
 10
121.4390164593
 20
204.8051356335
 40
8.2331781111
100
AcDbArc
 50
59.990958472
 51
60.5997930814
  0
ARC
  5
2FF
100
AcDbEntity
  8
0
100
AcDbCircle
 62
7
  6
CONTINUOUS
 10
115.420073237
 20
194.3843317357
 40
8.2326388581
100
AcDbArc
 50
239.3844071615
 51
239.9909502714
  0
ARC
  5
300
100
AcDbEntity
  8
0
100
AcDbCircle
 62
7
  6
CONTINUOUS
 10
136.1939213817
 20
231.4452986256
 40
3.2046276056
100
AcDbArc
 50
281.419351188
 51
285.0275940271
  0
ARC
  5
301
100
AcDbEntity
  8
0
100
AcDbCircle
 62
7
  6
CONTINUOUS
 10
136.9312540215
 20
230.1703700067
 40
2.3449445717
100
AcDbArc
 50
225.9646217447
 51
239.9264708173
  0
ARC
  5
302
100
AcDbEntity
  8
0
100
AcDbCircle
 62
7
  6
CONTINUOUS
 10
138.5868882402
 20
233.0458221834
 40
2.3370242196
100
AcDbArc
 50
47.8995480032
 51
59.9453207328
  0
ARC
  5
303
100
AcDbEntity
  8
0
100
AcDbCircle
 62
7
  6
CONTINUOUS
 10
117.4772609086
 20
245.7757871781
 40
2.3280816828
100
AcDbArc
 50
96.4762960716
 51
96.7351687282
  0
ARC
  5
304
100
AcDbEntity
  8
0
100
AcDbCircle
 62
7
  6
CONTINUOUS
 10
117.4480353986
 20
246.0805552446
 40
2.021974106
100
AcDbArc
 50
96.3295839289
 51
96.6277396962
  0
SPLINE
  5
305
100
AcDbEntity
  8
0
100
AcDbSpline
 62
7
  6
CONTINUOUS
 70
0
 71
3
 72
9
 73
5
 74
0
 42
0.0000001
 43
0.0000001
 44
0.0000000001
 40
0.0
 40
0.0
 40
0.0
 40
0.0
 40
0.2458822239
 40
1.0
 40
1.0
 40
1.0
 40
1.0
 10
137.0249262354
 20
150.2068493317
 30
0.0
 10
137.0701393129
 20
150.2189691952
 30
0.0
 10
137.2529581235
 20
150.2721703069
 30
0.0
 10
137.4312567715
 20
150.3406748913
 30
0.0
 10
137.5621137219
 20
150.3997255394
 30
0.0
  0
SPLINE
  5
306
100
AcDbEntity
  8
0
100
AcDbSpline
 62
7
  6
CONTINUOUS
 70
0
 71
3
 72
16
 73
12
 74
0
 42
0.0000001
 43
0.0000001
 44
0.0000000001
 40
0.0
 40
0.0
 40
0.0
 40
0.0
 40
0.1286130191
 40
0.2623795095
 40
0.3979523278
 40
0.5316357425
 40
0.6600805898
 40
0.7809611485
 40
0.8936404793
 40
0.9474584403
 40
1.0
 40
1.0
 40
1.0
 40
1.0
 10
138.6850818568
 20
150.1808720536
 30
0.0
 10
138.9624909118
 20
150.3455157815
 30
0.0
 10
139.4904807761
 20
150.7484890093
 30
0.0
 10
140.1485332814
 20
151.5070598125
 30
0.0
 10
140.6552721148
 20
152.3890819903
 30
0.0
 10
140.9786675246
 20
153.3395638804
 30
0.0
 10
141.0979646927
 20
154.300297788
 30
0.0
 10
141.0039246617
 20
155.2119805333
 30
0.0
 10
140.7432119048
 20
155.8954474961
 30
0.0
 10
140.434846335
 20
156.3524290909
 30
0.0
 10
140.2515133372
 20
156.5481820557
 30
0.0
 10
140.1537002689
 20
156.6364994617
 30
0.0
  0
SPLINE
  5
307
100
AcDbEntity
  8
0
100
AcDbSpline
 62
7
  6
CONTINUOUS
 70
0
 71
3
 72
9
 73
5
 74
0
 42
0.0000001
 43
0.0000001
 44
0.0000000001
 40
0.0
 40
0.0
 40
0.0
 40
0.0
 40
0.4942328704
 40
1.0
 40
1.0
 40
1.0
 40
1.0
 10
135.7562720588
 20
149.997678235
 30
0.0
 10
135.9167915595
 20
149.9049579523
 30
0.0
 10
136.2656595358
 20
149.7563885534
 30
0.0
 10
136.6392368933
 20
149.6940962018
 30
0.0
 10
136.8286256561
 20
149.6832285163
 30
0.0
  0
SPLINE
  5
308
100
AcDbEntity
  8
0
100
AcDbSpline
 62
7
  6
CONTINUOUS
 70
0
 71
3
 72
9
 73
5
 74
0
 42
0.0000001
 43
0.0000001
 44
0.0000000001
 40
0.0
 40
0.0
 40
0.0
 40
0.0
 40
0.2490593275
 40
1.0
 40
1.0
 40
1.0
 40
1.0
 10
139.7574268263
 20
156.9252119168
 30
0.0
 10
139.7126550906
 20
156.9510732481
 30
0.0
 10
139.5294528043
 20
157.0488612569
 30
0.0
 10
139.3330505687
 20
157.1217307651
 30
0.0
 10
139.1822997353
 20
157.1614418699
 30
0.0
  0
SPLINE
  5
309
100
AcDbEntity
  8
0
100
AcDbSpline
 62
7
  6
CONTINUOUS
 70
0
 71
3
 72
9
 73
5
 74
0
 42
0.0000001
 43
0.0000001
 44
0.0000000001
 40
0.0
 40
0.0
 40
0.0
 40
0.0
 40
0.2458822239
 40
1.0
 40
1.0
 40
1.0
 40
1.0
 10
94.7110764401
 20
138.8641557208
 30
0.0
 10
94.7562895176
 20
138.8762755843
 30
0.0
 10
94.9391083281
 20
138.929476696
 30
0.0
 10
95.1174069761
 20
138.9979812803
 30
0.0
 10
95.2482639266
 20
139.0570319285
 30
0.0
  0
SPLINE
  5
30A
100
AcDbEntity
  8
0
100
AcDbSpline
 62
7
  6
CONTINUOUS
 70
0
 71
3
 72
16
 73
12
 74
0
 42
0.0000001
 43
0.0000001
 44
0.0000000001
 40
0.0
 40
0.0
 40
0.0
 40
0.0
 40
0.1286124842
 40
0.2623783752
 40
0.3979507067
 40
0.5316339162
 40
0.6600789428
 40
0.7809600392
 40
0.893640058
 40
0.9474582901
 40
1.0
 40
1.0
 40
1.0
 40
1.0
 10
96.3712320614
 20
138.8381784427
 30
0.0
 10
96.6486350168
 20
139.0028185504
 30
0.0
 10
97.1766140046
 20
139.4057813683
 30
0.0
 10
97.8346568592
 20
140.1643311154
 30
0.0
 10
98.3413940145
 20
141.0463292726
 30
0.0
 10
98.6647971445
 20
141.9967879157
 30
0.0
 10
98.784111964
 20
142.9575030776
 30
0.0
 10
98.6900990922
 20
143.8691751139
 30
0.0
 10
98.429416581
 20
144.552642789
 30
0.0
 10
98.1210771863
 20
145.0096333685
 30
0.0
 10
97.9377574513
 20
145.2053935239
 30
0.0
 10
97.8399508825
 20
145.2937151843
 30
0.0
  0
SPLINE
  5
30B
100
AcDbEntity
  8
0
100
AcDbSpline
 62
7
  6
CONTINUOUS
 70
0
 71
3
 72
9
 73
5
 74
0
 42
0.0000001
 43
0.0000001
 44
0.0000000001
 40
0.0
 40
0.0
 40
0.0
 40
0.0
 40
0.4942328704
 40
1.0
 40
1.0
 40
1.0
 40
1.0
 10
93.4424222634
 20
138.6549846241
 30
0.0
 10
93.6029417641
 20
138.5622643414
 30
0.0
 10
93.9518097405
 20
138.4136949424
 30
0.0
 10
94.325387098
 20
138.3514025908
 30
0.0
 10
94.5147758607
 20
138.3405349054
 30
0.0
  0
SPLINE
  5
30C
100
AcDbEntity
  8
0
100
AcDbSpline
 62
7
  6
CONTINUOUS
 70
0
 71
3
 72
9
 73
5
 74
0
 42
0.0000001
 43
0.0000001
 44
0.0000000001
 40
0.0
 40
0.0
 40
0.0
 40
0.0
 40
0.2490771357
 40
1.0
 40
1.0
 40
1.0
 40
1.0
 10
97.443577031
 20
145.5825183059
 30
0.0
 10
97.3992326554
 20
145.6081327827
 30
0.0
 10
97.2178240401
 20
145.7050371129
 30
0.0
 10
97.0234603136
 20
145.7775094046
 30
0.0
 10
96.8742611492
 20
145.8172097119
 30
0.0
  0
SPLINE
  5
30D
100
AcDbEntity
  8
0
100
AcDbSpline
 62
7
  6
CONTINUOUS
 70
0
 71
3
 72
9
 73
5
 74
0
 42
0.0000001
 43
0.0000001
 44
0.0000000001
 40
0.0
 40
0.0
 40
0.0
 40
0.0
 40
0.2458822239
 40
1.0
 40
1.0
 40
1.0
 40
1.0
 10
137.0248307231
 20
228.3502658702
 30
0.0
 10
137.0700438006
 20
228.3623857338
 30
0.0
 10
137.2528626111
 20
228.4155868455
 30
0.0
 10
137.4311612591
 20
228.4840914298
 30
0.0
 10
137.5620182096
 20
228.543142078
 30
0.0
  0
SPLINE
  5
30E
100
AcDbEntity
  8
0
100
AcDbSpline
 62
7
  6
CONTINUOUS
 70
0
 71
3
 72
16
 73
12
 74
0
 42
0.0000001
 43
0.0000001
 44
0.0000000001
 40
0.0
 40
0.0
 40
0.0
 40
0.0
 40
0.1286124842
 40
0.2623783752
 40
0.3979507067
 40
0.5316339162
 40
0.6600789428
 40
0.7809600392
 40
0.893640058
 40
0.9474582901
 40
1.0
 40
1.0
 40
1.0
 40
1.0
 10
138.6849863444
 20
228.3242885921
 30
0.0
 10
138.9623892998
 20
228.4889286999
 30
0.0
 10
139.4903682877
 20
228.8918915178
 30
0.0
 10
140.1484111422
 20
229.6504412649
 30
0.0
 10
140.6551482975
 20
230.5324394221
 30
0.0
 10
140.9785514275
 20
231.4828980652
 30
0.0
 10
141.097866247
 20
232.4436132271
 30
0.0
 10
141.0038533752
 20
233.3552852634
 30
0.0
 10
140.743170864
 20
234.0387529385
 30
0.0
 10
140.4348314693
 20
234.495743518
 30
0.0
 10
140.2515117343
 20
234.6915036734
 30
0.0
 10
140.1537051655
 20
234.7798253338
 30
0.0
  0
SPLINE
  5
30F
100
AcDbEntity
  8
0
100
AcDbSpline
 62
7
  6
CONTINUOUS
 70
0
 71
3
 72
9
 73
5
 74
0
 42
0.0000001
 43
0.0000001
 44
0.0000000001
 40
0.0
 40
0.0
 40
0.0
 40
0.0
 40
0.4942328704
 40
1.0
 40
1.0
 40
1.0
 40
1.0
 10
135.7561765464
 20
228.1410947736
 30
0.0
 10
135.9166960471
 20
228.0483744909
 30
0.0
 10
136.2655640235
 20
227.8998050919
 30
0.0
 10
136.639141381
 20
227.8375127403
 30
0.0
 10
136.8285301437
 20
227.8266450549
 30
0.0
  0
SPLINE
  5
310
100
AcDbEntity
  8
0
100
AcDbSpline
 62
7
  6
CONTINUOUS
 70
0
 71
3
 72
9
 73
5
 74
0
 42
0.0000001
 43
0.0000001
 44
0.0000000001
 40
0.0
 40
0.0
 40
0.0
 40
0.0
 40
0.2490771357
 40
1.0
 40
1.0
 40
1.0
 40
1.0
 10
139.757331314
 20
235.0686284554
 30
0.0
 10
139.7129869384
 20
235.0942429322
 30
0.0
 10
139.5315783231
 20
235.1911472624
 30
0.0
 10
139.3372145966
 20
235.2636195541
 30
0.0
 10
139.1880154322
 20
235.3033198614
 30
0.0
  0
SPLINE
  5
311
100
AcDbEntity
  8
0
100
AcDbSpline
 62
7
  6
CONTINUOUS
 70
0
 71
3
 72
9
 73
5
 74
0
 42
0.0000001
 43
0.0000001
 44
0.0000000001
 40
0.0
 40
0.0
 40
0.0
 40
0.0
 40
0.2458822239
 40
1.0
 40
1.0
 40
1.0
 40
1.0
 10
94.7109809277
 20
217.0075722593
 30
0.0
 10
94.7561940052
 20
217.0196921229
 30
0.0
 10
94.9390128157
 20
217.0728932346
 30
0.0
 10
95.1173114637
 20
217.1413978189
 30
0.0
 10
95.2481684142
 20
217.2004484671
 30
0.0
  0
SPLINE
  5
312
100
AcDbEntity
  8
0
100
AcDbSpline
 62
7
  6
CONTINUOUS
 70
0
 71
3
 72
16
 73
12
 74
0
 42
0.0000001
 43
0.0000001
 44
0.0000000001
 40
0.0
 40
0.0
 40
0.0
 40
0.0
 40
0.1286124842
 40
0.2623783752
 40
0.3979507067
 40
0.5316339162
 40
0.6600789428
 40
0.7809600392
 40
0.893640058
 40
0.9474582901
 40
1.0
 40
1.0
 40
1.0
 40
1.0
 10
96.371136549
 20
216.9815949812
 30
0.0
 10
96.6485395045
 20
217.146235089
 30
0.0
 10
97.1765184923
 20
217.5491979069
 30
0.0
 10
97.8345613468
 20
218.307747654
 30
0.0
 10
98.3412985022
 20
219.1897458112
 30
0.0
 10
98.6647016322
 20
220.1402044543
 30
0.0
 10
98.7840164516
 20
221.1009196162
 30
0.0
 10
98.6900035798
 20
222.0125916525
 30
0.0
 10
98.4293210686
 20
222.6960593276
 30
0.0
 10
98.120981674
 20
223.1530499071
 30
0.0
 10
97.9376619389
 20
223.3488100625
 30
0.0
 10
97.8398553701
 20
223.4371317229
 30
0.0
  0
SPLINE
  5
313
100
AcDbEntity
  8
0
100
AcDbSpline
 62
7
  6
CONTINUOUS
 70
0
 71
3
 72
9
 73
5
 74
0
 42
0.0000001
 43
0.0000001
 44
0.0000000001
 40
0.0
 40
0.0
 40
0.0
 40
0.0
 40
0.4942328704
 40
1.0
 40
1.0
 40
1.0
 40
1.0
 10
93.442326751
 20
216.7984011627
 30
0.0
 10
93.6028462518
 20
216.70568088
 30
0.0
 10
93.9517142281
 20
216.557111481
 30
0.0
 10
94.3252915856
 20
216.4948191294
 30
0.0
 10
94.5146803484
 20
216.483951444
 30
0.0
  0
SPLINE
  5
314
100
AcDbEntity
  8
0
100
AcDbSpline
 62
7
  6
CONTINUOUS
 70
0
 71
3
 72
9
 73
5
 74
0
 42
0.0000001
 43
0.0000001
 44
0.0000000001
 40
0.0
 40
0.0
 40
0.0
 40
0.0
 40
0.2490771357
 40
1.0
 40
1.0
 40
1.0
 40
1.0
 10
97.4434815186
 20
223.7259348445
 30
0.0
 10
97.399137143
 20
223.7515493213
 30
0.0
 10
97.2177285277
 20
223.8484536515
 30
0.0
 10
97.0233648012
 20
223.9209259432
 30
0.0
 10
96.8741656368
 20
223.9606262505
 30
0.0
  0
SPLINE
  5
315
100
AcDbEntity
  8
0
100
AcDbSpline
 62
7
  6
CONTINUOUS
 70
0
 71
3
 72
14
 73
10
 74
0
 42
0.0000001
 43
0.0000001
 44
0.0000000001
 40
0.0
 40
0.0
 40
0.0
 40
0.0
 40
0.247047445
 40
0.3752976364
 40
0.5044985298
 40
0.6330286797
 40
0.7593196495
 40
0.8819938993
 40
1.0
 40
1.0
 40
1.0
 40
1.0
 10
106.0211231511
 20
169.6446274025
 30
0.0
 10
106.0622474151
 20
171.2081091535
 30
0.0
 10
106.5011725878
 20
173.5864309858
 30
0.0
 10
107.6916545871
 20
176.5556158832
 30
0.0
 10
108.8932934919
 20
178.6923589085
 30
0.0
 10
110.3560201866
 20
180.6428447532
 30
0.0
 10
112.0378887698
 20
182.3514969922
 30
0.0
 10
113.889426191
 20
183.7674023017
 30
0.0
 10
115.231600212
 20
184.5044648905
 30
0.0
 10
115.9142449976
 20
184.8079851928
 30
0.0
  0
SPLINE
  5
316
100
AcDbEntity
  8
0
100
AcDbSpline
 62
7
  6
CONTINUOUS
 70
0
 71
3
 72
13
 73
9
 74
0
 42
0.0000001
 43
0.0000001
 44
0.0000000001
 40
0.0
 40
0.0
 40
0.0
 40
0.0
 40
0.1151341565
 40
0.2319843223
 40
0.3513289316
 40
0.4737910205
 40
0.7292195044
 40
1.0
 40
1.0
 40
1.0
 40
1.0
 10
110.4654982319
 20
160.2294212276
 30
0.0
 10
110.15422445
 20
160.4638527336
 30
0.0
 10
109.5596309891
 20
160.9812279315
 30
0.0
 10
108.7758626032
 20
161.8800075303
 30
0.0
 10
108.1039251306
 20
162.8951798114
 30
0.0
 10
107.3573557143
 20
164.4077459814
 30
0.0
 10
106.751136315
 20
166.5387406642
 30
0.0
 10
106.6339210083
 20
168.3291355053
 30
0.0
 10
106.6580186763
 20
169.2452920639
 30
0.0
  0
SPLINE
  5
317
100
AcDbEntity
  8
0
100
AcDbSpline
 62
7
  6
CONTINUOUS
 70
0
 71
3
 72
13
 73
9
 74
0
 42
0.0000001
 43
0.0000001
 44
0.0000000001
 40
0.0
 40
0.0
 40
0.0
 40
0.0
 40
0.250008096
 40
0.3786716667
 40
0.5077356192
 40
0.6357391137
 40
0.7613009512
 40
1.0
 40
1.0
 40
1.0
 40
1.0
 10
106.7273491838
 20
170.3483626319
 30
0.0
 10
106.8757712011
 20
171.850050046
 30
0.0
 10
107.4293494829
 20
174.1037789501
 30
0.0
 10
108.7028566444
 20
176.8963066554
 30
0.0
 10
109.9268090476
 20
178.8844295188
 30
0.0
 10
111.3780163921
 20
180.6898210867
 30
0.0
 10
113.5229397673
 20
182.7520846378
 30
0.0
 10
115.4110386691
 20
183.9556692593
 30
0.0
 10
116.7346643466
 20
184.5246693845
 30
0.0
  0
SPLINE
  5
318
100
AcDbEntity
  8
0
100
AcDbSpline
 62
7
  6
CONTINUOUS
 70
0
 71
3
 72
9
 73
5
 74
0
 42
0.0000001
 43
0.0000001
 44
0.0000000001
 40
0.0
 40
0.0
 40
0.0
 40
0.0
 40
0.2515191156
 40
1.0
 40
1.0
 40
1.0
 40
1.0
 10
123.4058591349
 20
185.2224297718
 30
0.0
 10
123.5246562726
 20
185.192669666
 30
0.0
 10
123.9944018496
 20
185.0643244614
 30
0.0
 10
124.4531241753
 20
184.8954824132
 30
0.0
 10
124.786076157
 20
184.7472816692
 30
0.0
  0
SPLINE
  5
319
100
AcDbEntity
  8
0
100
AcDbSpline
 62
7
  6
CONTINUOUS
 70
0
 71
3
 72
14
 73
10
 74
0
 42
0.0000001
 43
0.0000001
 44
0.0000000001
 40
0.0
 40
0.0
 40
0.0
 40
0.0
 40
0.2484081821
 40
0.3774257931
 40
0.5071816868
 40
0.6358739877
 40
0.7617973202
 40
0.8835097474
 40
1.0
 40
1.0
 40
1.0
 40
1.0
 10
111.5121319484
 20
167.5166437338
 30
0.0
 10
111.5507062951
 20
168.9831815216
 30
0.0
 10
111.9812930297
 20
171.2149191203
 30
0.0
 10
113.1460879657
 20
173.980078872
 30
0.0
 10
114.3190445751
 20
175.9543480879
 30
0.0
 10
115.7409787924
 20
177.732990735
 30
0.0
 10
117.366946484
 20
179.2600568335
 30
0.0
 10
119.1442725149
 20
180.4851365666
 30
0.0
 10
120.4243618651
 20
181.088187094
 30
0.0
 10
121.0710144294
 20
181.323001944
 30
0.0
  0
SPLINE
  5
31A
100
AcDbEntity
  8
0
100
AcDbSpline
 62
7
  6
CONTINUOUS
 70
0
 71
3
 72
13
 73
9
 74
0
 42
0.0000001
 43
0.0000001
 44
0.0000000001
 40
0.0
 40
0.0
 40
0.0
 40
0.0
 40
0.1153905865
 40
0.2319506031
 40
0.350750714
 40
0.4726814026
 40
0.7277760291
 40
1.0
 40
1.0
 40
1.0
 40
1.0
 10
128.1816759084
 20
180.6443799499
 30
0.0
 10
128.5036237591
 20
180.4584423599
 30
0.0
 10
129.1224477897
 20
180.0330367833
 30
0.0
 10
129.9464534033
 20
179.2535111761
 30
0.0
 10
130.6571202495
 20
178.3424153412
 30
0.0
 10
131.4514842364
 20
176.9508816093
 30
0.0
 10
132.1021099456
 20
174.9370229484
 30
0.0
 10
132.23009545
 20
173.2271597358
 30
0.0
 10
132.2070332038
 20
172.3503683308
 30
0.0
  0
SPLINE
  5
31B
100
AcDbEntity
  8
0
100
AcDbSpline
 62
7
  6
CONTINUOUS
 70
0
 71
3
 72
20
 73
16
 74
0
 42
0.0000001
 43
0.0000001
 44
0.0000000001
 40
0.0
 40
0.0
 40
0.0
 40
0.0
 40
0.1307604619
 40
0.2666754913
 40
0.3354249145
 40
0.403919789
 40
0.5378677598
 40
0.6026134511
 40
0.665346479
 40
0.7258721359
 40
0.7841478382
 40
0.8403036115
 40
0.8946514364
 40
0.947675956
 40
1.0
 40
1.0
 40
1.0
 40
1.0
 10
132.2070332038
 20
172.3503683308
 30
0.0
 10
132.1788589373
 20
171.2792257208
 30
0.0
 10
131.8493280565
 20
169.0963330908
 30
0.0
 10
130.8576234778
 20
166.510917938
 30
0.0
 10
129.7424658285
 20
164.5658205939
 30
0.0
 10
128.4415964679
 20
162.7605261283
 30
0.0
 10
126.8858794221
 20
161.1903573972
 30
0.0
 10
125.1368951413
 20
159.9463740389
 30
0.0
 10
123.779566816
 20
159.2088677322
 30
0.0
 10
122.3877850156
 20
158.6713056516
 30
0.0
 10
120.9867741698
 20
158.344157442
 30
0.0
 10
119.6024592009
 20
158.2345052685
 30
0.0
 10
118.2607156948
 20
158.3456809272
 30
0.0
 10
116.9879572437
 20
158.6764797471
 30
0.0
 10
116.1994140446
 20
159.0412002572
 30
0.0
 10
115.8281205139
 20
159.255636925
 30
0.0
  0
SPLINE
  5
31C
100
AcDbEntity
  8
0
100
AcDbSpline
 62
7
  6
CONTINUOUS
 70
0
 71
3
 72
20
 73
16
 74
0
 42
0.0000001
 43
0.0000001
 44
0.0000000001
 40
0.0
 40
0.0
 40
0.0
 40
0.0
 40
0.130759891
 40
0.2666754827
 40
0.3354250868
 40
0.4039200125
 40
0.5378680595
 40
0.6026137205
 40
0.6653466769
 40
0.7258722422
 40
0.7841478642
 40
0.8403035935
 40
0.8946514067
 40
0.9476759353
 40
1.0
 40
1.0
 40
1.0
 40
1.0
 10
133.4669307134
 20
172.8985066433
 30
0.0
 10
133.4344220923
 20
171.6625784862
 30
0.0
 10
133.0541931239
 20
169.1438575861
 30
0.0
 10
131.9099281317
 20
166.1606816688
 30
0.0
 10
130.6232071215
 20
163.9163305028
 30
0.0
 10
129.1222002287
 20
161.8332980618
 30
0.0
 10
127.3271391118
 20
160.0215668932
 30
0.0
 10
125.3090768621
 20
158.5862074474
 30
0.0
 10
123.7429281827
 20
157.7352442603
 30
0.0
 10
122.1370270562
 20
157.1149855107
 30
0.0
 10
120.5204779587
 20
156.7375089221
 30
0.0
 10
118.9231940095
 20
156.6109859576
 30
0.0
 10
117.3750267523
 20
156.7392570137
 30
0.0
 10
115.9064655166
 20
157.1209553188
 30
0.0
 10
114.9965877892
 20
157.5417513172
 30
0.0
 10
114.5681838454
 20
157.7891986523
 30
0.0
  0
SPLINE
  5
31D
100
AcDbEntity
  8
0
100
AcDbSpline
 62
7
  6
CONTINUOUS
 70
0
 71
3
 72
9
 73
5
 74
0
 42
0.0000001
 43
0.0000001
 44
0.0000000001
 40
0.0
 40
0.0
 40
0.0
 40
0.0
 40
0.2449202738
 40
1.0
 40
1.0
 40
1.0
 40
1.0
 10
111.6870233985
 20
165.0757195151
 30
0.0
 10
111.652219527
 20
165.272647879
 30
0.0
 10
111.5316496076
 20
166.0804213099
 30
0.0
 10
111.4959209313
 20
166.9003256045
 30
0.0
 10
111.5121319484
 20
167.5166437338
 30
0.0
  0
SPLINE
  5
31E
100
AcDbEntity
  8
0
100
AcDbSpline
 62
7
  6
CONTINUOUS
 70
0
 71
3
 72
14
 73
10
 74
0
 42
0.0000001
 43
0.0000001
 44
0.0000000001
 40
0.0
 40
0.0
 40
0.0
 40
0.0
 40
0.1153311117
 40
0.2318310845
 40
0.350570199
 40
0.4724376933
 40
0.5980917796
 40
0.7279180961
 40
1.0
 40
1.0
 40
1.0
 40
1.0
 10
128.8222891369
 20
182.4685225728
 30
0.0
 10
129.1937575466
 20
182.253961364
 30
0.0
 10
129.9078076837
 20
181.7631505519
 30
0.0
 10
130.8585817525
 20
180.8636602488
 30
0.0
 10
131.678550454
 20
179.8124664231
 30
0.0
 10
132.3560265354
 20
178.625488283
 30
0.0
 10
132.8820307079
 20
177.3196380176
 30
0.0
 10
133.3798974201
 20
175.4175521922
 30
0.0
 10
133.4935408484
 20
173.9101833622
 30
0.0
 10
133.4669307134
 20
172.8985066433
 30
0.0
  0
SPLINE
  5
31F
100
AcDbEntity
  8
0
100
AcDbSpline
 62
7
  6
CONTINUOUS
 70
0
 71
3
 72
13
 73
9
 74
0
 42
0.0000001
 43
0.0000001
 44
0.0000000001
 40
0.0
 40
0.0
 40
0.0
 40
0.0
 40
0.1153502794
 40
0.2319251995
 40
0.3507694484
 40
0.4727473891
 40
0.7278853073
 40
1.0
 40
1.0
 40
1.0
 40
1.0
 10
110.5765720364
 20
160.1493051239
 30
0.0
 10
110.2115226864
 20
160.3652693635
 30
0.0
 10
109.5102043907
 20
160.8575337407
 30
0.0
 10
108.5772551111
 20
161.7549297597
 30
0.0
 10
107.7730707542
 20
162.8003923393
 30
0.0
 10
106.8746152822
 20
164.393508169
 30
0.0
 10
106.1392860665
 20
166.6934621563
 30
0.0
 10
105.9948140524
 20
168.644395621
 30
0.0
 10
106.0211231511
 20
169.6446274025
 30
0.0
  0
SPLINE
  5
320
100
AcDbEntity
  8
0
100
AcDbSpline
 62
7
  6
CONTINUOUS
 70
0
 71
3
 72
19
 73
15
 74
0
 42
0.0000001
 43
0.0000001
 44
0.0000000001
 40
0.0
 40
0.0
 40
0.0
 40
0.0
 40
0.1383246189
 40
0.2689874596
 40
0.3316776567
 40
0.3927826442
 40
0.4525962215
 40
0.5114878157
 40
0.5698860975
 40
0.6282524305
 40
0.6870503499
 40
0.7467148693
 40
0.869850989
 40
1.0
 40
1.0
 40
1.0
 40
1.0
 10
132.2314946375
 20
172.470536999
 30
0.0
 10
132.2522560409
 20
173.2598538722
 30
0.0
 10
132.1542541893
 20
174.8030812156
 30
0.0
 10
131.6450765103
 20
176.6436396397
 30
0.0
 10
131.0168955718
 20
177.9567777914
 30
0.0
 10
130.4508440852
 20
178.8422058191
 30
0.0
 10
129.7896434903
 20
179.6311024877
 30
0.0
 10
129.0404371566
 20
180.3144757152
 30
0.0
 10
128.2115854877
 20
180.8843816604
 30
0.0
 10
127.3125504941
 20
181.3342922385
 30
0.0
 10
126.3534869408
 20
181.6590869239
 30
0.0
 10
124.9962671851
 20
181.9234843736
 30
0.0
 10
123.1902704294
 20
181.916021268
 30
0.0
 10
121.7727496764
 20
181.5704223531
 30
0.0
 10
121.0722421969
 20
181.3229921518
 30
0.0
  0
SPLINE
  5
321
100
AcDbEntity
  8
0
100
AcDbSpline
 62
7
  6
CONTINUOUS
 70
0
 71
3
 72
20
 73
16
 74
0
 42
0.0000001
 43
0.0000001
 44
0.0000000001
 40
0.0
 40
0.0
 40
0.0
 40
0.0
 40
0.1307609316
 40
0.2666758318
 40
0.3354252642
 40
0.4039203934
 40
0.5378683876
 40
0.6026139389
 40
0.6653468655
 40
0.7258724603
 40
0.7841481063
 40
0.840303817
 40
0.8946515718
 40
0.9476760161
 40
1.0
 40
1.0
 40
1.0
 40
1.0
 10
111.6620078912
 20
167.6309449873
 30
0.0
 10
111.6901822591
 20
168.7020914528
 30
0.0
 10
112.0197147958
 20
170.8849867803
 30
0.0
 10
113.0114209616
 20
173.4704044587
 30
0.0
 10
114.1265814204
 20
175.4155014903
 30
0.0
 10
115.4274528092
 20
177.2207973998
 30
0.0
 10
116.983172391
 20
178.7909654053
 30
0.0
 10
118.7321565672
 20
180.0349458072
 30
0.0
 10
120.0894833846
 20
180.7724496734
 30
0.0
 10
121.4812639432
 20
181.3100099745
 30
0.0
 10
122.8822735671
 20
181.6371568566
 30
0.0
 10
124.2665870617
 20
181.7468081329
 30
0.0
 10
125.6083287675
 20
181.6356319253
 30
0.0
 10
126.8810856335
 20
181.3048334656
 30
0.0
 10
127.6696274308
 20
180.9401127144
 30
0.0
 10
128.0409207322
 20
180.7256766284
 30
0.0
  0
SPLINE
  5
322
100
AcDbEntity
  8
0
100
AcDbSpline
 62
7
  6
CONTINUOUS
 70
0
 71
3
 72
20
 73
16
 74
0
 42
0.0000001
 43
0.0000001
 44
0.0000000001
 40
0.0
 40
0.0
 40
0.0
 40
0.0
 40
0.1307604619
 40
0.2666754913
 40
0.3354249145
 40
0.403919789
 40
0.5378677598
 40
0.6026134511
 40
0.665346479
 40
0.7258721359
 40
0.7841478382
 40
0.8403036115
 40
0.8946514364
 40
0.947675956
 40
1.0
 40
1.0
 40
1.0
 40
1.0
 10
111.8027632185
 20
167.5496485441
 30
0.0
 10
111.8309374849
 20
168.6207911542
 30
0.0
 10
112.1604683658
 20
170.8036837842
 30
0.0
 10
113.1521729445
 20
173.389098937
 30
0.0
 10
114.2673305938
 20
175.3341962811
 30
0.0
 10
115.5681999544
 20
177.1394907467
 30
0.0
 10
117.1239170002
 20
178.7096594778
 30
0.0
 10
118.8729012809
 20
179.9536428361
 30
0.0
 10
120.2302296062
 20
180.6911491427
 30
0.0
 10
121.6220114067
 20
181.2287112233
 30
0.0
 10
123.0230222525
 20
181.555859433
 30
0.0
 10
124.4073372214
 20
181.6655116064
 30
0.0
 10
125.7490807275
 20
181.5543359478
 30
0.0
 10
127.0218391786
 20
181.2235371279
 30
0.0
 10
127.8103823777
 20
180.8588166178
 30
0.0
 10
128.1816759084
 20
180.6443799499
 30
0.0
  0
SPLINE
  5
323
100
AcDbEntity
  8
0
100
AcDbSpline
 62
7
  6
CONTINUOUS
 70
0
 71
3
 72
21
 73
17
 74
0
 42
0.0000001
 43
0.0000001
 44
0.0000000001
 40
0.0
 40
0.0
 40
0.0
 40
0.0
 40
0.1357173924
 40
0.2062419527
 40
0.2769396746
 40
0.4140076637
 40
0.4789686519
 40
0.5406759091
 40
0.5991340701
 40
0.6548828974
 40
0.7089770418
 40
0.7628293015
 40
0.8179065963
 40
0.8754081453
 40
0.9360471365
 40
1.0
 40
1.0
 40
1.0
 40
1.0
 10
112.2509466513
 20
167.5957150264
 30
0.0
 10
112.2901470207
 20
169.0860532423
 30
0.0
 10
112.7580215037
 20
171.3550057703
 30
0.0
 10
114.0188742884
 20
174.1313256942
 30
0.0
 10
115.682751244
 20
176.7059061469
 30
0.0
 10
117.8628971061
 20
178.8465528256
 30
0.0
 10
120.3849481475
 20
180.2980685277
 30
0.0
 10
122.3165682278
 20
180.9754342655
 30
0.0
 10
124.2477377204
 20
181.2288850649
 30
0.0
 10
126.1052564929
 20
181.0423998034
 30
0.0
 10
127.8123338372
 20
180.4165081596
 30
0.0
 10
129.2939460257
 20
179.3748533687
 30
0.0
 10
130.4866668153
 20
177.9645639849
 30
0.0
 10
131.345582825
 20
176.2483278372
 30
0.0
 10
131.8434103254
 20
174.2973504409
 30
0.0
 10
131.9234298706
 20
172.9221922325
 30
0.0
 10
131.9049578397
 20
172.2199138077
 30
0.0
  0
SPLINE
  5
324
100
AcDbEntity
  8
0
100
AcDbSpline
 62
7
  6
CONTINUOUS
 70
0
 71
3
 72
21
 73
17
 74
0
 42
0.0000001
 43
0.0000001
 44
0.0000000001
 40
0.0
 40
0.0
 40
0.0
 40
0.0
 40
0.1357173924
 40
0.2062419527
 40
0.2769396745
 40
0.4140076637
 40
0.4789686519
 40
0.5406759091
 40
0.5991340701
 40
0.6548828973
 40
0.7089770418
 40
0.7628293015
 40
0.8179065963
 40
0.8754081453
 40
0.9360471365
 40
1.0
 40
1.0
 40
1.0
 40
1.0
 10
131.9049578397
 20
172.2199138077
 30
0.0
 10
131.8657574703
 20
170.7295755919
 30
0.0
 10
131.3978829874
 20
168.460623064
 30
0.0
 10
130.1370302028
 20
165.6843031402
 30
0.0
 10
128.4731532472
 20
163.1097226875
 30
0.0
 10
126.2930073851
 20
160.9690760087
 30
0.0
 10
123.7709563438
 20
159.5175603065
 30
0.0
 10
121.8393362635
 20
158.8401945687
 30
0.0
 10
119.9081667709
 20
158.5867437692
 30
0.0
 10
118.0506479983
 20
158.7732290307
 30
0.0
 10
116.3435706541
 20
159.3991206744
 30
0.0
 10
114.8619584655
 20
160.4407754652
 30
0.0
 10
113.6692376759
 20
161.851064849
 30
0.0
 10
112.8103216661
 20
163.5673009966
 30
0.0
 10
112.3124941655
 20
165.518278393
 30
0.0
 10
112.2324746204
 20
166.8934366015
 30
0.0
 10
112.2509466513
 20
167.5957150264
 30
0.0
  0
SPLINE
  5
325
100
AcDbEntity
  8
0
100
AcDbSpline
 62
9
  6
CONTINUOUS
 70
0
 71
3
 72
22
 73
18
 74
0
 42
0.0000001
 43
0.0000001
 44
0.0000000001
 40
0.0
 40
0.0
 40
0.0
 40
0.0
 40
0.1356966608
 40
0.2062035283
 40
0.2768945018
 40
0.4139604533
 40
0.4789207684
 40
0.510228367
 40
0.5407020545
 40
0.5991577553
 40
0.6549009256
 40
0.7089896644
 40
0.7628376798
 40
0.8179131149
 40
0.8754138267
 40
0.9360532659
 40
1.0
 40
1.0
 40
1.0
 40
1.0
 10
128.4740556467
 20
171.3036738675
 30
0.0
 10
128.4490782417
 20
170.3540710498
 30
0.0
 10
128.1510045939
 20
168.9083985618
 30
0.0
 10
127.3477002457
 20
167.1394048922
 30
0.0
 10
126.2874742028
 20
165.4987852978
 30
0.0
 10
124.8986207436
 20
164.1347398144
 30
0.0
 10
123.4759683958
 20
163.3160167632
 30
0.0
 10
122.6512158406
 20
162.985144457
 30
0.0
 10
121.8421307373
 20
162.7492991115
 30
0.0
 10
120.8294460951
 20
162.6162659661
 30
0.0
 10
119.6459745332
 20
162.7351296909
 30
0.0
 10
118.5581420084
 20
163.1338798489
 30
0.0
 10
117.6140043151
 20
163.7976151507
 30
0.0
 10
116.8539253948
 20
164.6962925954
 30
0.0
 10
116.3065335497
 20
165.7899671301
 30
0.0
 10
115.9893047562
 20
167.033227505
 30
0.0
 10
115.938310699
 20
167.909533132
 30
0.0
 10
115.9500812427
 20
168.3570312395
 30
0.0
  0
SPLINE
  5
326
100
AcDbEntity
  8
0
100
AcDbSpline
 62
9
  6
CONTINUOUS
 70
0
 71
3
 72
14
 73
10
 74
0
 42
0.0000001
 43
0.0000001
 44
0.0000000001
 40
0.0
 40
0.0
 40
0.0
 40
0.0
 40
0.2508024112
 40
0.3811168806
 40
0.5117714435
 40
0.6406663632
 40
0.7658912611
 40
0.8859524076
 40
1.0
 40
1.0
 40
1.0
 40
1.0
 10
115.9500812427
 20
168.3570312395
 30
0.0
 10
115.9750589884
 20
169.3066470085
 30
0.0
 10
116.273295861
 20
170.7525233789
 30
0.0
 10
117.0761911648
 20
172.5210259025
 30
0.0
 10
117.8812032898
 20
173.7662416753
 30
0.0
 10
118.8501463986
 20
174.8621796384
 30
0.0
 10
119.9477138747
 20
175.7688110871
 30
0.0
 10
121.1328622219
 20
176.4512168863
 30
0.0
 10
121.9761045773
 20
176.7467189074
 30
0.0
 10
122.3965918619
 20
176.8456512158
 30
0.0
  0
SPLINE
  5
327
100
AcDbEntity
  8
0
100
AcDbSpline
 62
9
  6
CONTINUOUS
 70
0
 71
3
 72
15
 73
11
 74
0
 42
0.0000001
 43
0.0000001
 44
0.0000000001
 40
0.0
 40
0.0
 40
0.0
 40
0.0
 40
0.1392310613
 40
0.271249165
 40
0.3964412693
 40
0.5163519703
 40
0.6335908211
 40
0.7513564322
 40
0.8727190092
 40
1.0
 40
1.0
 40
1.0
 40
1.0
 10
128.4740556467
 20
171.3036738675
 30
0.0
 10
128.4858264385
 20
171.7511814067
 30
0.0
 10
128.4348453921
 20
172.6274699315
 30
0.0
 10
128.1175857013
 20
173.8706945814
 30
0.0
 10
127.5702491635
 20
174.964346258
 30
0.0
 10
126.8101933643
 20
175.8630242466
 30
0.0
 10
125.8660902041
 20
176.5267709817
 30
0.0
 10
124.7782146183
 20
176.9255070093
 30
0.0
 10
123.5949815982
 20
177.0444783561
 30
0.0
 10
122.7949542302
 20
176.9393779707
 30
0.0
 10
122.3965918619
 20
176.8456512158
 30
0.0
  0
SPLINE
  5
328
100
AcDbEntity
  8
0
100
AcDbSpline
 62
7
  6
CONTINUOUS
 70
0
 71
3
 72
14
 73
10
 74
0
 42
0.0000001
 43
0.0000001
 44
0.0000000001
 40
0.0
 40
0.0
 40
0.0
 40
0.0
 40
0.1153311117
 40
0.2318310845
 40
0.350570199
 40
0.4724376933
 40
0.5980917796
 40
0.7279180961
 40
1.0
 40
1.0
 40
1.0
 40
1.0
 10
114.5681838454
 20
157.7891986523
 30
0.0
 10
114.1967154357
 20
158.0037598611
 30
0.0
 10
113.4826652985
 20
158.4945706732
 30
0.0
 10
112.5318912298
 20
159.3940609763
 30
0.0
 10
111.7119225282
 20
160.4452548019
 30
0.0
 10
111.0344464469
 20
161.632232942
 30
0.0
 10
110.5084422743
 20
162.9380832075
 30
0.0
 10
110.0105755621
 20
164.8401690328
 30
0.0
 10
109.8969321339
 20
166.3475378629
 30
0.0
 10
109.9235422689
 20
167.3592145817
 30
0.0
  0
SPLINE
  5
329
100
AcDbEntity
  8
0
100
AcDbSpline
 62
7
  6
CONTINUOUS
 70
0
 71
3
 72
20
 73
16
 74
0
 42
0.0000001
 43
0.0000001
 44
0.0000000001
 40
0.0
 40
0.0
 40
0.0
 40
0.0
 40
0.1295498545
 40
0.1916675876
 40
0.2522222934
 40
0.3115409752
 40
0.3700289053
 40
0.4281479323
 40
0.4863856782
 40
0.5452214938
 40
0.6050935474
 40
0.6663716553
 40
0.7293382976
 40
0.8607829975
 40
1.0
 40
1.0
 40
1.0
 40
1.0
 10
111.6875715222
 20
165.075047963
 30
0.0
 10
111.8266508776
 20
164.326359981
 30
0.0
 10
112.1494801918
 20
163.2334324956
 30
0.0
 10
112.8226238563
 20
161.9091767066
 30
0.0
 10
113.4260954857
 20
161.022038061
 30
0.0
 10
114.128046236
 20
160.2389985601
 30
0.0
 10
114.9204543881
 20
159.5693185653
 30
0.0
 10
115.7939555043
 20
159.0212735079
 30
0.0
 10
116.7380454755
 20
158.6014778363
 30
0.0
 10
117.7413181509
 20
158.314846954
 30
0.0
 10
118.7917098824
 20
158.1645321923
 30
0.0
 10
119.8768643964
 20
158.1520162803
 30
0.0
 10
121.3736333486
 20
158.3209424018
 30
0.0
 10
123.2692716327
 20
158.8866999726
 30
0.0
 10
124.6774463591
 20
159.6512368923
 30
0.0
 10
125.3585105634
 20
160.1048879504
 30
0.0
  0
SPLINE
  5
32A
100
AcDbEntity
  8
0
100
AcDbSpline
 62
7
  6
CONTINUOUS
 70
0
 71
3
 72
9
 73
5
 74
0
 42
0.0000001
 43
0.0000001
 44
0.0000000001
 40
0.0
 40
0.0
 40
0.0
 40
0.0
 40
0.2529093383
 40
1.0
 40
1.0
 40
1.0
 40
1.0
 10
132.0583229484
 20
170.6375322046
 30
0.0
 10
132.081438526
 20
170.7808662671
 30
0.0
 10
132.1642749877
 20
171.3489450661
 30
0.0
 10
132.2126015511
 20
171.9221332647
 30
0.0
 10
132.2277951556
 20
172.3507415632
 30
0.0
  0
SPLINE
  5
32B
100
AcDbEntity
  8
0
100
AcDbSpline
 62
7
  6
CONTINUOUS
 70
0
 71
3
 72
19
 73
15
 74
0
 42
0.0000001
 43
0.0000001
 44
0.0000000001
 40
0.0
 40
0.0
 40
0.0
 40
0.0
 40
0.1303978158
 40
0.253699475
 40
0.3134068475
 40
0.3722195326
 40
0.4305744572
 40
0.4889390897
 40
0.547780236
 40
0.6075328067
 40
0.6685726839
 40
0.7311989307
 40
0.8617498659
 40
1.0
 40
1.0
 40
1.0
 40
1.0
 10
121.0710144294
 20
181.323001944
 30
0.0
 10
121.7801716715
 20
181.5805137218
 30
0.0
 10
123.2161956631
 20
181.9439922649
 30
0.0
 10
125.0493715002
 20
181.9672678455
 30
0.0
 10
126.4284521101
 20
181.7100763401
 30
0.0
 10
127.4032947092
 20
181.388122557
 30
0.0
 10
128.3175685234
 20
180.9384895124
 30
0.0
 10
129.1608261311
 20
180.3663386882
 30
0.0
 10
129.9233293418
 20
179.6782925756
 30
0.0
 10
130.5964793534
 20
178.8824453859
 30
0.0
 10
131.172914087
 20
177.9879646617
 30
0.0
 10
131.8128048458
 20
176.6599911812
 30
0.0
 10
132.3316796243
 20
174.7964706149
 30
0.0
 10
132.4316578667
 20
173.2332646597
 30
0.0
 10
132.4106254561
 20
172.4336445071
 30
0.0
  0
SPLINE
  5
32C
100
AcDbEntity
  8
0
100
AcDbSpline
 62
7
  6
CONTINUOUS
 70
0
 71
3
 72
13
 73
9
 74
0
 42
0.0000001
 43
0.0000001
 44
0.0000000001
 40
0.0
 40
0.0
 40
0.0
 40
0.0
 40
0.1153905865
 40
0.2319506031
 40
0.350750714
 40
0.4726814026
 40
0.7277760291
 40
1.0
 40
1.0
 40
1.0
 40
1.0
 10
115.8281205139
 20
159.255636925
 30
0.0
 10
115.5061726632
 20
159.4415745151
 30
0.0
 10
114.8873486325
 20
159.8669800917
 30
0.0
 10
114.063343019
 20
160.6465056988
 30
0.0
 10
113.3526761727
 20
161.5576015338
 30
0.0
 10
112.5583121859
 20
162.9491352657
 30
0.0
 10
111.9076864767
 20
164.9629939266
 30
0.0
 10
111.7797009723
 20
166.6728571392
 30
0.0
 10
111.8027632185
 20
167.5496485441
 30
0.0
  0
SPLINE
  5
32D
100
AcDbEntity
  8
0
100
AcDbSpline
 62
7
  6
CONTINUOUS
 70
0
 71
3
 72
13
 73
9
 74
0
 42
0.0000001
 43
0.0000001
 44
0.0000000001
 40
0.0
 40
0.0
 40
0.0
 40
0.0
 40
0.1153901322
 40
0.2319498463
 40
0.3507496425
 40
0.472679618
 40
0.7277746251
 40
1.0
 40
1.0
 40
1.0
 40
1.0
 10
115.6873650355
 20
159.336933133
 30
0.0
 10
115.3654182858
 20
159.5228696976
 30
0.0
 10
114.7465964289
 20
159.9482741984
 30
0.0
 10
113.9225933994
 20
160.7277973384
 30
0.0
 10
113.2119275521
 20
161.6388883956
 30
0.0
 10
112.4175613936
 20
163.0304184971
 30
0.0
 10
111.7669327877
 20
165.0442801003
 30
0.0
 10
111.6389455262
 20
166.754149066
 30
0.0
 10
111.6620078912
 20
167.6309449873
 30
0.0
  0
SPLINE
  5
32E
100
AcDbEntity
  8
0
100
AcDbSpline
 62
7
  6
CONTINUOUS
 70
0
 71
3
 72
20
 73
16
 74
0
 42
0.0000001
 43
0.0000001
 44
0.0000000001
 40
0.0
 40
0.0
 40
0.0
 40
0.0
 40
0.130759891
 40
0.2666754827
 40
0.3354250868
 40
0.4039200125
 40
0.5378680595
 40
0.6026137205
 40
0.6653466769
 40
0.7258722422
 40
0.7841478642
 40
0.8403035935
 40
0.8946514067
 40
0.9476759353
 40
1.0
 40
1.0
 40
1.0
 40
1.0
 10
109.9235422689
 20
167.3592145817
 30
0.0
 10
109.9560508899
 20
168.5951427389
 30
0.0
 10
110.3362798584
 20
171.113863639
 30
0.0
 10
111.4805448505
 20
174.0970395563
 30
0.0
 10
112.7672658608
 20
176.3413907223
 30
0.0
 10
114.2682727536
 20
178.4244231633
 30
0.0
 10
116.0633338704
 20
180.2361543319
 30
0.0
 10
118.0813961201
 20
181.6715137777
 30
0.0
 10
119.6475447996
 20
182.5224769648
 30
0.0
 10
121.2534459261
 20
183.1427357144
 30
0.0
 10
122.8699950235
 20
183.520212303
 30
0.0
 10
124.4672789727
 20
183.6467352675
 30
0.0
 10
126.0154462299
 20
183.5184642114
 30
0.0
 10
127.4840074657
 20
183.1367659063
 30
0.0
 10
128.393885193
 20
182.7159699078
 30
0.0
 10
128.8222891369
 20
182.4685225728
 30
0.0
  0
SPLINE
  5
32F
100
AcDbEntity
  8
0
100
AcDbSpline
 62
7
  6
CONTINUOUS
 70
0
 71
3
 72
22
 73
18
 74
0
 42
0.0000001
 43
0.0000001
 44
0.0000000001
 40
0.0
 40
0.0
 40
0.0
 40
0.0
 40
0.1356474698
 40
0.2061023947
 40
0.2769477378
 40
0.4155300931
 40
0.4819004129
 40
0.5453914377
 40
0.6057872406
 40
0.663279734
 40
0.7185027722
 40
0.7724853226
 40
0.7994530317
 40
0.826590392
 40
0.8818859038
 40
0.9394843218
 40
1.0
 40
1.0
 40
1.0
 40
1.0
 10
132.4106254561
 20
172.4336445071
 30
0.0
 10
132.3718554105
 20
170.959666544
 30
0.0
 10
131.937367748
 20
168.7167654165
 30
0.0
 10
130.7613377689
 20
165.9389845956
 30
0.0
 10
129.1976217715
 20
163.3204692175
 30
0.0
 10
127.1342906657
 20
161.0775128521
 30
0.0
 10
124.7149372648
 20
159.4281725406
 30
0.0
 10
122.8290150116
 20
158.5539432751
 30
0.0
 10
120.9086202639
 20
158.0577427075
 30
0.0
 10
119.0153096585
 20
157.9596739272
 30
0.0
 10
117.213786554
 20
158.2679898099
 30
0.0
 10
115.8403133436
 20
158.8604111015
 30
0.0
 10
114.8614178945
 20
159.5146080614
 30
0.0
 10
113.9565293691
 20
160.2900746427
 30
0.0
 10
112.9853318019
 20
161.4811825648
 30
0.0
 10
112.1375030474
 20
163.1793433435
 30
0.0
 10
111.801505577
 20
164.4279528398
 30
0.0
 10
111.6870233985
 20
165.0757195151
 30
0.0
  0
SPLINE
  5
330
100
AcDbEntity
  8
0
100
AcDbSpline
 62
7
  6
CONTINUOUS
 70
0
 71
3
 72
13
 73
9
 74
0
 42
0.0000001
 43
0.0000001
 44
0.0000000001
 40
0.0
 40
0.0
 40
0.0
 40
0.0
 40
0.1158151903
 40
0.232733794
 40
0.3517715738
 40
0.4737831201
 40
0.7285688456
 40
1.0
 40
1.0
 40
1.0
 40
1.0
 10
128.8222541685
 20
210.0485497604
 30
0.0
 10
129.1821971838
 20
209.8406604127
 30
0.0
 10
129.8748184306
 20
209.3670371456
 30
0.0
 10
130.8014292824
 20
208.5030247241
 30
0.0
 10
131.6060942423
 20
207.4956402429
 30
0.0
 10
132.5145225876
 20
205.9595423555
 30
0.0
 10
133.2829931005
 20
203.7359938143
 30
0.0
 10
133.4720054883
 20
201.8399672261
 30
0.0
 10
133.472006679
 20
200.8657920095
 30
0.0
  0
SPLINE
  5
331
100
AcDbEntity
  8
0
100
AcDbSpline
 62
7
  6
CONTINUOUS
 70
0
 71
3
 72
20
 73
16
 74
0
 42
0.0000001
 43
0.0000001
 44
0.0000000001
 40
0.0
 40
0.0
 40
0.0
 40
0.0
 40
0.1299297734
 40
0.1973079266
 40
0.2656047921
 40
0.4026173464
 40
0.4704270171
 40
0.5370221885
 40
0.6646775772
 40
0.725414795
 40
0.7838791049
 40
0.8401836395
 40
0.8946282287
 40
0.9476919739
 40
1.0
 40
1.0
 40
1.0
 40
1.0
 10
106.0159965761
 20
196.8386748804
 30
0.0
 10
106.0159950641
 20
198.0757285499
 30
0.0
 10
106.2562119919
 20
199.9614593984
 30
0.0
 10
106.9816611618
 20
202.3871370045
 30
0.0
 10
107.988341772
 20
204.784838094
 30
0.0
 10
109.3697370434
 20
207.0145945934
 30
0.0
 10
111.0641969344
 20
208.971398568
 30
0.0
 10
112.8954811791
 20
210.67105456
 30
0.0
 10
114.9499361253
 20
212.017300006
 30
0.0
 10
117.134683214
 20
212.9000344229
 30
0.0
 10
118.7617260933
 20
213.30638818
 30
0.0
 10
120.3721453081
 20
213.4583747525
 30
0.0
 10
121.9355860334
 20
213.3517082305
 30
0.0
 10
123.4206775884
 20
212.9872808793
 30
0.0
 10
124.3423275877
 20
212.5747147869
 30
0.0
 10
124.7763985039
 20
212.3305673539
 30
0.0
  0
SPLINE
  5
332
100
AcDbEntity
  8
0
100
AcDbSpline
 62
7
  6
CONTINUOUS
 70
0
 71
3
 72
13
 73
9
 74
0
 42
0.0000001
 43
0.0000001
 44
0.0000000001
 40
0.0
 40
0.0
 40
0.0
 40
0.0
 40
0.1158153041
 40
0.2327339201
 40
0.3517712799
 40
0.4737830257
 40
0.7285673209
 40
1.0
 40
1.0
 40
1.0
 40
1.0
 10
128.1816467318
 20
208.2244171662
 30
0.0
 10
128.493602188
 20
208.0442541532
 30
0.0
 10
129.0938602058
 20
207.6337571522
 30
0.0
 10
129.8969175531
 20
206.8849458323
 30
0.0
 10
130.5943017383
 20
206.0118864784
 30
0.0
 10
131.381613591
 20
204.680611399
 30
0.0
 10
132.0476119778
 20
202.7535313712
 30
0.0
 10
132.2114268473
 20
201.1103094036
 30
0.0
 10
132.2114278793
 20
200.2660195637
 30
0.0
  0
SPLINE
  5
333
100
AcDbEntity
  8
0
100
AcDbSpline
 62
7
  6
CONTINUOUS
 70
0
 71
3
 72
19
 73
15
 74
0
 42
0.0000001
 43
0.0000001
 44
0.0000000001
 40
0.0
 40
0.0
 40
0.0
 40
0.0
 40
0.1312488036
 40
0.2667960399
 40
0.3351600105
 40
0.4032326967
 40
0.5365204505
 40
0.6636670488
 40
0.7243899615
 40
0.7830108063
 40
0.8395961381
 40
0.8943604204
 40
0.9476648958
 40
1.0
 40
1.0
 40
1.0
 40
1.0
 10
106.6975582976
 20
197.5898180014
 30
0.0
 10
106.7872048423
 20
198.7559732501
 30
0.0
 10
107.2383538939
 20
201.1112078929
 30
0.0
 10
108.381662788
 20
203.8915183257
 30
0.0
 10
109.6188562365
 20
205.9796642873
 30
0.0
 10
111.0415171803
 20
207.9210421829
 30
0.0
 10
113.1128381207
 20
210.0189673382
 30
0.0
 10
115.5275452341
 20
211.6036567046
 30
0.0
 10
117.5553301946
 20
212.461012313
 30
0.0
 10
119.0698704663
 20
212.8838060751
 30
0.0
 10
120.575798642
 20
213.0881342357
 30
0.0
 10
122.0487206239
 20
213.0696909183
 30
0.0
 10
123.4634800303
 20
212.8279465174
 30
0.0
 10
124.3577922147
 20
212.5178081476
 30
0.0
 10
124.7839118075
 20
212.3282664773
 30
0.0
  0
SPLINE
  5
334
100
AcDbEntity
  8
0
100
AcDbSpline
 62
7
  6
CONTINUOUS
 70
0
 71
3
 72
20
 73
16
 74
0
 42
0.0000001
 43
0.0000001
 44
0.0000000001
 40
0.0
 40
0.0
 40
0.0
 40
0.0
 40
0.1300260993
 40
0.1974597154
 40
0.2658104345
 40
0.4029031207
 40
0.4707322029
 40
0.5373282277
 40
0.6649234694
 40
0.7256068532
 40
0.7840081715
 40
0.8402498555
 40
0.8946435056
 40
0.9476811814
 40
1.0
 40
1.0
 40
1.0
 40
1.0
 10
133.472006679
 20
200.8657920095
 30
0.0
 10
133.4720082021
 20
199.6196904031
 30
0.0
 10
133.2290585974
 20
197.7200692454
 30
0.0
 10
132.4956517583
 20
195.2773354074
 30
0.0
 10
131.4781331916
 20
192.8636607897
 30
0.0
 10
130.0822507957
 20
190.6206606312
 30
0.0
 10
128.3706271597
 20
188.654906793
 30
0.0
 10
126.5220093683
 20
186.9503479996
 30
0.0
 10
124.4490697296
 20
185.6042694482
 30
0.0
 10
122.2466120744
 20
184.7284459816
 30
0.0
 10
120.607845994
 20
184.3304867245
 30
0.0
 10
118.9873210517
 20
184.1900507241
 30
0.0
 10
117.4158612026
 20
184.3112719722
 30
0.0
 10
115.9252989914
 20
184.6929650286
 30
0.0
 10
115.002333271
 20
185.1184633166
 30
0.0
 10
114.5681513933
 20
185.3692301978
 30
0.0
  0
SPLINE
  5
335
100
AcDbEntity
  8
0
100
AcDbSpline
 62
7
  6
CONTINUOUS
 70
0
 71
3
 72
14
 73
10
 74
0
 42
0.0000001
 43
0.0000001
 44
0.0000000001
 40
0.0
 40
0.0
 40
0.0
 40
0.0
 40
0.2474281395
 40
0.3763650479
 40
0.5062410909
 40
0.6351787506
 40
0.7613892054
 40
0.8833525962
 40
1.0
 40
1.0
 40
1.0
 40
1.0
 10
111.5075625899
 20
194.7529219445
 30
0.0
 10
111.5075607694
 20
196.2423670073
 30
0.0
 10
111.8993986283
 20
198.5218419682
 30
0.0
 10
113.0410196493
 20
201.353157292
 30
0.0
 10
114.2123709503
 20
203.382117125
 30
0.0
 10
115.6462796862
 20
205.212652821
 30
0.0
 10
117.2956032285
 20
206.7849486632
 30
0.0
 10
119.1048116091
 20
208.0450236861
 30
0.0
 10
120.4109682391
 20
208.6633496142
 30
0.0
 10
121.0709812299
 20
208.9030248
 30
0.0
  0
SPLINE
  5
336
100
AcDbEntity
  8
0
100
AcDbSpline
 62
7
  6
CONTINUOUS
 70
0
 71
3
 72
19
 73
15
 74
0
 42
0.0000001
 43
0.0000001
 44
0.0000000001
 40
0.0
 40
0.0
 40
0.0
 40
0.0
 40
0.1300531662
 40
0.1974997787
 40
0.2658646796
 40
0.4029851119
 40
0.5372335286
 40
0.6648547748
 40
0.7255505783
 40
0.7839638756
 40
0.8402171072
 40
0.8946219207
 40
0.9476704681
 40
1.0
 40
1.0
 40
1.0
 40
1.0
 10
132.2114278793
 20
200.2660195637
 30
0.0
 10
132.2114291993
 20
199.1860601928
 30
0.0
 10
132.0008660374
 20
197.5397003837
 30
0.0
 10
131.365264519
 20
195.4227270832
 30
0.0
 10
130.4832846488
 20
193.330638848
 30
0.0
 10
128.9806573405
 20
190.9162577945
 30
0.0
 10
126.6630887783
 20
188.5143989388
 30
0.0
 10
124.3917421478
 20
187.0394974887
 30
0.0
 10
122.4827200687
 20
186.2802951888
 30
0.0
 10
121.0624978865
 20
185.9354207321
 30
0.0
 10
119.6580302803
 20
185.8136982525
 30
0.0
 10
118.2961000726
 20
185.918758535
 30
0.0
 10
117.0042738122
 20
186.2495538716
 30
0.0
 10
116.2043790842
 20
186.6183364926
 30
0.0
 10
115.82808227
 20
186.8356584419
 30
0.0
  0
SPLINE
  5
337
100
AcDbEntity
  8
0
100
AcDbSpline
 62
7
  6
CONTINUOUS
 70
0
 71
3
 72
9
 73
5
 74
0
 42
0.0000001
 43
0.0000001
 44
0.0000000001
 40
0.0
 40
0.0
 40
0.0
 40
0.0
 40
0.245581735
 40
1.0
 40
1.0
 40
1.0
 40
1.0
 10
111.686987501
 20
192.6557478386
 30
0.0
 10
111.656977864
 20
192.8255443204
 30
0.0
 10
111.5507702177
 20
193.5197173598
 30
0.0
 10
111.5075632374
 20
194.2232292501
 30
0.0
 10
111.5075625899
 20
194.7529219445
 30
0.0
  0
SPLINE
  5
338
100
AcDbEntity
  8
0
100
AcDbSpline
 62
7
  6
CONTINUOUS
 70
0
 71
3
 72
13
 73
9
 74
0
 42
0.0000001
 43
0.0000001
 44
0.0000000001
 40
0.0
 40
0.0
 40
0.0
 40
0.0
 40
0.1155646199
 40
0.2327042458
 40
0.3521903865
 40
0.4746534632
 40
0.7297549514
 40
1.0
 40
1.0
 40
1.0
 40
1.0
 10
110.5768295982
 20
187.7270288573
 30
0.0
 10
110.2682426953
 20
187.9514688089
 30
0.0
 10
109.6774197922
 20
188.447118735
 30
0.0
 10
108.8934475945
 20
189.3103921084
 30
0.0
 10
108.2156656586
 20
190.2872878534
 30
0.0
 10
107.4536356853
 20
191.744984443
 30
0.0
 10
106.8119754467
 20
193.8056410076
 30
0.0
 10
106.6528763805
 20
195.5457625453
 30
0.0
 10
106.6528752899
 20
196.4380654311
 30
0.0
  0
SPLINE
  5
339
100
AcDbEntity
  8
0
100
AcDbSpline
 62
7
  6
CONTINUOUS
 70
0
 71
3
 72
13
 73
9
 74
0
 42
0.0000001
 43
0.0000001
 44
0.0000000001
 40
0.0
 40
0.0
 40
0.0
 40
0.0
 40
0.1157746109
 40
0.2327065189
 40
0.351786229
 40
0.4738441107
 40
0.728672821
 40
1.0
 40
1.0
 40
1.0
 40
1.0
 10
110.5765381005
 20
187.7293341404
 30
0.0
 10
110.2229134147
 20
187.9385243619
 30
0.0
 10
109.5428119156
 20
188.4134474126
 30
0.0
 10
108.6337377158
 20
189.2753438665
 30
0.0
 10
107.8446688081
 20
190.2770128345
 30
0.0
 10
106.9542197724
 20
191.8009142537
 30
0.0
 10
106.2013305134
 20
194.0013452948
 30
0.0
 10
106.015997753
 20
195.8757768495
 30
0.0
 10
106.0159965761
 20
196.8386748804
 30
0.0
  0
SPLINE
  5
33A
100
AcDbEntity
  8
0
100
AcDbSpline
 62
7
  6
CONTINUOUS
 70
0
 71
3
 72
13
 73
9
 74
0
 42
0.0000001
 43
0.0000001
 44
0.0000000001
 40
0.0
 40
0.0
 40
0.0
 40
0.0
 40
0.1158148515
 40
0.2327332082
 40
0.3517701639
 40
0.4737812074
 40
0.7285659648
 40
1.0
 40
1.0
 40
1.0
 40
1.0
 10
115.6873267678
 20
186.9169545908
 30
0.0
 10
115.3753726489
 20
187.0971171009
 30
0.0
 10
114.775115927
 20
187.5076120495
 30
0.0
 10
113.9720617399
 20
188.2564216643
 30
0.0
 10
113.274678684
 20
189.1294762982
 30
0.0
 10
112.4873651562
 20
190.4607480818
 30
0.0
 10
111.8213632783
 20
192.3878307745
 30
0.0
 10
111.6575468272
 20
194.031058434
 30
0.0
 10
111.6575457952
 20
194.8753524876
 30
0.0
  0
SPLINE
  5
33B
100
AcDbEntity
  8
0
100
AcDbSpline
 62
7
  6
CONTINUOUS
 70
0
 71
3
 72
19
 73
15
 74
0
 42
0.0000001
 43
0.0000001
 44
0.0000000001
 40
0.0
 40
0.0
 40
0.0
 40
0.0
 40
0.1300536338
 40
0.1975003464
 40
0.2658650015
 40
0.4029857267
 40
0.5372341433
 40
0.6648551599
 40
0.7255509041
 40
0.7839641434
 40
0.8402173093
 40
0.8946220502
 40
0.9476705234
 40
1.0
 40
1.0
 40
1.0
 40
1.0
 10
111.6575457952
 20
194.8753524876
 30
0.0
 10
111.6575444752
 20
195.9553157417
 30
0.0
 10
111.8681086752
 20
197.6016804306
 30
0.0
 10
112.5037135931
 20
199.7186554708
 30
0.0
 10
113.3856941025
 20
201.8107447225
 30
0.0
 10
114.8883244694
 20
204.2251245785
 30
0.0
 10
117.2058952849
 20
206.6269819031
 30
0.0
 10
119.4772414641
 20
208.1018795761
 30
0.0
 10
121.3862614672
 20
208.8610792387
 30
0.0
 10
122.8064824369
 20
209.2059522324
 30
0.0
 10
124.2109484753
 20
209.327673611
 30
0.0
 10
125.572876873
 20
209.2226129153
 30
0.0
 10
126.86470134
 20
208.8918176459
 30
0.0
 10
127.6645953033
 20
208.5230358672
 30
0.0
 10
128.0408915794
 20
208.3057139037
 30
0.0
  0
SPLINE
  5
33C
100
AcDbEntity
  8
0
100
AcDbSpline
 62
7
  6
CONTINUOUS
 70
0
 71
3
 72
26
 73
22
 74
0
 42
0.0000001
 43
0.0000001
 44
0.0000000001
 40
0.0
 40
0.0
 40
0.0
 40
0.0
 40
0.1349047411
 40
0.2052456039
 40
0.2759311395
 40
0.3458282376
 40
0.4138822133
 40
0.4792479992
 40
0.5107791557
 40
0.5414771389
 40
0.6003540114
 40
0.6564080609
 40
0.6837188786
 40
0.7107307669
 40
0.737625402
 40
0.764590892
 40
0.79181194
 40
0.8194587876
 40
0.876490962
 40
0.9365858787
 40
1.0
 40
1.0
 40
1.0
 40
1.0
 10
131.9091896848
 20
200.1232243267
 30
0.0
 10
131.9091914976
 20
198.6400823484
 30
0.0
 10
131.4959878152
 20
196.3685905014
 30
0.0
 10
130.301655716
 20
193.5735688864
 30
0.0
 10
129.0812376678
 20
191.5905506379
 30
0.0
 10
127.5957483303
 20
189.8314909236
 30
0.0
 10
125.900272485
 20
188.3606784606
 30
0.0
 10
124.3440903389
 20
187.4099860922
 30
0.0
 10
123.0556979534
 20
186.8502376318
 30
0.0
 10
121.7875543971
 20
186.439059992
 30
0.0
 10
120.1952149916
 20
186.1767363785
 30
0.0
 10
118.6185312885
 20
186.278424115
 30
0.0
 10
117.4406012055
 20
186.5815523555
 30
0.0
 10
116.6086737692
 20
186.9127314653
 30
0.0
 10
115.8297363119
 20
187.346530271
 30
0.0
 10
115.1115036523
 20
187.8786347968
 30
0.0
 10
114.4610338871
 20
188.5037271121
 30
0.0
 10
113.6849025985
 20
189.4617239183
 30
0.0
 10
112.9163218632
 20
190.873339071
 30
0.0
 10
112.3635548201
 20
192.793294675
 30
0.0
 10
112.2466482379
 20
194.1552887411
 30
0.0
 10
112.2466473857
 20
194.8524632405
 30
0.0
  0
SPLINE
  5
33D
100
AcDbEntity
  8
0
100
AcDbSpline
 62
7
  6
CONTINUOUS
 70
0
 71
3
 72
26
 73
22
 74
0
 42
0.0000001
 43
0.0000001
 44
0.0000000001
 40
0.0
 40
0.0
 40
0.0
 40
0.0
 40
0.1349047411
 40
0.2052456039
 40
0.2759311395
 40
0.3458282376
 40
0.4138822133
 40
0.4792479992
 40
0.5107791557
 40
0.5414771389
 40
0.6003540114
 40
0.6564080609
 40
0.6837188786
 40
0.7107307669
 40
0.737625402
 40
0.764590892
 40
0.79181194
 40
0.8194587876
 40
0.876490962
 40
0.9365858787
 40
1.0
 40
1.0
 40
1.0
 40
1.0
 10
112.2466473857
 20
194.8524632405
 30
0.0
 10
112.2466455729
 20
196.3356052188
 30
0.0
 10
112.6598492552
 20
198.6070970656
 30
0.0
 10
113.8541813544
 20
201.4021186806
 30
0.0
 10
115.0745994025
 20
203.385136929
 30
0.0
 10
116.5600887399
 20
205.1441966434
 30
0.0
 10
118.2555645852
 20
206.6150091064
 30
0.0
 10
119.8117467313
 20
207.5657014748
 30
0.0
 10
121.1001391168
 20
208.1254499353
 30
0.0
 10
122.3682826731
 20
208.5366275752
 30
0.0
 10
123.9606220785
 20
208.7989511887
 30
0.0
 10
125.5373057817
 20
208.6972634523
 30
0.0
 10
126.7152358647
 20
208.3941352118
 30
0.0
 10
127.547163301
 20
208.0629561021
 30
0.0
 10
128.3261007584
 20
207.6291572964
 30
0.0
 10
129.044333418
 20
207.0970527707
 30
0.0
 10
129.6948031832
 20
206.4719604554
 30
0.0
 10
130.4709344718
 20
205.5139636492
 30
0.0
 10
131.2395152071
 20
204.1023484966
 30
0.0
 10
131.7922822503
 20
202.1823928925
 30
0.0
 10
131.9091888326
 20
200.8203988263
 30
0.0
 10
131.9091896848
 20
200.1232243267
 30
0.0
  0
SPLINE
  5
33E
100
AcDbEntity
  8
0
100
AcDbSpline
 62
9
  6
CONTINUOUS
 70
0
 71
3
 72
22
 73
18
 74
0
 42
0.0000001
 43
0.0000001
 44
0.0000000001
 40
0.0
 40
0.0
 40
0.0
 40
0.0
 40
0.1349951708
 40
0.2053762562
 40
0.2761131888
 40
0.4137539372
 40
0.479172848
 40
0.5107290813
 40
0.5414529785
 40
0.6003758577
 40
0.6564703848
 40
0.7107231861
 40
0.7645112993
 40
0.8193165847
 40
0.8763949003
 40
0.9365397445
 40
1.0
 40
1.0
 40
1.0
 40
1.0
 10
115.947329425
 20
195.7310586435
 30
0.0
 10
115.9473282699
 20
196.6760760126
 30
0.0
 10
116.2104200232
 20
198.1231811675
 30
0.0
 10
116.9717445228
 20
199.9045938368
 30
0.0
 10
117.9971151319
 20
201.5714006577
 30
0.0
 10
119.3594587647
 20
202.9717861359
 30
0.0
 10
120.7676416403
 20
203.8320276605
 30
0.0
 10
121.588785182
 20
204.1888376642
 30
0.0
 10
122.3968469696
 20
204.4508880644
 30
0.0
 10
123.4118333247
 20
204.6179581891
 30
0.0
 10
124.6054447992
 20
204.541440486
 30
0.0
 10
125.7107905517
 20
204.1841274544
 30
0.0
 10
126.6793146613
 20
203.5585650372
 30
0.0
 10
127.4691374116
 20
202.6927607733
 30
0.0
 10
128.0497991774
 20
201.625543312
 30
0.0
 10
128.4023018417
 20
200.4018111593
 30
0.0
 10
128.4767395005
 20
199.5339510415
 30
0.0
 10
128.4767400435
 20
199.0897051965
 30
0.0
  0
SPLINE
  5
33F
100
AcDbEntity
  8
0
100
AcDbSpline
 62
9
  6
CONTINUOUS
 70
0
 71
3
 72
14
 73
10
 74
0
 42
0.0000001
 43
0.0000001
 44
0.0000000001
 40
0.0
 40
0.0
 40
0.0
 40
0.0
 40
0.2491617012
 40
0.3790642611
 40
0.5096234318
 40
0.638733453
 40
0.7644437956
 40
0.8851857509
 40
1.0
 40
1.0
 40
1.0
 40
1.0
 10
128.4767400435
 20
199.0897051965
 30
0.0
 10
128.4767411985
 20
198.1446749127
 30
0.0
 10
128.21349718
 20
196.6973689122
 30
0.0
 10
127.4525542903
 20
194.9164396681
 30
0.0
 10
126.6749339307
 20
193.6528355415
 30
0.0
 10
125.7284646545
 20
192.5318674494
 30
0.0
 10
124.6476956572
 20
191.5944129292
 30
0.0
 10
123.4730751245
 20
190.8764991684
 30
0.0
 10
122.6326651351
 20
190.5542774987
 30
0.0
 10
122.2120432511
 20
190.4415251738
 30
0.0
  0
SPLINE
  5
340
100
AcDbEntity
  8
0
100
AcDbSpline
 62
9
  6
CONTINUOUS
 70
0
 71
3
 72
15
 73
11
 74
0
 42
0.0000001
 43
0.0000001
 44
0.0000000001
 40
0.0
 40
0.0
 40
0.0
 40
0.0
 40
0.1383981252
 40
0.2695538677
 40
0.3940297982
 40
0.5135476743
 40
0.6308478151
 40
0.7491640298
 40
0.8714915584
 40
1.0
 40
1.0
 40
1.0
 40
1.0
 10
115.947329425
 20
195.7310586435
 30
0.0
 10
115.947329968
 20
195.2868034657
 30
0.0
 10
116.0217539418
 20
194.418959943
 30
0.0
 10
116.3742864523
 20
193.195264542
 30
0.0
 10
116.95489172
 20
192.1280679581
 30
0.0
 10
117.744690703
 20
191.2622624102
 30
0.0
 10
118.7131808538
 20
190.6366876568
 30
0.0
 10
119.8185667177
 20
190.2793902401
 30
0.0
 10
121.0119505444
 20
190.2027573575
 30
0.0
 10
121.8136008173
 20
190.3347182946
 30
0.0
 10
122.2120432511
 20
190.4415251738
 30
0.0
  0
SPLINE
  5
341
100
AcDbEntity
  8
0
100
AcDbSpline
 62
7
  6
CONTINUOUS
 70
0
 71
3
 72
19
 73
15
 74
0
 42
0.0000001
 43
0.0000001
 44
0.0000000001
 40
0.0
 40
0.0
 40
0.0
 40
0.0
 40
0.1300531662
 40
0.1974997787
 40
0.2658646796
 40
0.4029851119
 40
0.5372335286
 40
0.6648547748
 40
0.7255505783
 40
0.7839638756
 40
0.8402171072
 40
0.8946219207
 40
0.9476704681
 40
1.0
 40
1.0
 40
1.0
 40
1.0
 10
111.7983011225
 20
194.7940560444
 30
0.0
 10
111.7982998025
 20
195.8740154153
 30
0.0
 10
112.0088629643
 20
197.5203752244
 30
0.0
 10
112.6444644828
 20
199.6373485249
 30
0.0
 10
113.526444353
 20
201.7294367601
 30
0.0
 10
115.0290716612
 20
204.1438178136
 30
0.0
 10
117.3466402235
 20
206.5456766693
 30
0.0
 10
119.617986854
 20
208.0205781194
 30
0.0
 10
121.527008933
 20
208.7797804193
 30
0.0
 10
122.9472311152
 20
209.124654876
 30
0.0
 10
124.3516987214
 20
209.2463773556
 30
0.0
 10
125.7136289292
 20
209.1413170731
 30
0.0
 10
127.0054551896
 20
208.8105217365
 30
0.0
 10
127.8053499176
 20
208.4417391155
 30
0.0
 10
128.1816467318
 20
208.2244171662
 30
0.0
  0
SPLINE
  5
342
100
AcDbEntity
  8
0
100
AcDbSpline
 62
7
  6
CONTINUOUS
 70
0
 71
3
 72
20
 73
16
 74
0
 42
0.0000001
 43
0.0000001
 44
0.0000000001
 40
0.0
 40
0.0
 40
0.0
 40
0.0
 40
0.1300260993
 40
0.1974597154
 40
0.2658104345
 40
0.4029031207
 40
0.4707322029
 40
0.5373282277
 40
0.6649234694
 40
0.7256068532
 40
0.7840081715
 40
0.8402498555
 40
0.8946435056
 40
0.9476811814
 40
1.0
 40
1.0
 40
1.0
 40
1.0
 10
109.9183988828
 20
194.5519879487
 30
0.0
 10
109.9183973597
 20
195.7980895551
 30
0.0
 10
110.1613469644
 20
197.6977107128
 30
0.0
 10
110.8947538034
 20
200.1404445508
 30
0.0
 10
111.9122723701
 20
202.5541191685
 30
0.0
 10
113.3081547661
 20
204.7971193269
 30
0.0
 10
115.0197784021
 20
206.7628731652
 30
0.0
 10
116.8683961935
 20
208.4674319586
 30
0.0
 10
118.9413358322
 20
209.81351051
 30
0.0
 10
121.1437934874
 20
210.6893339766
 30
0.0
 10
122.7825595678
 20
211.0872932337
 30
0.0
 10
124.4030845101
 20
211.2277292341
 30
0.0
 10
125.9745443592
 20
211.1065079859
 30
0.0
 10
127.4651065703
 20
210.7248149296
 30
0.0
 10
128.3880722908
 20
210.2993166416
 30
0.0
 10
128.8222541685
 20
210.0485497604
 30
0.0
  0
SPLINE
  5
343
100
AcDbEntity
  8
0
100
AcDbSpline
 62
7
  6
CONTINUOUS
 70
0
 71
3
 72
19
 73
15
 74
0
 42
0.0000001
 43
0.0000001
 44
0.0000000001
 40
0.0
 40
0.0
 40
0.0
 40
0.0
 40
0.1307745257
 40
0.25453527
 40
0.3144691187
 40
0.3734865704
 40
0.4320060753
 40
0.4904781807
 40
0.5493565454
 40
0.6090684803
 40
0.669988565
 40
0.7324212671
 40
0.8624149383
 40
1.0
 40
1.0
 40
1.0
 40
1.0
 10
121.0709812299
 20
208.9030248
 30
0.0
 10
121.7681431023
 20
209.156190122
 30
0.0
 10
123.1793842146
 20
209.5159222727
 30
0.0
 10
124.9814857829
 20
209.550132064
 30
0.0
 10
126.3407234217
 20
209.3112273674
 30
0.0
 10
127.3034855502
 20
209.0071898801
 30
0.0
 10
128.2088898528
 20
208.5795026316
 30
0.0
 10
129.0469666576
 20
208.0329000948
 30
0.0
 10
129.8083788029
 20
207.3734708274
 30
0.0
 10
130.4847945295
 20
206.6086708838
 30
0.0
 10
131.0690520823
 20
205.7470175902
 30
0.0
 10
131.7255570809
 20
204.4653732966
 30
0.0
 10
132.2779799822
 20
202.6600279463
 30
0.0
 10
132.4151264403
 20
201.1377576284
 30
0.0
 10
132.4151273941
 20
200.3574250296
 30
0.0
  0
SPLINE
  5
344
100
AcDbEntity
  8
0
100
AcDbSpline
 62
7
  6
CONTINUOUS
 70
0
 71
3
 72
20
 73
16
 74
0
 42
0.0000001
 43
0.0000001
 44
0.0000000001
 40
0.0
 40
0.0
 40
0.0
 40
0.0
 40
0.1292274639
 40
0.1911603978
 40
0.251523399
 40
0.3106570562
 40
0.3689814599
 40
0.4269737498
 40
0.4851350201
 40
0.5439542121
 40
0.6038738713
 40
0.6652623577
 40
0.7283952154
 40
0.8602886935
 40
1.0
 40
1.0
 40
1.0
 40
1.0
 10
111.6875867996
 20
192.6548045544
 30
0.0
 10
111.8285804873
 20
191.8959520913
 30
0.0
 10
112.1574434017
 20
190.7884428261
 30
0.0
 10
112.8454204933
 20
189.4494713433
 30
0.0
 10
113.4625346225
 20
188.5546738945
 30
0.0
 10
114.180521672
 20
187.767510183
 30
0.0
 10
114.9909423892
 20
187.0975860076
 30
0.0
 10
115.8839101324
 20
186.553418234
 30
0.0
 10
116.8483536292
 20
186.1417384794
 30
0.0
 10
117.8722889647
 20
185.8674972218
 30
0.0
 10
118.9430586309
 20
185.7337636011
 30
0.0
 10
120.0477190696
 20
185.741831109
 30
0.0
 10
121.5693058683
 20
185.9436637375
 30
0.0
 10
123.4899552946
 20
186.5593751891
 30
0.0
 10
124.9094613307
 20
187.3684238943
 30
0.0
 10
125.5941085522
 20
187.8454731688
 30
0.0
  0
SPLINE
  5
345
100
AcDbEntity
  8
0
100
AcDbSpline
 62
7
  6
CONTINUOUS
 70
0
 71
3
 72
9
 73
5
 74
0
 42
0.0000001
 43
0.0000001
 44
0.0000000001
 40
0.0
 40
0.0
 40
0.0
 40
0.0
 40
0.2552311028
 40
1.0
 40
1.0
 40
1.0
 40
1.0
 10
131.7857307393
 20
196.9084718693
 30
0.0
 10
131.8570990868
 20
197.1881652909
 30
0.0
 10
132.1056132038
 20
198.2915816446
 30
0.0
 10
132.227178148
 20
199.4246113442
 30
0.0
 10
132.2353546693
 20
200.2668727992
 30
0.0
  0
SPLINE
  5
346
100
AcDbEntity
  8
0
100
AcDbSpline
 62
7
  6
CONTINUOUS
 70
0
 71
3
 72
13
 73
9
 74
0
 42
0.0000001
 43
0.0000001
 44
0.0000000001
 40
0.0
 40
0.0
 40
0.0
 40
0.0
 40
0.1158151903
 40
0.232733794
 40
0.3517715738
 40
0.4737831201
 40
0.7285688456
 40
1.0
 40
1.0
 40
1.0
 40
1.0
 10
114.5681513933
 20
185.3692301978
 30
0.0
 10
114.2082083779
 20
185.5771195455
 30
0.0
 10
113.5155871312
 20
186.0507428126
 30
0.0
 10
112.5889762794
 20
186.9147552341
 30
0.0
 10
111.7843113195
 20
187.9221397153
 30
0.0
 10
110.8758829742
 20
189.4582376027
 30
0.0
 10
110.1074124613
 20
191.6817861439
 30
0.0
 10
109.9184000735
 20
193.5778127321
 30
0.0
 10
109.9183988828
 20
194.5519879487
 30
0.0
  0
SPLINE
  5
347
100
AcDbEntity
  8
0
100
AcDbSpline
 62
7
  6
CONTINUOUS
 70
0
 71
3
 72
13
 73
9
 74
0
 42
0.0000001
 43
0.0000001
 44
0.0000000001
 40
0.0
 40
0.0
 40
0.0
 40
0.0
 40
0.1158153041
 40
0.2327339201
 40
0.3517712799
 40
0.4737830257
 40
0.7285673209
 40
1.0
 40
1.0
 40
1.0
 40
1.0
 10
115.82808227
 20
186.8356584419
 30
0.0
 10
115.5161268137
 20
187.0158214549
 30
0.0
 10
114.9158687959
 20
187.4263184559
 30
0.0
 10
114.1128114486
 20
188.1751297758
 30
0.0
 10
113.4154272634
 20
189.0481891297
 30
0.0
 10
112.6281154108
 20
190.3794642091
 30
0.0
 10
111.962117024
 20
192.3065442369
 30
0.0
 10
111.7983021545
 20
193.9497662045
 30
0.0
 10
111.7983011225
 20
194.7940560444
 30
0.0
  0
SPLINE
  5
348
100
AcDbEntity
  8
0
100
AcDbSpline
 62
7
  6
CONTINUOUS
 70
0
 71
3
 72
23
 73
19
 74
0
 42
0.0000001
 43
0.0000001
 44
0.0000000001
 40
0.0
 40
0.0
 40
0.0
 40
0.0
 40
0.1348894732
 40
0.2051777854
 40
0.2759908545
 40
0.414817522
 40
0.4814033031
 40
0.5451202896
 40
0.6057161445
 40
0.6633531616
 40
0.7186484333
 40
0.7457759717
 40
0.772730377
 40
0.7996779642
 40
0.8267854259
 40
0.8820050838
 40
0.9395325009
 40
1.0
 40
1.0
 40
1.0
 40
1.0
 10
132.4151273941
 20
200.3574250296
 30
0.0
 10
132.4151292052
 20
198.875665933
 30
0.0
 10
132.0275148194
 20
196.6083469163
 30
0.0
 10
130.8963699383
 20
193.7889050445
 30
0.0
 10
129.3619412518
 20
191.1149906512
 30
0.0
 10
127.3088570195
 20
188.8121255578
 30
0.0
 10
124.8830625965
 20
187.1043958341
 30
0.0
 10
122.9840480435
 20
186.1897880897
 30
0.0
 10
121.0445173277
 20
185.6587654413
 30
0.0
 10
119.1285257445
 20
185.532440599
 30
0.0
 10
117.5940175773
 20
185.7755761999
 30
0.0
 10
116.4577171327
 20
186.1736677377
 30
0.0
 10
115.6572590077
 20
186.5680930842
 30
0.0
 10
114.9109334182
 20
187.0568853339
 30
0.0
 10
113.9915286506
 20
187.8325239053
 30
0.0
 10
113.0041580114
 20
189.0293788007
 30
0.0
 10
112.1429460603
 20
190.7412117038
 30
0.0
 10
111.8025919216
 20
192.0016504941
 30
0.0
 10
111.686987501
 20
192.6557478386
 30
0.0
  0
SPLINE
  5
349
100
AcDbEntity
  8
0
100
AcDbSpline
 62
7
  6
CONTINUOUS
 70
0
 71
3
 72
19
 73
15
 74
0
 42
0.0000001
 43
0.0000001
 44
0.0000000001
 40
0.0
 40
0.0
 40
0.0
 40
0.0
 40
0.1376621529
 40
0.2677694279
 40
0.3302662034
 40
0.3912508795
 40
0.4510227709
 40
0.5099501644
 40
0.5684543609
 40
0.6269838394
 40
0.6859854456
 40
0.7458758626
 40
0.8694718065
 40
1.0
 40
1.0
 40
1.0
 40
1.0
 10
132.2359610277
 20
200.3916234038
 30
0.0
 10
132.2359600863
 20
201.16184118
 30
0.0
 10
132.1012674893
 20
202.6645526225
 30
0.0
 10
131.5589557655
 20
204.4475970432
 30
0.0
 10
130.9143300098
 20
205.7149331519
 30
0.0
 10
130.3405153006
 20
206.5678941676
 30
0.0
 10
129.6760397363
 20
207.3260694607
 30
0.0
 10
128.9278537254
 20
207.9811067476
 30
0.0
 10
128.1040576411
 20
208.5256888657
 30
0.0
 10
127.2137216693
 20
208.9538108119
 30
0.0
 10
126.266535536
 20
209.2607693932
 30
0.0
 10
124.9288515948
 20
209.5069070918
 30
0.0
 10
123.1535263631
 20
209.4883196737
 30
0.0
 10
121.7605718308
 20
209.1461886298
 30
0.0
 10
121.0719720565
 20
208.9029328566
 30
0.0
  0
SPLINE
  5
34A
100
AcDbEntity
  8
0
100
AcDbSpline
 62
7
  6
CONTINUOUS
 70
0
 71
3
 72
9
 73
5
 74
0
 42
0.0000001
 43
0.0000001
 44
0.0000000001
 40
0.0
 40
0.0
 40
0.0
 40
0.0
 40
0.2541258426
 40
1.0
 40
1.0
 40
1.0
 40
1.0
 10
101.034428834
 20
256.2769089943
 30
0.0
 10
101.1407099612
 20
256.3053996017
 30
0.0
 10
101.5611151548
 20
256.40913346
 30
0.0
 10
101.9901214917
 20
256.4785921695
 30
0.0
 10
102.311657781
 20
256.5088305752
 30
0.0
  0
SPLINE
  5
34B
100
AcDbEntity
  8
0
100
AcDbSpline
 62
7
  6
CONTINUOUS
 70
0
 71
3
 72
9
 73
5
 74
0
 42
0.0000001
 43
0.0000001
 44
0.0000000001
 40
0.0
 40
0.0
 40
0.0
 40
0.0
 40
0.2514616279
 40
1.0
 40
1.0
 40
1.0
 40
1.0
 10
61.3725519786
 20
243.4388762464
 30
0.0
 10
61.8651257276
 20
243.7156721861
 30
0.0
 10
63.8316121763
 20
244.8027540226
 30
0.0
 10
65.8286062058
 20
245.8347136511
 30
0.0
 10
67.3392337764
 20
246.5742040502
 30
0.0
  0
SPLINE
  5
34C
100
AcDbEntity
  8
0
100
AcDbSpline
 62
7
  6
CONTINUOUS
 70
0
 71
3
 72
11
 73
7
 74
0
 42
0.0000001
 43
0.0000001
 44
0.0000000001
 40
0.0
 40
0.0
 40
0.0
 40
0.0
 40
0.2448241402
 40
0.5004082114
 40
0.7557716905
 40
1.0
 40
1.0
 40
1.0
 40
1.0
 10
58.6043568604
 20
238.6983292597
 30
0.0
 10
58.6043285138
 20
239.1650622496
 30
0.0
 10
58.7492958888
 20
240.1223772384
 30
0.0
 10
59.3247099424
 20
241.4585576412
 30
0.0
 10
60.2048163016
 20
242.6155618093
 30
0.0
 10
60.9666375753
 20
243.2108101261
 30
0.0
 10
61.3725519786
 20
243.4388762464
 30
0.0
  0
SPLINE
  5
34D
100
AcDbEntity
  8
0
100
AcDbSpline
 62
7
  6
CONTINUOUS
 70
0
 71
3
 72
15
 73
11
 74
0
 42
0.0000001
 43
0.0000001
 44
0.0000000001
 40
0.0
 40
0.0
 40
0.0
 40
0.0
 40
0.12386897
 40
0.2565362698
 40
0.3938518747
 40
0.5313702427
 40
0.664645753
 40
0.7894789737
 40
0.9021910555
 40
1.0
 40
1.0
 40
1.0
 40
1.0
 10
104.438568976
 20
242.4300358758
 30
0.0
 10
103.5886625973
 20
242.202210393
 30
0.0
 10
101.8021833291
 20
241.8259526501
 30
0.0
 10
99.0218786006
 20
241.4892741483
 30
0.0
 10
96.1267331261
 20
241.3686798268
 30
0.0
 10
93.2265856243
 20
241.4691125638
 30
0.0
 10
90.4311317066
 20
241.7864494157
 30
0.0
 10
87.8451192825
 20
242.3083587264
 30
0.0
 10
85.5654803113
 20
243.0139206061
 30
0.0
 10
84.1982633039
 20
243.6372899407
 30
0.0
 10
83.5966130514
 20
243.9847867993
 30
0.0
  0
SPLINE
  5
34E
100
AcDbEntity
  8
0
100
AcDbSpline
 62
7
  6
CONTINUOUS
 70
0
 71
3
 72
9
 73
5
 74
0
 42
0.0000001
 43
0.0000001
 44
0.0000000001
 40
0.0
 40
0.0
 40
0.0
 40
0.0
 40
0.2486294095
 40
1.0
 40
1.0
 40
1.0
 40
1.0
 10
75.2454978239
 20
142.4716427414
 30
0.0
 10
75.3057167029
 20
142.4368637328
 30
0.0
 10
75.553431721
 20
142.3066832419
 30
0.0
 10
75.8221898003
 20
142.21709373
 30
0.0
 10
76.0278718473
 20
142.1739650773
 30
0.0
  0
SPLINE
  5
34F
100
AcDbEntity
  8
0
100
AcDbSpline
 62
7
  6
CONTINUOUS
 70
0
 71
3
 72
11
 73
7
 74
0
 42
0.0000001
 43
0.0000001
 44
0.0000000001
 40
0.0
 40
0.0
 40
0.0
 40
0.0
 40
0.2323580432
 40
0.4731228888
 40
0.7282230755
 40
1.0
 40
1.0
 40
1.0
 40
1.0
 10
60.0720735412
 20
151.2353993138
 30
0.0
 10
59.8443832412
 20
151.3669003164
 30
0.0
 10
59.4197102841
 20
151.7085330701
 30
0.0
 10
58.9504182176
 20
152.3986029912
 30
0.0
 10
58.6641017822
 20
153.2280277984
 30
0.0
 10
58.6043381827
 20
153.8267803861
 30
0.0
 10
58.6043568604
 20
154.1343228333
 30
0.0
  0
SPLINE
  5
350
100
AcDbEntity
  8
0
100
AcDbSpline
 62
7
  6
CONTINUOUS
 70
0
 71
3
 72
14
 73
10
 74
0
 42
0.0000001
 43
0.0000001
 44
0.0000000001
 40
0.0
 40
0.0
 40
0.0
 40
0.0
 40
0.0836371544
 40
0.1735744238
 40
0.2746236727
 40
0.3896780187
 40
0.520021958
 40
0.6657720935
 40
1.0
 40
1.0
 40
1.0
 40
1.0
 10
110.9932065062
 20
247.307822485
 30
0.0
 10
110.9931957262
 20
247.0663519963
 30
0.0
 10
110.9121490986
 20
246.5624297439
 30
0.0
 10
110.5616514662
 20
245.8414895627
 30
0.0
 10
109.9977047361
 20
245.1532007312
 30
0.0
 10
109.2325454589
 20
244.5027741539
 30
0.0
 10
108.2770674096
 20
243.8954583275
 30
0.0
 10
106.6932943532
 20
243.1174819385
 30
0.0
 10
105.3706192124
 20
242.6798808004
 30
0.0
 10
104.438568976
 20
242.4300358758
 30
0.0
  0
SPLINE
  5
351
100
AcDbEntity
  8
0
100
AcDbSpline
 62
7
  6
CONTINUOUS
 70
0
 71
3
 72
9
 73
5
 74
0
 42
0.0000001
 43
0.0000001
 44
0.0000000001
 40
0.0
 40
0.0
 40
0.0
 40
0.0
 40
0.5065347464
 40
1.0
 40
1.0
 40
1.0
 40
1.0
 10
112.0342412039
 20
257.0192242075
 30
0.0
 10
112.2636877115
 20
257.0133185459
 30
0.0
 10
112.7173552468
 20
256.9495024327
 30
0.0
 10
113.141094196
 20
256.7735106372
 30
0.0
 10
113.3347216518
 20
256.6616824118
 30
0.0
  0
SPLINE
  5
352
100
AcDbEntity
  8
0
100
AcDbSpline
 62
7
  6
CONTINUOUS
 70
0
 71
3
 72
9
 73
5
 74
0
 42
0.0000001
 43
0.0000001
 44
0.0000000001
 40
0.0
 40
0.0
 40
0.0
 40
0.0
 40
0.251442801
 40
1.0
 40
1.0
 40
1.0
 40
1.0
 10
106.0675617039
 20
256.9557004469
 30
0.0
 10
106.5672020311
 20
256.9789805481
 30
0.0
 10
108.5550738073
 20
257.0539006766
 30
0.0
 10
110.545670483
 20
257.0576576988
 30
0.0
 10
112.0342412039
 20
257.0192242075
 30
0.0
  0
SPLINE
  5
353
100
AcDbEntity
  8
0
100
AcDbSpline
 62
7
  6
CONTINUOUS
 70
0
 71
3
 72
12
 73
8
 74
0
 42
0.0000001
 43
0.0000001
 44
0.0000000001
 40
0.0
 40
0.0
 40
0.0
 40
0.0
 40
0.307552532
 40
0.5705766178
 40
0.7960327117
 40
0.8995108737
 40
1.0
 40
1.0
 40
1.0
 40
1.0
 10
108.3898849434
 20
250.630858533
 30
0.0
 10
108.7810520799
 20
250.4049310556
 30
0.0
 10
109.4822135117
 20
249.938567646
 30
0.0
 10
110.3284745524
 20
249.1203478523
 30
0.0
 10
110.7874561694
 20
248.3644504469
 30
0.0
 10
110.9642842891
 20
247.7557474499
 30
0.0
 10
110.9932130953
 20
247.4554180589
 30
0.0
 10
110.9932065062
 20
247.307822485
 30
0.0
  0
SPLINE
  5
354
100
AcDbEntity
  8
0
100
AcDbSpline
 62
7
  6
CONTINUOUS
 70
0
 71
3
 72
9
 73
5
 74
0
 42
0.0000001
 43
0.0000001
 44
0.0000000001
 40
0.0
 40
0.0
 40
0.0
 40
0.0
 40
0.7439954819
 40
1.0
 40
1.0
 40
1.0
 40
1.0
 10
115.9861874639
 20
247.0987144593
 30
0.0
 10
115.9886124125
 20
247.1346104882
 30
0.0
 10
115.9975838067
 20
247.1826821891
 30
0.0
 10
116.0130686409
 20
247.2285013683
 30
0.0
 10
116.0174244527
 20
247.2400895317
 30
0.0
  0
SPLINE
  5
355
100
AcDbEntity
  8
0
100
AcDbSpline
 62
7
  6
CONTINUOUS
 70
0
 71
3
 72
8
 73
4
 74
0
 42
0.0000001
 43
0.0000001
 44
0.0000000001
 40
0.0
 40
0.0
 40
0.0
 40
0.0
 40
1.0
 40
1.0
 40
1.0
 40
1.0
 10
116.0174244527
 20
247.2400895317
 30
0.0
 10
116.0291731884
 20
247.2713457651
 30
0.0
 10
116.0438318622
 20
247.3016067965
 30
0.0
 10
116.0606095441
 20
247.330477098
 30
0.0
  0
SPLINE
  5
356
100
AcDbEntity
  8
0
100
AcDbSpline
 62
7
  6
CONTINUOUS
 70
0
 71
3
 72
9
 73
5
 74
0
 42
0.0000001
 43
0.0000001
 44
0.0000000001
 40
0.0
 40
0.0
 40
0.0
 40
0.0
 40
0.2571851125
 40
1.0
 40
1.0
 40
1.0
 40
1.0
 10
115.7375988896
 20
246.0536657812
 30
0.0
 10
115.7726245324
 20
246.1390748766
 30
0.0
 10
115.8966416437
 20
246.4759561888
 30
0.0
 10
115.9682169526
 20
246.8327005756
 30
0.0
 10
115.9861874639
 20
247.0987144593
 30
0.0
  0
SPLINE
  5
357
100
AcDbEntity
  8
0
100
AcDbSpline
 62
7
  6
CONTINUOUS
 70
0
 71
3
 72
11
 73
7
 74
0
 42
0.0000001
 43
0.0000001
 44
0.0000000001
 40
0.0
 40
0.0
 40
0.0
 40
0.0
 40
0.2710762092
 40
0.5263614163
 40
0.7676752335
 40
1.0
 40
1.0
 40
1.0
 40
1.0
 10
73.7777811405
 20
145.3705662603
 30
0.0
 10
73.7777633681
 20
145.0779303821
 30
0.0
 10
73.8319651639
 20
144.5075573998
 30
0.0
 10
74.0906741763
 20
143.712441797
 30
0.0
 10
74.5152817996
 20
143.0395684829
 30
0.0
 10
74.9022593276
 20
142.6930027435
 30
0.0
 10
75.1114221439
 20
142.5546092574
 30
0.0
  0
SPLINE
  5
358
100
AcDbEntity
  8
0
100
AcDbSpline
 62
7
  6
CONTINUOUS
 70
0
 71
3
 72
10
 73
6
 74
0
 42
0.0000001
 43
0.0000001
 44
0.0000000001
 40
0.0
 40
0.0
 40
0.0
 40
0.0
 40
0.4452183558
 40
0.7081294809
 40
1.0
 40
1.0
 40
1.0
 40
1.0
 10
110.735743307
 20
246.2362150856
 30
0.0
 10
110.5263445943
 20
246.6752648328
 30
0.0
 10
110.0243861943
 20
247.293015264
 30
0.0
 10
109.1782040544
 20
247.9831471376
 30
0.0
 10
108.666022041
 20
248.3109409412
 30
0.0
 10
108.3898849139
 20
248.47043022
 30
0.0
  0
SPLINE
  5
359
100
AcDbEntity
  8
0
100
AcDbSpline
 62
7
  6
CONTINUOUS
 70
0
 71
3
 72
11
 73
7
 74
0
 42
0.0000001
 43
0.0000001
 44
0.0000000001
 40
0.0
 40
0.0
 40
0.0
 40
0.0
 40
0.2323632268
 40
0.4731192924
 40
0.7282471227
 40
1.0
 40
1.0
 40
1.0
 40
1.0
 10
136.1015693308
 20
227.6991088308
 30
0.0
 10
135.8884964431
 20
227.8222103497
 30
0.0
 10
135.4910366557
 20
228.1418732316
 30
0.0
 10
135.0517757675
 20
228.7876821632
 30
0.0
 10
134.7838386308
 20
229.5639067002
 30
0.0
 10
134.7278489144
 20
230.1242505599
 30
0.0
 10
134.7278485627
 20
230.4120422911
 30
0.0
  0
SPLINE
  5
35A
100
AcDbEntity
  8
0
100
AcDbSpline
 62
7
  6
CONTINUOUS
 70
0
 71
3
 72
11
 73
7
 74
0
 42
0.0000001
 43
0.0000001
 44
0.0000000001
 40
0.0
 40
0.0
 40
0.0
 40
0.0
 40
0.2323632268
 40
0.4731192924
 40
0.7282471227
 40
1.0
 40
1.0
 40
1.0
 40
1.0
 10
93.7877195354
 20
216.3564152199
 30
0.0
 10
93.5746466477
 20
216.4795167388
 30
0.0
 10
93.1771868603
 20
216.7991796207
 30
0.0
 10
92.7379259721
 20
217.4449885523
 30
0.0
 10
92.4699888355
 20
218.2212130893
 30
0.0
 10
92.413999119
 20
218.781556949
 30
0.0
 10
92.4139987673
 20
219.0693486802
 30
0.0
  0
SPLINE
  5
35B
100
AcDbEntity
  8
0
100
AcDbSpline
 62
7
  6
CONTINUOUS
 70
0
 71
3
 72
11
 73
7
 74
0
 42
0.0000001
 43
0.0000001
 44
0.0000000001
 40
0.0
 40
0.0
 40
0.0
 40
0.0
 40
0.2323632268
 40
0.4731192924
 40
0.7282471227
 40
1.0
 40
1.0
 40
1.0
 40
1.0
 10
93.7878150478
 20
138.2129986813
 30
0.0
 10
93.5747421601
 20
138.3361002002
 30
0.0
 10
93.1772823727
 20
138.6557630821
 30
0.0
 10
92.7380214845
 20
139.3015720137
 30
0.0
 10
92.4700843478
 20
140.0777965507
 30
0.0
 10
92.4140946314
 20
140.6381404104
 30
0.0
 10
92.4140942796
 20
140.9259321416
 30
0.0
  0
SPLINE
  5
35C
100
AcDbEntity
  8
0
100
AcDbSpline
 62
7
  6
CONTINUOUS
 70
0
 71
3
 72
11
 73
7
 74
0
 42
0.0000001
 43
0.0000001
 44
0.0000000001
 40
0.0
 40
0.0
 40
0.0
 40
0.0
 40
0.2323632289
 40
0.4731192956
 40
0.728247126
 40
1.0
 40
1.0
 40
1.0
 40
1.0
 10
136.1011180166
 20
149.5547462338
 30
0.0
 10
135.8879898645
 20
149.6778797235
 30
0.0
 10
135.4904269962
 20
149.9976255897
 30
0.0
 10
135.0510522031
 20
150.6436021141
 30
0.0
 10
134.7830455843
 20
151.4200280447
 30
0.0
 10
134.7270413508
 20
151.9805172791
 30
0.0
 10
134.7270409989
 20
152.268383673
 30
0.0
  0
SPLINE
  5
35D
100
AcDbEntity
  8
0
100
AcDbSpline
 62
7
  6
CONTINUOUS
 70
0
 71
3
 72
9
 73
5
 74
0
 42
0.0000001
 43
0.0000001
 44
0.0000000001
 40
0.0
 40
0.0
 40
0.0
 40
0.0
 40
0.4934606937
 40
1.0
 40
1.0
 40
1.0
 40
1.0
 10
88.7299504966
 20
134.8641645435
 30
0.0
 10
88.9235682469
 20
134.7523424096
 30
0.0
 10
89.3472911294
 20
134.5763632196
 30
0.0
 10
89.8009386981
 20
134.5125451584
 30
0.0
 10
90.0303776461
 20
134.5066398932
 30
0.0
  0
SPLINE
  5
35E
100
AcDbEntity
  8
0
100
AcDbSpline
 62
7
  6
CONTINUOUS
 70
0
 71
3
 72
11
 73
7
 74
0
 42
0.0000001
 43
0.0000001
 44
0.0000000001
 40
0.0
 40
0.0
 40
0.0
 40
0.0
 40
0.2323580808
 40
0.4731229419
 40
0.7282231139
 40
1.0
 40
1.0
 40
1.0
 40
1.0
 10
75.2455970371
 20
142.6523699574
 30
0.0
 10
75.0179070748
 20
142.7838707651
 30
0.0
 10
74.5932347105
 20
143.125502878
 30
0.0
 10
74.1239429589
 20
143.8155713746
 30
0.0
 10
73.8376262343
 20
144.6449944914
 30
0.0
 10
73.7778620542
 20
145.2437459565
 30
0.0
 10
73.777880356
 20
145.5512878544
 30
0.0
  0
SPLINE
  5
35F
100
AcDbEntity
  8
0
100
AcDbSpline
 62
7
  6
CONTINUOUS
 70
0
 71
3
 72
9
 73
5
 74
0
 42
0.0000001
 43
0.0000001
 44
0.0000000001
 40
0.0
 40
0.0
 40
0.0
 40
0.0
 40
0.2485533035
 40
1.0
 40
1.0
 40
1.0
 40
1.0
 10
134.725452317
 20
144.9517173635
 30
0.0
 10
135.2270639447
 20
145.1972697296
 30
0.0
 10
137.2380370381
 20
146.1997483107
 30
0.0
 10
139.2202129151
 20
147.2599230484
 30
0.0
 10
140.6921946006
 20
148.0870879709
 30
0.0
  0
SPLINE
  5
360
100
AcDbEntity
  8
0
100
AcDbSpline
 62
7
  6
CONTINUOUS
 70
0
 71
3
 72
14
 73
10
 74
0
 42
0.0000001
 43
0.0000001
 44
0.0000000001
 40
0.0
 40
0.0
 40
0.0
 40
0.0
 40
0.2647861711
 40
0.4023144998
 40
0.5369566888
 40
0.6649561555
 40
0.7841217756
 40
0.8947378381
 40
1.0
 40
1.0
 40
1.0
 40
1.0
 10
134.7270409989
 20
152.268383673
 30
0.0
 10
134.7270400852
 20
153.0159077315
 30
0.0
 10
135.0230868588
 20
154.164332983
 30
0.0
 10
135.8282729931
 20
155.4554604267
 30
0.0
 10
136.6193524056
 20
156.2757968792
 30
0.0
 10
137.5318268329
 20
156.8684873569
 30
0.0
 10
138.5039078358
 20
157.1885027338
 30
0.0
 10
139.4659557159
 20
157.2033776911
 30
0.0
 10
140.056103396
 20
156.9965068196
 30
0.0
 10
140.3134146564
 20
156.8478468587
 30
0.0
  0
SPLINE
  5
361
100
AcDbEntity
  8
0
100
AcDbSpline
 62
7
  6
CONTINUOUS
 70
0
 71
3
 72
14
 73
10
 74
0
 42
0.0000001
 43
0.0000001
 44
0.0000000001
 40
0.0
 40
0.0
 40
0.0
 40
0.0
 40
0.2647861744
 40
0.4023145027
 40
0.5369566892
 40
0.6649561553
 40
0.7841217757
 40
0.8947378384
 40
1.0
 40
1.0
 40
1.0
 40
1.0
 10
92.4140942796
 20
140.9259321416
 30
0.0
 10
92.4140933662
 20
141.6732622359
 30
0.0
 10
92.7100633261
 20
142.821389493
 30
0.0
 10
93.5150405288
 20
144.1121819034
 30
0.0
 10
94.3059146621
 20
144.9323054784
 30
0.0
 10
95.2181523069
 20
145.5248421551
 30
0.0
 10
96.1899810661
 20
145.8447744924
 30
0.0
 10
97.1517793072
 20
145.8596455884
 30
0.0
 10
97.7417738503
 20
145.6528283965
 30
0.0
 10
97.9990183411
 20
145.5042070121
 30
0.0
  0
SPLINE
  5
362
100
AcDbEntity
  8
0
100
AcDbSpline
 62
7
  6
CONTINUOUS
 70
0
 71
3
 72
14
 73
10
 74
0
 42
0.0000001
 43
0.0000001
 44
0.0000000001
 40
0.0
 40
0.0
 40
0.0
 40
0.0
 40
0.2647861744
 40
0.4023145027
 40
0.5369566892
 40
0.6649561553
 40
0.7841217757
 40
0.8947378384
 40
1.0
 40
1.0
 40
1.0
 40
1.0
 10
92.4139987673
 20
219.0693486802
 30
0.0
 10
92.4139978538
 20
219.8166787745
 30
0.0
 10
92.7099678138
 20
220.9648060316
 30
0.0
 10
93.5149450164
 20
222.255598442
 30
0.0
 10
94.3058191498
 20
223.075722017
 30
0.0
 10
95.2180567945
 20
223.6682586937
 30
0.0
 10
96.1898855538
 20
223.988191031
 30
0.0
 10
97.1516837949
 20
224.003062127
 30
0.0
 10
97.741678338
 20
223.7962449351
 30
0.0
 10
97.9989228288
 20
223.6476235507
 30
0.0
  0
SPLINE
  5
363
100
AcDbEntity
  8
0
100
AcDbSpline
 62
7
  6
CONTINUOUS
 70
0
 71
3
 72
14
 73
10
 74
0
 42
0.0000001
 43
0.0000001
 44
0.0000000001
 40
0.0
 40
0.0
 40
0.0
 40
0.0
 40
0.2647861744
 40
0.4023145027
 40
0.5369566892
 40
0.6649561553
 40
0.7841217757
 40
0.8947378384
 40
1.0
 40
1.0
 40
1.0
 40
1.0
 10
134.7278485627
 20
230.4120422911
 30
0.0
 10
134.7278476492
 20
231.1593723854
 30
0.0
 10
135.0238176091
 20
232.3074996425
 30
0.0
 10
135.8287948118
 20
233.5982920529
 30
0.0
 10
136.6196689451
 20
234.4184156279
 30
0.0
 10
137.5319065899
 20
235.0109523046
 30
0.0
 10
138.5037353491
 20
235.3308846419
 30
0.0
 10
139.4655335902
 20
235.3457557379
 30
0.0
 10
140.0555281333
 20
235.138938546
 30
0.0
 10
140.3127726241
 20
234.9903171616
 30
0.0
  0
SPLINE
  5
364
100
AcDbEntity
  8
0
100
AcDbSpline
 62
7
  6
CONTINUOUS
 70
0
 71
3
 72
9
 73
5
 74
0
 42
0.0000001
 43
0.0000001
 44
0.0000000001
 40
0.0
 40
0.0
 40
0.0
 40
0.0
 40
0.2514616261
 40
1.0
 40
1.0
 40
1.0
 40
1.0
 10
76.5459672272
 20
234.8555760502
 30
0.0
 10
77.0385408005
 20
235.1323726881
 30
0.0
 10
79.0050265787
 20
236.219457323
 30
0.0
 10
81.0020199958
 20
237.2514198057
 30
0.0
 10
82.5126471478
 20
237.9909123752
 30
0.0
  0
SPLINE
  5
365
100
AcDbEntity
  8
0
100
AcDbSpline
 62
7
  6
CONTINUOUS
 70
0
 71
3
 72
11
 73
7
 74
0
 42
0.0000001
 43
0.0000001
 44
0.0000000001
 40
0.0
 40
0.0
 40
0.0
 40
0.0
 40
0.2448240754
 40
0.5004081228
 40
0.755771626
 40
1.0
 40
1.0
 40
1.0
 40
1.0
 10
73.7777769962
 20
230.1150261867
 30
0.0
 10
73.7777480792
 20
230.5817590545
 30
0.0
 10
73.9227143652
 20
231.5390740535
 30
0.0
 10
74.4981270104
 20
232.8752549364
 30
0.0
 10
75.3782322636
 20
234.0322601029
 30
0.0
 10
76.1400529959
 20
234.6275093698
 30
0.0
 10
76.5459672272
 20
234.8555760502
 30
0.0
  0
SPLINE
  5
366
100
AcDbEntity
  8
0
100
AcDbSpline
 62
7
  6
CONTINUOUS
 70
0
 71
3
 72
9
 73
5
 74
0
 42
0.0000001
 43
0.0000001
 44
0.0000000001
 40
0.0
 40
0.0
 40
0.0
 40
0.0
 40
0.2469018231
 40
1.0
 40
1.0
 40
1.0
 40
1.0
 10
87.2615160106
 20
240.0813947617
 30
0.0
 10
87.3303128995
 20
240.0946741367
 30
0.0
 10
87.610273615
 20
240.1415504225
 30
0.0
 10
87.8946451678
 20
240.1605868839
 30
0.0
 10
88.1083596444
 20
240.1616644117
 30
0.0
  0
SPLINE
  5
367
100
AcDbEntity
  8
0
100
AcDbSpline
 62
7
  6
CONTINUOUS
 70
0
 71
3
 72
9
 73
5
 74
0
 42
0.0000001
 43
0.0000001
 44
0.0000000001
 40
0.0
 40
0.0
 40
0.0
 40
0.0
 40
0.2434951685
 40
1.0
 40
1.0
 40
1.0
 40
1.0
 10
86.5512314513
 20
239.8704999569
 30
0.0
 10
86.6067948347
 20
239.8936609643
 30
0.0
 10
86.8377017884
 20
239.9821991731
 30
0.0
 10
87.0778810266
 20
240.0459490044
 30
0.0
 10
87.2615160106
 20
240.0813947617
 30
0.0
  0
SPLINE
  5
368
100
AcDbEntity
  8
0
100
AcDbSpline
 62
7
  6
CONTINUOUS
 70
0
 71
3
 72
11
 73
7
 74
0
 42
0.0000001
 43
0.0000001
 44
0.0000000001
 40
0.0
 40
0.0
 40
0.0
 40
0.0
 40
0.2073071236
 40
0.4347662336
 40
0.6965407769
 40
1.0
 40
1.0
 40
1.0
 40
1.0
 10
116.0654374849
 20
247.4747250583
 30
0.0
 10
116.0650450834
 20
247.1048019458
 30
0.0
 10
115.918359805
 20
246.3240748559
 30
0.0
 10
115.298645556
 20
245.227843343
 30
0.0
 10
114.3150337147
 20
244.1969885046
 30
0.0
 10
113.4940845304
 20
243.6029171267
 30
0.0
 10
113.0361292593
 20
243.3139562933
 30
0.0
  0
SPLINE
  5
369
100
AcDbEntity
  8
0
100
AcDbSpline
 62
7
  6
CONTINUOUS
 70
0
 71
3
 72
9
 73
5
 74
0
 42
0.0000001
 43
0.0000001
 44
0.0000000001
 40
0.0
 40
0.0
 40
0.0
 40
0.0
 40
0.4617410894
 40
1.0
 40
1.0
 40
1.0
 40
1.0
 10
113.0361292593
 20
243.3139562933
 30
0.0
 10
112.2572915515
 20
242.8225249083
 30
0.0
 10
110.456744945
 20
241.9387096708
 30
0.0
 10
108.5584765139
 20
241.3125885878
 30
0.0
 10
107.5233806797
 20
241.0279052145
 30
0.0
  0
SPLINE
  5
36A
100
AcDbEntity
  8
0
100
AcDbSpline
 62
7
  6
CONTINUOUS
 70
0
 71
3
 72
9
 73
5
 74
0
 42
0.0000001
 43
0.0000001
 44
0.0000000001
 40
0.0
 40
0.0
 40
0.0
 40
0.0
 40
0.2688322693
 40
1.0
 40
1.0
 40
1.0
 40
1.0
 10
116.2199099927
 20
247.6866902199
 30
0.0
 10
116.203299385
 20
247.6699784995
 30
0.0
 10
116.1436496491
 20
247.6058194537
 30
0.0
 10
116.0930517332
 20
247.5325555881
 30
0.0
 10
116.0654374849
 20
247.4747250583
 30
0.0
  0
SPLINE
  5
36B
100
AcDbEntity
  8
0
100
AcDbSpline
 62
7
  6
CONTINUOUS
 70
0
 71
3
 72
9
 73
5
 74
0
 42
0.0000001
 43
0.0000001
 44
0.0000000001
 40
0.0
 40
0.0
 40
0.0
 40
0.0
 40
0.2440287144
 40
1.0
 40
1.0
 40
1.0
 40
1.0
 10
89.2017216222
 20
240.0863722151
 30
0.0
 10
89.1134841959
 20
240.0994133739
 30
0.0
 10
88.7508156479
 20
240.1453462167
 30
0.0
 10
88.3846742932
 20
240.1630524578
 30
0.0
 10
88.1083596444
 20
240.1616578723
 30
0.0
  0
SPLINE
  5
36C
100
AcDbEntity
  8
0
100
AcDbSpline
 62
7
  6
CONTINUOUS
 70
0
 71
3
 72
11
 73
7
 74
0
 42
0.0000001
 43
0.0000001
 44
0.0000000001
 40
0.0
 40
0.0
 40
0.0
 40
0.0
 40
0.2339920809
 40
0.4867210699
 40
0.7462362643
 40
1.0
 40
1.0
 40
1.0
 40
1.0
 10
107.5233806797
 20
241.0279052145
 30
0.0
 10
106.1353301086
 20
240.6461483706
 30
0.0
 10
103.1932236233
 20
240.0468081846
 30
0.0
 10
98.6174347654
 20
239.5986613881
 30
0.0
 10
93.8982383175
 20
239.580831413
 30
0.0
 10
90.7470656061
 20
239.8642040176
 30
0.0
 10
89.2017216222
 20
240.0863722151
 30
0.0
  0
SPLINE
  5
36D
100
AcDbEntity
  8
0
100
AcDbSpline
 62
7
  6
CONTINUOUS
 70
0
 71
3
 72
9
 73
5
 74
0
 42
0.0000001
 43
0.0000001
 44
0.0000000001
 40
0.0
 40
0.0
 40
0.0
 40
0.0
 40
0.5065347908
 40
1.0
 40
1.0
 40
1.0
 40
1.0
 10
127.2076564525
 20
248.4360006359
 30
0.0
 10
127.4371038088
 20
248.4300953237
 30
0.0
 10
127.8907730784
 20
248.3662795744
 30
0.0
 10
128.3145136577
 20
248.1902873293
 30
0.0
 10
128.5081417872
 20
248.0784587147
 30
0.0
  0
SPLINE
  5
36E
100
AcDbEntity
  8
0
100
AcDbSpline
 62
7
  6
CONTINUOUS
 70
0
 71
3
 72
9
 73
5
 74
0
 42
0.0000001
 43
0.0000001
 44
0.0000000001
 40
0.0
 40
0.0
 40
0.0
 40
0.0
 40
0.2514428034
 40
1.0
 40
1.0
 40
1.0
 40
1.0
 10
121.2409750751
 20
248.3724673476
 30
0.0
 10
121.7406155361
 20
248.3957482407
 30
0.0
 10
123.7284878531
 20
248.4706715252
 30
0.0
 10
125.7190851808
 20
248.4744317329
 30
0.0
 10
127.2076564525
 20
248.4360006359
 30
0.0
  0
SPLINE
  5
36F
100
AcDbEntity
  8
0
100
AcDbSpline
 62
7
  6
CONTINUOUS
 70
0
 71
3
 72
11
 73
7
 74
0
 42
0.0000001
 43
0.0000001
 44
0.0000000001
 40
0.0
 40
0.0
 40
0.0
 40
0.0
 40
0.2442342691
 40
0.4995921421
 40
0.7551708522
 40
1.0
 40
1.0
 40
1.0
 40
1.0
 10
140.692192738
 20
148.0870953169
 30
0.0
 10
141.0981058581
 20
148.3151620632
 30
0.0
 10
141.8599018193
 20
148.9104043961
 30
0.0
 10
142.7399722204
 20
150.0673737584
 30
0.0
 10
143.3153727689
 20
151.4035050147
 30
0.0
 10
143.4603409019
 20
152.3607944933
 30
0.0
 10
143.4603125905
 20
152.8275248266
 30
0.0
  0
SPLINE
  5
370
100
AcDbEntity
  8
0
100
AcDbSpline
 62
7
  6
CONTINUOUS
 70
0
 71
3
 72
11
 73
7
 74
0
 42
0.0000001
 43
0.0000001
 44
0.0000000001
 40
0.0
 40
0.0
 40
0.0
 40
0.0
 40
0.2717865031
 40
0.5268862684
 40
0.7676458427
 40
1.0
 40
1.0
 40
1.0
 40
1.0
 10
143.4602118141
 20
237.391418186
 30
0.0
 10
143.4602297173
 20
237.6989649253
 30
0.0
 10
143.4004570104
 20
238.2977149367
 30
0.0
 10
143.1141325879
 20
239.1271216762
 30
0.0
 10
142.6448452581
 20
239.8171600931
 30
0.0
 10
142.2201860322
 20
240.1587733699
 30
0.0
 10
141.9925041339
 20
240.2902689361
 30
0.0
  0
SPLINE
  5
371
100
AcDbEntity
  8
0
100
AcDbSpline
 62
7
  6
CONTINUOUS
 70
0
 71
3
 72
9
 73
5
 74
0
 42
0.0000001
 43
0.0000001
 44
0.0000000001
 40
0.0
 40
0.0
 40
0.0
 40
0.0
 40
0.2486194744
 40
1.0
 40
1.0
 40
1.0
 40
1.0
 10
90.0303783509
 20
134.506629982
 30
0.0
 10
90.5247856737
 20
134.4938656515
 30
0.0
 10
92.5138320012
 20
134.4608126857
 30
0.0
 10
94.5040431706
 20
134.5005918358
 30
0.0
 10
95.9971243892
 20
134.570162391
 30
0.0
  0
SPLINE
  5
372
100
AcDbEntity
  8
0
100
AcDbSpline
 62
7
  6
CONTINUOUS
 70
0
 71
3
 72
9
 73
5
 74
0
 42
0.0000001
 43
0.0000001
 44
0.0000000001
 40
0.0
 40
0.0
 40
0.0
 40
0.0
 40
0.5552035378
 40
1.0
 40
1.0
 40
1.0
 40
1.0
 10
117.204222713
 20
248.0878024171
 30
0.0
 10
117.0062356076
 20
248.0645382312
 30
0.0
 10
116.6517967057
 20
247.9874561119
 30
0.0
 10
116.3324966303
 20
247.7999702109
 30
0.0
 10
116.2199099927
 20
247.6866982315
 30
0.0
  0
SPLINE
  5
373
100
AcDbEntity
  8
0
100
AcDbSpline
 62
7
  6
CONTINUOUS
 70
0
 71
3
 72
14
 73
10
 74
0
 42
0.0000001
 43
0.0000001
 44
0.0000000001
 40
0.0
 40
0.0
 40
0.0
 40
0.0
 40
0.2647861737
 40
0.4023145034
 40
0.5369566927
 40
0.6649561586
 40
0.7841217773
 40
0.8947378382
 40
1.0
 40
1.0
 40
1.0
 40
1.0
 10
141.6874919808
 20
154.1342092423
 30
0.0
 10
141.6874928944
 20
153.3866851459
 30
0.0
 10
141.3914460911
 20
152.238259836
 30
0.0
 10
140.586259884
 20
150.9471323503
 30
0.0
 10
139.7951804064
 20
150.1267958915
 30
0.0
 10
138.8827059135
 20
149.53410544
 30
0.0
 10
137.9106248543
 20
149.2140901256
 30
0.0
 10
136.9485769389
 20
149.1992152692
 30
0.0
 10
136.3584292654
 20
149.4060862296
 30
0.0
 10
136.1011180166
 20
149.5547462338
 30
0.0
  0
SPLINE
  5
374
100
AcDbEntity
  8
0
100
AcDbSpline
 62
7
  6
CONTINUOUS
 70
0
 71
3
 72
14
 73
10
 74
0
 42
0.0000001
 43
0.0000001
 44
0.0000000001
 40
0.0
 40
0.0
 40
0.0
 40
0.0
 40
0.2647861744
 40
0.4023145027
 40
0.5369566892
 40
0.6649561553
 40
0.7841217757
 40
0.8947378384
 40
1.0
 40
1.0
 40
1.0
 40
1.0
 10
99.3727391093
 20
142.7912735518
 30
0.0
 10
99.3727400227
 20
142.0439434575
 30
0.0
 10
99.0767700628
 20
140.8958162005
 30
0.0
 10
98.2717928601
 20
139.60502379
 30
0.0
 10
97.4809187268
 20
138.784900215
 30
0.0
 10
96.5686810821
 20
138.1923635383
 30
0.0
 10
95.5968523228
 20
137.8724312011
 30
0.0
 10
94.6350540817
 20
137.8575601051
 30
0.0
 10
94.0450595386
 20
138.0643772969
 30
0.0
 10
93.7878150478
 20
138.2129986813
 30
0.0
  0
SPLINE
  5
375
100
AcDbEntity
  8
0
100
AcDbSpline
 62
7
  6
CONTINUOUS
 70
0
 71
3
 72
14
 73
10
 74
0
 42
0.0000001
 43
0.0000001
 44
0.0000000001
 40
0.0
 40
0.0
 40
0.0
 40
0.0
 40
0.2647861744
 40
0.4023145027
 40
0.5369566892
 40
0.6649561553
 40
0.7841217757
 40
0.8947378384
 40
1.0
 40
1.0
 40
1.0
 40
1.0
 10
99.3726435969
 20
220.9346900904
 30
0.0
 10
99.3726445103
 20
220.1873599961
 30
0.0
 10
99.0766745504
 20
219.0392327391
 30
0.0
 10
98.2716973477
 20
217.7484403286
 30
0.0
 10
97.4808232144
 20
216.9283167536
 30
0.0
 10
96.5685855697
 20
216.3357800769
 30
0.0
 10
95.5967568104
 20
216.0158477397
 30
0.0
 10
94.6349585693
 20
216.0009766437
 30
0.0
 10
94.0449640262
 20
216.2077938355
 30
0.0
 10
93.7877195354
 20
216.3564152199
 30
0.0
  0
SPLINE
  5
376
100
AcDbEntity
  8
0
100
AcDbSpline
 62
7
  6
CONTINUOUS
 70
0
 71
3
 72
14
 73
10
 74
0
 42
0.0000001
 43
0.0000001
 44
0.0000000001
 40
0.0
 40
0.0
 40
0.0
 40
0.0
 40
0.2647861744
 40
0.4023145027
 40
0.5369566892
 40
0.6649561553
 40
0.7841217757
 40
0.8947378384
 40
1.0
 40
1.0
 40
1.0
 40
1.0
 10
141.6864933923
 20
232.2773837013
 30
0.0
 10
141.6864943057
 20
231.530053607
 30
0.0
 10
141.3905243458
 20
230.38192635
 30
0.0
 10
140.5855471431
 20
229.0911339395
 30
0.0
 10
139.7946730098
 20
228.2710103645
 30
0.0
 10
138.8824353651
 20
227.6784736878
 30
0.0
 10
137.9106066058
 20
227.3585413505
 30
0.0
 10
136.9488083647
 20
227.3436702546
 30
0.0
 10
136.3588138216
 20
227.5504874464
 30
0.0
 10
136.1015693308
 20
227.6991088308
 30
0.0
  0
SPLINE
  5
377
100
AcDbEntity
  8
0
100
AcDbSpline
 62
7
  6
CONTINUOUS
 70
0
 71
3
 72
11
 73
7
 74
0
 42
0.0000001
 43
0.0000001
 44
0.0000000001
 40
0.0
 40
0.0
 40
0.0
 40
0.0
 40
0.2323632292
 40
0.4731192946
 40
0.7282471245
 40
1.0
 40
1.0
 40
1.0
 40
1.0
 10
140.3134146564
 20
156.8478468587
 30
0.0
 10
140.5265428502
 20
156.7247133863
 30
0.0
 10
140.9241058044
 20
156.4049675348
 30
0.0
 10
141.3634807002
 20
155.7589909743
 30
0.0
 10
141.6314873826
 20
154.9825649676
 30
0.0
 10
141.6874916289
 20
154.4220756696
 30
0.0
 10
141.6874919808
 20
154.1342092423
 30
0.0
  0
SPLINE
  5
378
100
AcDbEntity
  8
0
100
AcDbSpline
 62
7
  6
CONTINUOUS
 70
0
 71
3
 72
9
 73
5
 74
0
 42
0.0000001
 43
0.0000001
 44
0.0000000001
 40
0.0
 40
0.0
 40
0.0
 40
0.0
 40
0.4934607848
 40
1.0
 40
1.0
 40
1.0
 40
1.0
 10
141.9925041339
 20
240.2902689361
 30
0.0
 10
141.7988863501
 20
240.4020910893
 30
0.0
 10
141.3751634886
 20
240.5780701563
 30
0.0
 10
140.9215159341
 20
240.6418887316
 30
0.0
 10
140.6920770209
 20
240.6477936453
 30
0.0
  0
SPLINE
  5
379
100
AcDbEntity
  8
0
100
AcDbSpline
 62
7
  6
CONTINUOUS
 70
0
 71
3
 72
11
 73
7
 74
0
 42
0.0000001
 43
0.0000001
 44
0.0000000001
 40
0.0
 40
0.0
 40
0.0
 40
0.0
 40
0.2323632268
 40
0.4731192924
 40
0.7282471227
 40
1.0
 40
1.0
 40
1.0
 40
1.0
 10
140.3127726241
 20
234.9903171616
 30
0.0
 10
140.5258455118
 20
234.8672156427
 30
0.0
 10
140.9233052993
 20
234.5475527609
 30
0.0
 10
141.3625661875
 20
233.9017438293
 30
0.0
 10
141.6305033241
 20
233.1255192922
 30
0.0
 10
141.6864930405
 20
232.5651754326
 30
0.0
 10
141.6864933923
 20
232.2773837013
 30
0.0
  0
SPLINE
  5
37A
100
AcDbEntity
  8
0
100
AcDbSpline
 62
7
  6
CONTINUOUS
 70
0
 71
3
 72
9
 73
5
 74
0
 42
0.0000001
 43
0.0000001
 44
0.0000000001
 40
0.0
 40
0.0
 40
0.0
 40
0.0
 40
0.2460980386
 40
1.0
 40
1.0
 40
1.0
 40
1.0
 10
131.0998704596
 20
144.4010710485
 30
0.0
 10
131.1750742384
 20
144.4212312464
 30
0.0
 10
131.4789829025
 20
144.5093216519
 30
0.0
 10
131.7757796804
 20
144.6216153753
 30
0.0
 10
131.9939307567
 20
144.7180500273
 30
0.0
  0
SPLINE
  5
37B
100
AcDbEntity
  8
0
100
AcDbSpline
 62
7
  6
CONTINUOUS
 70
0
 71
3
 72
9
 73
5
 74
0
 42
0.0000001
 43
0.0000001
 44
0.0000000001
 40
0.0
 40
0.0
 40
0.0
 40
0.0
 40
0.2461554736
 40
1.0
 40
1.0
 40
1.0
 40
1.0
 10
102.1067690938
 20
136.7064670756
 30
0.0
 10
102.1810500104
 20
136.7134545081
 30
0.0
 10
102.4821667265
 20
136.7484735362
 30
0.0
 10
102.7801329803
 20
136.8096563416
 30
0.0
 10
103.0008295798
 20
136.8688135725
 30
0.0
  0
SPLINE
  5
37C
100
AcDbEntity
  8
0
100
AcDbSpline
 62
7
  6
CONTINUOUS
 70
0
 71
3
 72
9
 73
5
 74
0
 42
0.0000001
 43
0.0000001
 44
0.0000000001
 40
0.0
 40
0.0
 40
0.0
 40
0.0
 40
0.2486194687
 40
1.0
 40
1.0
 40
1.0
 40
1.0
 10
92.3528329077
 20
136.3673463824
 30
0.0
 10
92.8348699977
 20
136.3549014196
 30
0.0
 10
94.7741498144
 20
136.3226766178
 30
0.0
 10
96.7145652261
 20
136.36146225
 30
0.0
 10
98.1702891095
 20
136.4292921293
 30
0.0
  0
SPLINE
  5
37D
100
AcDbEntity
  8
0
100
AcDbSpline
 62
7
  6
CONTINUOUS
 70
0
 71
3
 72
11
 73
7
 74
0
 42
0.0000001
 43
0.0000001
 44
0.0000000001
 40
0.0
 40
0.0
 40
0.0
 40
0.0
 40
0.2733618279
 40
0.5234549398
 40
0.7599568067
 40
1.0
 40
1.0
 40
1.0
 40
1.0
 10
91.4306317725
 20
137.452213873
 30
0.0
 10
91.4306065363
 20
137.3083878679
 30
0.0
 10
91.4692933835
 20
137.0302552109
 30
0.0
 10
91.6619531335
 20
136.6686490017
 30
0.0
 10
91.97303333
 20
136.4261924001
 30
0.0
 10
92.2265784066
 20
136.3705764204
 30
0.0
 10
92.3528329077
 20
136.3673463824
 30
0.0
  0
SPLINE
  5
37E
100
AcDbEntity
  8
0
100
AcDbSpline
 62
7
  6
CONTINUOUS
 70
0
 71
3
 72
9
 73
5
 74
0
 42
0.0000001
 43
0.0000001
 44
0.0000000001
 40
0.0
 40
0.0
 40
0.0
 40
0.0
 40
0.4995774771
 40
1.0
 40
1.0
 40
1.0
 40
1.0
 10
92.3527263033
 20
223.595087898
 30
0.0
 10
92.0784583981
 20
223.441030028
 30
0.0
 10
91.620457802
 20
222.9640154536
 30
0.0
 10
91.4304723487
 20
222.3309148985
 30
0.0
 10
91.4305284129
 20
222.0158089388
 30
0.0
  0
SPLINE
  5
37F
100
AcDbEntity
  8
0
100
AcDbSpline
 62
7
  6
CONTINUOUS
 70
0
 71
3
 72
9
 73
5
 74
0
 42
0.0000001
 43
0.0000001
 44
0.0000000001
 40
0.0
 40
0.0
 40
0.0
 40
0.0
 40
0.2485533211
 40
1.0
 40
1.0
 40
1.0
 40
1.0
 10
98.1701788329
 20
226.6520076155
 30
0.0
 10
97.6811177528
 20
226.4125990796
 30
0.0
 10
95.7204601775
 20
225.4352031914
 30
0.0
 10
93.7878782132
 20
224.4015567079
 30
0.0
 10
92.3527263033
 20
223.595087898
 30
0.0
  0
SPLINE
  5
380
100
AcDbEntity
  8
0
100
AcDbSpline
 62
7
  6
CONTINUOUS
 70
0
 71
3
 72
9
 73
5
 74
0
 42
0.0000001
 43
0.0000001
 44
0.0000000001
 40
0.0
 40
0.0
 40
0.0
 40
0.0
 40
0.2460980386
 40
1.0
 40
1.0
 40
1.0
 40
1.0
 10
103.0007172124
 20
228.8022447944
 30
0.0
 10
102.9255134335
 20
228.7820845966
 30
0.0
 10
102.6216047695
 20
228.693994191
 30
0.0
 10
102.3248079916
 20
228.5817004677
 30
0.0
 10
102.1066569152
 20
228.4852658157
 30
0.0
  0
SPLINE
  5
381
100
AcDbEntity
  8
0
100
AcDbSpline
 62
7
  6
CONTINUOUS
 70
0
 71
3
 72
9
 73
5
 74
0
 42
0.0000001
 43
0.0000001
 44
0.0000000001
 40
0.0
 40
0.0
 40
0.0
 40
0.0
 40
0.246155463
 40
1.0
 40
1.0
 40
1.0
 40
1.0
 10
131.9938185782
 20
236.4968487674
 30
0.0
 10
131.9195376615
 20
236.4898613666
 30
0.0
 10
131.6184209422
 20
236.4548423543
 30
0.0
 10
131.3204546726
 20
236.3936595883
 30
0.0
 10
131.0997580921
 20
236.3345022704
 30
0.0
  0
SPLINE
  5
382
100
AcDbEntity
  8
0
100
AcDbSpline
 62
7
  6
CONTINUOUS
 70
0
 71
3
 72
9
 73
5
 74
0
 42
0.0000001
 43
0.0000001
 44
0.0000000001
 40
0.0
 40
0.0
 40
0.0
 40
0.0
 40
0.2486194744
 40
1.0
 40
1.0
 40
1.0
 40
1.0
 10
140.6920814664
 20
240.6478004978
 30
0.0
 10
140.1976741437
 20
240.6605648283
 30
0.0
 10
138.2086278161
 20
240.6936177942
 30
0.0
 10
136.2184166468
 20
240.653838644
 30
0.0
 10
134.7253354282
 20
240.5842680888
 30
0.0
  0
SPLINE
  5
383
100
AcDbEntity
  8
0
100
AcDbSpline
 62
7
  6
CONTINUOUS
 70
0
 71
3
 72
9
 73
5
 74
0
 42
0.0000001
 43
0.0000001
 44
0.0000000001
 40
0.0
 40
0.0
 40
0.0
 40
0.0
 40
0.2461553401
 40
1.0
 40
1.0
 40
1.0
 40
1.0
 10
130.6879200597
 20
240.2999860926
 30
0.0
 10
130.5818043201
 20
240.2900060436
 30
0.0
 10
130.1516375812
 20
240.239978413
 30
0.0
 10
129.7259701767
 20
240.1525787471
 30
0.0
 10
129.4106907938
 20
240.0680625255
 30
0.0
  0
SPLINE
  5
384
100
AcDbEntity
  8
0
100
AcDbSpline
 62
7
  6
CONTINUOUS
 70
0
 71
3
 72
9
 73
5
 74
0
 42
0.0000001
 43
0.0000001
 44
0.0000000001
 40
0.0
 40
0.0
 40
0.0
 40
0.0
 40
0.2485533035
 40
1.0
 40
1.0
 40
1.0
 40
1.0
 10
95.9970075004
 20
230.2027131163
 30
0.0
 10
95.4953958726
 20
229.9571607502
 30
0.0
 10
93.4844227792
 20
228.9546821691
 30
0.0
 10
91.5022469023
 20
227.8945074314
 30
0.0
 10
90.0302652167
 20
227.0673425089
 30
0.0
  0
SPLINE
  5
385
100
AcDbEntity
  8
0
100
AcDbSpline
 62
7
  6
CONTINUOUS
 70
0
 71
3
 72
11
 73
7
 74
0
 42
0.0000001
 43
0.0000001
 44
0.0000000001
 40
0.0
 40
0.0
 40
0.0
 40
0.0
 40
0.2442346069
 40
0.4995923586
 40
0.7551709644
 40
1.0
 40
1.0
 40
1.0
 40
1.0
 10
90.030267096
 20
227.0673350974
 30
0.0
 10
89.6243526632
 20
226.839268981
 30
0.0
 10
88.8625511763
 20
226.2440320425
 30
0.0
 10
87.9824827917
 20
225.0870590548
 30
0.0
 10
87.4070825047
 20
223.7509285678
 30
0.0
 10
87.262112614
 20
222.7936389665
 30
0.0
 10
87.262142125
 20
222.3269086549
 30
0.0
  0
SPLINE
  5
386
100
AcDbEntity
  8
0
100
AcDbSpline
 62
7
  6
CONTINUOUS
 70
0
 71
3
 72
11
 73
7
 74
0
 42
0.0000001
 43
0.0000001
 44
0.0000000001
 40
0.0
 40
0.0
 40
0.0
 40
0.0
 40
0.2717857168
 40
0.5268857961
 40
0.7676455786
 40
1.0
 40
1.0
 40
1.0
 40
1.0
 10
87.2622480684
 20
137.7630123113
 30
0.0
 10
87.262229375
 20
137.4554667802
 30
0.0
 10
87.3219959928
 20
136.8567171577
 30
0.0
 10
87.6083226017
 20
136.027311961
 30
0.0
 10
88.0776091922
 20
135.3372733363
 30
0.0
 10
88.5022685753
 20
134.995660123
 30
0.0
 10
88.7299504966
 20
134.8641645435
 30
0.0
  0
SPLINE
  5
387
100
AcDbEntity
  8
0
100
AcDbSpline
 62
7
  6
CONTINUOUS
 70
0
 71
3
 72
9
 73
5
 74
0
 42
0.0000001
 43
0.0000001
 44
0.0000000001
 40
0.0
 40
0.0
 40
0.0
 40
0.0
 40
0.2486194686
 40
1.0
 40
1.0
 40
1.0
 40
1.0
 10
141.7477545705
 20
236.8359694632
 30
0.0
 10
141.2657174966
 20
236.8484144256
 30
0.0
 10
139.3264377443
 20
236.8806392245
 30
0.0
 10
137.3860223973
 20
236.8418535907
 30
0.0
 10
135.9302985623
 20
236.7740237137
 30
0.0
  0
SPLINE
  5
388
100
AcDbEntity
  8
0
100
AcDbSpline
 62
7
  6
CONTINUOUS
 70
0
 71
3
 72
11
 73
7
 74
0
 42
0.0000001
 43
0.0000001
 44
0.0000000001
 40
0.0
 40
0.0
 40
0.0
 40
0.0
 40
0.2733618301
 40
0.5234549425
 40
0.7599568065
 40
1.0
 40
1.0
 40
1.0
 40
1.0
 10
142.6699558995
 20
235.7511017303
 30
0.0
 10
142.6699811329
 20
235.8949277709
 30
0.0
 10
142.6312942984
 20
236.1730604947
 30
0.0
 10
142.4386345307
 20
236.5346668115
 30
0.0
 10
142.1275542387
 20
236.7771234543
 30
0.0
 10
141.8740091018
 20
236.8327394206
 30
0.0
 10
141.7477545705
 20
236.8359694632
 30
0.0
  0
SPLINE
  5
389
100
AcDbEntity
  8
0
100
AcDbSpline
 62
7
  6
CONTINUOUS
 70
0
 71
3
 72
9
 73
5
 74
0
 42
0.0000001
 43
0.0000001
 44
0.0000000001
 40
0.0
 40
0.0
 40
0.0
 40
0.0
 40
0.4995774772
 40
1.0
 40
1.0
 40
1.0
 40
1.0
 10
141.7478611748
 20
149.6082278385
 30
0.0
 10
142.0221291391
 20
149.7622857485
 30
0.0
 10
142.4801298943
 20
150.2393003876
 30
0.0
 10
142.6701153161
 20
150.8724011131
 30
0.0
 10
142.670059259
 20
151.1875071438
 30
0.0
  0
SPLINE
  5
38A
100
AcDbEntity
  8
0
100
AcDbSpline
 62
7
  6
CONTINUOUS
 70
0
 71
3
 72
9
 73
5
 74
0
 42
0.0000001
 43
0.0000001
 44
0.0000000001
 40
0.0
 40
0.0
 40
0.0
 40
0.0
 40
0.2485533211
 40
1.0
 40
1.0
 40
1.0
 40
1.0
 10
135.9304088388
 20
146.5513082273
 30
0.0
 10
136.4194699026
 20
146.7907167553
 30
0.0
 10
138.3801274121
 20
147.7681126103
 30
0.0
 10
140.3127093133
 20
148.8017590557
 30
0.0
 10
141.7478611748
 20
149.6082278385
 30
0.0
  0
SPLINE
  5
38B
100
AcDbEntity
  8
0
100
AcDbSpline
 62
7
  6
CONTINUOUS
 70
0
 71
3
 72
11
 73
7
 74
0
 42
0.0000001
 43
0.0000001
 44
0.0000000001
 40
0.0
 40
0.0
 40
0.0
 40
0.0
 40
0.2323632268
 40
0.4731192924
 40
0.7282471227
 40
1.0
 40
1.0
 40
1.0
 40
1.0
 10
97.9990183411
 20
145.5042070121
 30
0.0
 10
98.2120912288
 20
145.3811054932
 30
0.0
 10
98.6095510163
 20
145.0614426114
 30
0.0
 10
99.0488119044
 20
144.4156336798
 30
0.0
 10
99.3167490411
 20
143.6394091428
 30
0.0
 10
99.3727387575
 20
143.0790652831
 30
0.0
 10
99.3727391093
 20
142.7912735518
 30
0.0
  0
SPLINE
  5
38C
100
AcDbEntity
  8
0
100
AcDbSpline
 62
7
  6
CONTINUOUS
 70
0
 71
3
 72
11
 73
7
 74
0
 42
0.0000001
 43
0.0000001
 44
0.0000000001
 40
0.0
 40
0.0
 40
0.0
 40
0.0
 40
0.2323632268
 40
0.4731192924
 40
0.7282471227
 40
1.0
 40
1.0
 40
1.0
 40
1.0
 10
97.9989228288
 20
223.6476235507
 30
0.0
 10
98.2119957164
 20
223.5245220318
 30
0.0
 10
98.6094555039
 20
223.20485915
 30
0.0
 10
99.0487163921
 20
222.5590502184
 30
0.0
 10
99.3166535287
 20
221.7828256814
 30
0.0
 10
99.3726432452
 20
221.2224818217
 30
0.0
 10
99.3726435969
 20
220.9346900904
 30
0.0
  0
ELLIPSE
  5
38D
100
AcDbEntity
  8
0
100
AcDbEllipse
 62
7
  6
CONTINUOUS
 10
136.019444324
 20
154.4649229497
 30
0.0
 11
9.4297537243
 21
-3.0944677382
 31
0.0
 40
0.3544320851
 41
-1.2917818964
 42
-1.1703882353
  0
ELLIPSE
  5
38E
100
AcDbEntity
  8
0
100
AcDbEllipse
 62
7
  6
CONTINUOUS
 10
93.7055945286
 20
143.1222293388
 30
0.0
 11
9.4297537243
 21
-3.0944677382
 31
0.0
 40
0.3544320851
 41
-1.2917818964
 42
-1.1703882353
  0
ELLIPSE
  5
38F
100
AcDbEntity
  8
0
100
AcDbEllipse
 62
7
  6
CONTINUOUS
 10
136.0193488116
 20
232.6083394883
 30
0.0
 11
9.4297537243
 21
-3.0944677382
 31
0.0
 40
0.3544320851
 41
-1.2917818964
 42
-1.1703882353
  0
ELLIPSE
  5
390
100
AcDbEntity
  8
0
100
AcDbEllipse
 62
7
  6
CONTINUOUS
 10
93.7054990163
 20
221.2656458774
 30
0.0
 11
9.4297537243
 21
-3.0944677382
 31
0.0
 40
0.3544320851
 41
-1.2917818964
 42
-1.1703882353
  0
ENDSEC
  0
SECTION
  2
OBJECTS
  0
DICTIONARY
  5
C
100
AcDbDictionary
280
0
281
1
  3
ACAD_GROUP
350
D
  3
ACAD_MLINESTYLE
350
17
  3
ACAD_LAYOUT
350
1A
  3
ACAD_PLOTSETTINGS
350
19
  3
ACAD_PLOTSTYLENAME
350
E
  0
DICTIONARY
  5
D
102
{ACAD_REACTORS
330
C
102
}
100
AcDbDictionary
280
0
281
1
  0
ACDBDICTIONARYWDFLT
  5
E
102
{ACAD_REACTORS
330
C
102
}
100
AcDbDictionary
281
1
  3
Normal
350
F
100
AcDbDictionaryWithDefault
340
F
  0
DICTIONARY
  5
17
102
{ACAD_REACTORS
330
C
102
}
100
AcDbDictionary
280
0
281
1
  3
Standard
350
18
  0
DICTIONARY
  5
19
102
{ACAD_REACTORS
330
C
102
}
100
AcDbDictionary
281
1
  0
DICTIONARY
  5
1A
102
{ACAD_REACTORS
330
C
102
}
100
AcDbDictionary
281
1
  3
Model
350
391
  3
Layout1
350
392
  0
ACDBPLACEHOLDER
  5
F
102
{ACAD_REACTORS
330
E
102
}
  0
MLINESTYLE
  5
18
102
{ACAD_REACTORS
330
17
102
}
100
AcDbMlineStyle
  2
STANDARD
 70
0
  3

 62
256
 51
90.0
 52
90.0
 71
2
 49
0.5
 62
256
  6
BYLAYER
 49
-0.5
 62
256
  6
BYLAYER
  0
LAYOUT
  5
391
102
{ACAD_REACTORS
330
1A
102
}
100
AcDbPlotSettings
  1

  2
none_device
  4
ANSI_C_(22.00_x_17.00_Inches)
  6

 40
0.0
 41
0.0
 42
0.0
 43
0.0
 44
558.8
 45
431.8
 46
0.0
 47
0.0
 48
0.0
 49
0.0
140
0.0
141
0.0
142
1.0
143
1.0
 70
1024
 72
1
 73
0
 74
0
  7

 75
0
147
1.0
148
0.0
149
0.0
100
AcDbLayout
  1
Model
 70
0
 71
0
 10
0.0
 20
0.0
 11
558.8
 21
431.8
 12
0.0
 22
0.0
 32
0.0
 14
0.0
 24
0.0
 34
0.0
 15
0.0
 25
0.0
 35
0.0
146
0.0
 13
0.0
 23
0.0
 33
0.0
 16
1.0
 26
0.0
 36
0.0
 17
0.0
 27
1.0
 37
0.0
 76
0
330
216
345
0
346
0
  0
LAYOUT
  5
392
102
{ACAD_REACTORS
330
1A
102
}
100
AcDbPlotSettings
  1

  2
none_device
  4
ANSI_C_(22.00_x_17.00_Inches)
  6

 40
0.0
 41
0.0
 42
0.0
 43
0.0
 44
558.8
 45
431.8
 46
0.0
 47
0.0
 48
0.0
 49
0.0
140
0.0
141
0.0
142
1.0
143
1.0
 70
0
 72
1
 73
0
 74
0
  7

 75
0
147
1.0
148
0.0
149
0.0
100
AcDbLayout
  1
Layout1
 70
0
 71
1
 10
0.0
 20
0.0
 11
558.8
 21
431.8
 12
0.0
 22
0.0
 32
0.0
 14
0.0
 24
0.0
 34
0.0
 15
0.0
 25
0.0
 35
0.0
146
0.0
 13
0.0
 23
0.0
 33
0.0
 16
1.0
 26
0.0
 36
0.0
 17
0.0
 27
1.0
 37
0.0
 76
0
330
217
345
0
346
0
  0
ENDSEC
  0
EOF
