999
DXF file: C:\Users\sesa63760\Dev\_Creo\CAD\MCADID0002315_3D-CAD\drw0001_6.dxf
999
Pro/ENGINEER 2019471 by Parametric Technology Corporation
  0
SECTION
  2
HEADER
  9
$ACADVER
  1
AC1024
  9
$DWGCODEPAGE
  3
ANSI_1252
  9
$EXTMAX
 10
151.2687630507
 20
213.9372506002
 30
0.0
  9
$EXTMIN
 10
0.0
 20
0.0
 30
0.0
  9
$LIMMIN
 10
0.0
 20
0.0
  9
$LIMMAX
 10
151.2687630507
 20
213.9372506002
  9
$VIEWCTR
 10
75.6343815253
 20
106.9686253001
  9
$VIEWSIZE
 40
213.9372506002
  9
$CLAYER
  8
0
  9
$LTSCALE
 40
13.9455392984
  9
$CELTYPE
  6
BYLAYER
  9
$DIMSCALE
 40
1.0
  9
$DIMASZ
 40
1.8008186077
  9
$DIMEXO
 40
1.0
  9
$DIMDLI
 40
9.6350998789
  9
$DIMEXE
 40
1.0
  9
$DIMCEN
 40
2.2819973397
  9
$DIMLFAC
 40
1.0
  9
$DIMBLK
  1
_FILLED
  9
$DIMALT
 70
0
  9
$DIMALTF
 40
0.0393700787
  9
$DIMTXT
 40
2.5211460508
  9
$DIMTOL
 70
1
  9
$DIMLIM
 70
0
  9
$DIMTFAC
 40
1.0
  9
$DIMTP
 40
0.01
  9
$DIMTM
 40
0.01
  9
$DIMGAP
 40
0.625
  9
$DIMDSEP
 70
46
  9
$AUNITS
 70
0
  9
$PDMODE
 70
3
  9
$PDSIZE
 40
0.3125
  9
$HANDSEED
  5
24C
  9
$TILEMODE
 70
1
  9
$MEASUREMENT
 70
1
  9
$INSUNITS
 70
4
  0
ENDSEC
  0
SECTION
  2
CLASSES
  0
CLASS
  1
ACDBDICTIONARYWDFLT
  2
AcDbDictionaryWithDefault
  3
AutoCAD 2000
 90
0
 91
1
280
0
281
0
  0
CLASS
  1
ACDBPLACEHOLDER
  2
AcDbPlaceHolder
  3
AutoCAD 2000
 90
0
 91
1
280
0
281
0
  0
CLASS
  1
LAYOUT
  2
AcDbLayout
  3
AutoCAD 2000
 90
0
 91
0
280
0
281
0
  0
ENDSEC
  0
SECTION
  2
TABLES
  0
TABLE
  2
VPORT
  5
8
100
AcDbSymbolTable
 70
2
  0
VPORT
  5
1F4
100
AcDbSymbolTableRecord
100
AcDbViewportTableRecord
  2
*ACTIVE
 70
0
 10
0.0
 20
0.0
 11
1.0
 21
1.0
 12
75.6343815253
 22
106.9686253001
 13
0.0
 23
0.0
 14
1.0
 24
1.0
 15
0.0
 25
0.0
 16
0.0
 26
0.0
 36
1.0
 17
0.0
 27
0.0
 37
0.0
 40
213.9372506002
 41
0.7070707071
 42
50.0
 43
0.0
 44
0.0
 50
0.0
 51
0.0
 71
0
 72
100
 73
1
 74
1
 75
0
 76
0
 77
0
 78
0
  0
ENDTAB
  0
TABLE
  2
LTYPE
  5
5
100
AcDbSymbolTable
 70
6
  0
LTYPE
  5
14
100
AcDbSymbolTableRecord
100
AcDbLinetypeTableRecord
  2
BYBLOCK
 70
0
  3

 72
65
 73
0
 40
0.0
  0
LTYPE
  5
15
100
AcDbSymbolTableRecord
100
AcDbLinetypeTableRecord
  2
BYLAYER
 70
0
  3

 72
65
 73
0
 40
0.0
  0
LTYPE
  5
16
100
AcDbSymbolTableRecord
100
AcDbLinetypeTableRecord
  2
CONTINUOUS
 70
64
  3
Solid line
 72
65
 73
0
 40
0.0
  0
LTYPE
  5
1F5
100
AcDbSymbolTableRecord
100
AcDbLinetypeTableRecord
  2
CENTER
 70
64
  3
____ _ ____ _ ____ _ ____ _ ____ _ ____ _ ____
 72
65
 73
4
 40
0.6
 49
0.375
 74
0
 49
-0.075
 74
0
 49
0.075
 74
0
 49
-0.075
 74
0
  0
LTYPE
  5
1F6
100
AcDbSymbolTableRecord
100
AcDbLinetypeTableRecord
  2
HIDDEN
 70
64
  3
- - - - - - - - - - - - - - - - - - - -
 72
65
 73
2
 40
0.2
 49
0.1
 74
0
 49
-0.1
 74
0
  0
LTYPE
  5
1F7
100
AcDbSymbolTableRecord
100
AcDbLinetypeTableRecord
  2
PHANTOM
 70
64
  3
_____ _ _ _____ _ _ _____ _ _ _____
 72
65
 73
6
 40
0.8
 49
0.45
 74
0
 49
-0.05
 74
0
 49
0.1
 74
0
 49
-0.05
 74
0
 49
0.1
 74
0
 49
-0.05
 74
0
  0
LTYPE
  5
1F8
100
AcDbSymbolTableRecord
100
AcDbLinetypeTableRecord
  2
DOT
 70
64
  3
. . . . . . . . . . . . . . . . . . . .
 72
65
 73
2
 40
0.2
 49
0.1
 74
0
 49
-0.1
 74
0
  0
LTYPE
  5
1F9
100
AcDbSymbolTableRecord
100
AcDbLinetypeTableRecord
  2
DASHED
 70
64
  3
- - - - - - - - - - - - - - - - - - - -
 72
65
 73
2
 40
0.2
 49
0.1
 74
0
 49
-0.1
 74
0
  0
ENDTAB
  0
TABLE
  2
LAYER
  5
2
100
AcDbSymbolTable
 70
36
  0
LAYER
  5
10
100
AcDbSymbolTableRecord
100
AcDbLayerTableRecord
  2
0
 70
0
 62
7
  6
CONTINUOUS
370
-3
390
F
  0
LAYER
  5
1FA
100
AcDbSymbolTableRecord
100
AcDbLayerTableRecord
  2
DEFAULT_1
 70
0
 62
7
  6
CENTER
370
-3
390
F
  0
LAYER
  5
1FB
100
AcDbSymbolTableRecord
100
AcDbLayerTableRecord
  2
DEFAULT_2
 70
0
 62
8
  6
HIDDEN
370
-3
390
F
  0
LAYER
  5
1FC
100
AcDbSymbolTableRecord
100
AcDbLayerTableRecord
  2
DEFAULT_3
 70
0
 62
7
  6
PHANTOM
370
-3
390
F
  0
LAYER
  5
1FD
100
AcDbSymbolTableRecord
100
AcDbLayerTableRecord
  2
00_COMPONENTS
 70
0
 62
7
  6
CONTINUOUS
370
-3
390
F
  0
LAYER
  5
1FE
100
AcDbSymbolTableRecord
100
AcDbLayerTableRecord
  2
01_1_DEFAULT_DATUMS
 70
0
 62
7
  6
CONTINUOUS
370
-3
390
F
  0
LAYER
  5
1FF
100
AcDbSymbolTableRecord
100
AcDbLayerTableRecord
  2
01_PLANES
 70
0
 62
7
  6
CONTINUOUS
370
-3
390
F
  0
LAYER
  5
200
100
AcDbSymbolTableRecord
100
AcDbLayerTableRecord
  2
02_COORD_SYS
 70
0
 62
7
  6
CONTINUOUS
370
-3
390
F
  0
LAYER
  5
201
100
AcDbSymbolTableRecord
100
AcDbLayerTableRecord
  2
03_AXES
 70
0
 62
7
  6
CONTINUOUS
370
-3
390
F
  0
LAYER
  5
202
100
AcDbSymbolTableRecord
100
AcDbLayerTableRecord
  2
04_POINTS
 70
0
 62
7
  6
CONTINUOUS
370
-3
390
F
  0
LAYER
  5
203
100
AcDbSymbolTableRecord
100
AcDbLayerTableRecord
  2
05_CURVES
 70
0
 62
7
  6
CONTINUOUS
370
-3
390
F
  0
LAYER
  5
204
100
AcDbSymbolTableRecord
100
AcDbLayerTableRecord
  2
06_SURFS
 70
0
 62
7
  6
CONTINUOUS
370
-3
390
F
  0
LAYER
  5
205
100
AcDbSymbolTableRecord
100
AcDbLayerTableRecord
  2
07_COSMETICS
 70
0
 62
7
  6
CONTINUOUS
370
-3
390
F
  0
LAYER
  5
206
100
AcDbSymbolTableRecord
100
AcDbLayerTableRecord
  2
10_NOTES
 70
0
 62
7
  6
CONTINUOUS
370
-3
390
F
  0
LAYER
  5
207
100
AcDbSymbolTableRecord
100
AcDbLayerTableRecord
  2
11_NOTES_PUB
 70
0
 62
7
  6
CONTINUOUS
370
-3
390
F
  0
LAYER
  5
208
100
AcDbSymbolTableRecord
100
AcDbLayerTableRecord
  2
13_REF_GTOL
 70
0
 62
7
  6
CONTINUOUS
370
-3
390
F
  0
LAYER
  5
209
100
AcDbSymbolTableRecord
100
AcDbLayerTableRecord
  2
16_MISC
 70
0
 62
7
  6
CONTINUOUS
370
-3
390
F
  0
LAYER
  5
20A
100
AcDbSymbolTableRecord
100
AcDbLayerTableRecord
  2
17_NO_PRINT
 70
0
 62
7
  6
CONTINUOUS
370
-3
390
F
  0
LAYER
  5
20B
100
AcDbSymbolTableRecord
100
AcDbLayerTableRecord
  2
18_DATUM_CAMS_JOINTS
 70
0
 62
7
  6
CONTINUOUS
370
-3
390
F
  0
LAYER
  5
20C
100
AcDbSymbolTableRecord
100
AcDbLayerTableRecord
  2
19_DATUM_FUNCTIONAL
 70
0
 62
7
  6
CONTINUOUS
370
-3
390
F
  0
LAYER
  5
20D
100
AcDbSymbolTableRecord
100
AcDbLayerTableRecord
  2
20_DATUM_KINEMATIC_SCHEME
 70
0
 62
7
  6
CONTINUOUS
370
-3
390
F
  0
ENDTAB
  0
TABLE
  2
STYLE
  5
3
100
AcDbSymbolTable
 70
1
  0
STYLE
  5
11
100
AcDbSymbolTableRecord
100
AcDbTextStyleTableRecord
  2
STANDARD
 70
0
 40
0.0
 41
0.8
 50
0.0
 71
0
 42
0.2
  3
txt
  4

  0
STYLE
  5
20E
100
AcDbSymbolTableRecord
100
AcDbTextStyleTableRecord
  2
TEXTSTYLE_1
 70
0
 40
0.0
 41
0.8
 50
0.0
 71
0
 42
0.2
  3
gdt
  4

  0
ENDTAB
  0
TABLE
  2
VIEW
  5
6
100
AcDbSymbolTable
 70
0
  0
ENDTAB
  0
TABLE
  2
UCS
  5
7
100
AcDbSymbolTable
 70
0
  0
ENDTAB
  0
TABLE
  2
APPID
  5
9
100
AcDbSymbolTable
 70
1
  0
APPID
  5
20F
100
AcDbSymbolTableRecord
100
AcDbRegAppTableRecord
  2
ACAD
 70
0
  0
ENDTAB
  0
TABLE
  2
BLOCK_RECORD
  5
1
100
AcDbSymbolTable
 70
0
  0
BLOCK_RECORD
  5
210
100
AcDbSymbolTableRecord
100
AcDbBlockTableRecord
  2
*Model_Space
  0
BLOCK_RECORD
  5
211
100
AcDbSymbolTableRecord
100
AcDbBlockTableRecord
  2
*Paper_Space
  0
BLOCK_RECORD
  5
212
100
AcDbSymbolTableRecord
100
AcDbBlockTableRecord
  2
_FILLED
  0
ENDTAB
  0
TABLE
  2
DIMSTYLE
  5
A
100
AcDbSymbolTable
 70
1
100
AcDbDimStyleTable
 71
0
  0
DIMSTYLE
105
213
100
AcDbSymbolTableRecord
100
AcDbDimStyleTableRecord
  2
STANDARD
 70
0
  3

  4

 40
1.0
 41
1.8008186077
 42
1.0
 43
0.38
 44
1.0
 45
0.0
 46
0.0
 47
0.01
 48
0.01
140
2.5211460508
141
0.09
142
0.0
143
25.4
144
1.0
145
0.0
146
1.0
147
0.625
 71
1
 72
0
 73
0
 74
0
 75
0
 76
0
 77
1
 78
8
 79
2
170
0
171
1
172
0
173
0
174
0
175
0
176
0
177
0
178
0
270
2
179
2
271
2
272
2
273
2
274
2
275
0
280
0
281
0
282
0
283
1
284
8
285
0
286
0
287
3
288
0
340
11
278
46
341
212
342
212
343
212
344
212
  0
ENDTAB
  0
ENDSEC
  0
SECTION
  2
BLOCKS
  0
BLOCK
  5
20
100
AcDbEntity
  8
0
100
AcDbBlockBegin
  2
*Model_Space
 70
0
 10
0.0
 20
0.0
 30
0.0
  3
*Model_Space
  1

  0
ENDBLK
  5
21
100
AcDbEntity
  8
0
100
AcDbBlockEnd
  0
BLOCK
  5
1C
100
AcDbEntity
  8
0
100
AcDbBlockBegin
  2
*Paper_Space
 70
0
 10
0.0
 20
0.0
 30
0.0
  3
*Paper_Space
  1

  0
ENDBLK
  5
1D
100
AcDbEntity
  8
0
100
AcDbBlockEnd
  0
BLOCK
  5
214
100
AcDbEntity
  8
0
100
AcDbBlockBegin
  2
_FILLED
 70
64
 10
0.0
 20
0.0
  3
_FILLED
  1

  0
SOLID
  5
215
100
AcDbEntity
  8
0
  6
BYBLOCK
 62
0
100
AcDbTrace
 10
0.0
 20
0.0
 11
-1.0
 21
0.25
 12
-1.0
 22
-0.25
 13
-1.0
 23
-0.25
  0
ENDBLK
  5
216
100
AcDbEntity
  8
0
  6
BYBLOCK
 62
0
100
AcDbBlockEnd
  0
ENDSEC
  0
SECTION
  2
ENTITIES
  0
LINE
  5
217
100
AcDbEntity
  8
0
100
AcDbLine
 62
7
  6
CONTINUOUS
 10
113.9436670247
 20
22.9686253005
 11
109.9436670247
 21
22.9686253005
  0
LINE
  5
218
100
AcDbEntity
  8
0
100
AcDbLine
 62
7
  6
CONTINUOUS
 10
61.4429107503
 20
22.9686253013
 11
57.4444233001
 21
22.9686253012
  0
LINE
  5
219
100
AcDbEntity
  8
0
100
AcDbLine
 62
7
  6
CONTINUOUS
 10
114.4436670247
 20
23.4686253005
 11
109.4436670247
 21
23.4686253005
  0
LINE
  5
21A
100
AcDbEntity
  8
0
100
AcDbLine
 62
7
  6
CONTINUOUS
 10
61.9436670252
 20
23.4686253013
 11
56.9436670252
 21
23.4686253012
  0
LINE
  5
21B
100
AcDbEntity
  8
0
100
AcDbLine
 62
7
  6
CONTINUOUS
 10
57.4436670252
 20
22.9686253012
 11
56.9436670252
 21
23.4686253012
  0
LINE
  5
21C
100
AcDbEntity
  8
0
100
AcDbLine
 62
7
  6
CONTINUOUS
 10
118.2509851188
 20
40.9686253005
 11
105.6363489306
 21
40.9686253005
  0
LINE
  5
21D
100
AcDbEntity
  8
0
100
AcDbLine
 62
7
  6
CONTINUOUS
 10
65.7509489736
 20
40.9686253014
 11
53.136385076
 21
40.9686253012
  0
LINE
  5
21E
100
AcDbEntity
  8
0
100
AcDbLine
 62
7
  6
CONTINUOUS
 10
119.2492455877
 20
41.909667382
 11
104.6380884617
 21
41.909667382
  0
LINE
  5
21F
100
AcDbEntity
  8
0
100
AcDbLine
 62
7
  6
CONTINUOUS
 10
66.7492455878
 20
41.9096673829
 11
52.1380884618
 21
41.9096673826
  0
LINE
  5
220
100
AcDbEntity
  8
0
100
AcDbLine
 62
7
  6
CONTINUOUS
 10
134.9429228942
 20
44.9686252991
 11
18.9436670247
 21
44.9686252991
  0
LINE
  5
221
100
AcDbEntity
  8
0
100
AcDbLine
 62
7
  6
CONTINUOUS
 10
16.9436670247
 20
46.9686252991
 11
16.9436670247
 21
47.968625299
  0
LINE
  5
222
100
AcDbEntity
  8
0
100
AcDbLine
 62
7
  6
CONTINUOUS
 10
17.9436670247
 20
47.9686253005
 11
17.9436670247
 21
48.068625299
  0
LINE
  5
223
100
AcDbEntity
  8
0
100
AcDbLine
 62
7
  6
CONTINUOUS
 10
17.9345963056
 20
97.5150894031
 11
16.9456670247
 21
48.068625299
  0
LINE
  5
224
100
AcDbEntity
  8
0
100
AcDbLine
 62
7
  6
CONTINUOUS
 10
136.9436670247
 20
46.968625299
 11
16.9436670247
 21
46.968625299
  0
LINE
  5
225
100
AcDbEntity
  8
0
100
AcDbLine
 62
7
  6
CONTINUOUS
 10
16.9444309231
 20
47.9686253005
 11
136.9429031263
 21
47.9686253005
  0
LINE
  5
226
100
AcDbEntity
  8
0
100
AcDbLine
 62
7
  6
CONTINUOUS
 10
136.9409031464
 20
48.068625299
 11
16.946430903
 21
48.068625299
  0
LINE
  5
227
100
AcDbEntity
  8
0
100
AcDbLine
 62
7
  6
CONTINUOUS
 10
27.018426499
 20
143.7145756107
 11
24.9654124537
 21
102.406162115
  0
LINE
  5
228
100
AcDbEntity
  8
0
100
AcDbLine
 62
7
  6
CONTINUOUS
 10
109.4436670247
 20
23.4686253005
 11
109.9436670247
 21
22.9686253005
  0
LINE
  5
229
100
AcDbEntity
  8
0
100
AcDbLine
 62
7
  6
CONTINUOUS
 10
52.1380884618
 20
41.9096673826
 11
51.9574243992
 21
44.9686253004
  0
LINE
  5
22A
100
AcDbEntity
  8
0
100
AcDbLine
 62
7
  6
CONTINUOUS
 10
56.9436670248
 20
40.9686253012
 11
56.9436670252
 21
23.4686253012
  0
LINE
  5
22B
100
AcDbEntity
  8
0
100
AcDbLine
 62
7
  6
CONTINUOUS
 10
24.5633098002
 20
101.7512783146
 11
18.3375252028
 21
98.1936871158
  0
LINE
  5
22C
100
AcDbEntity
  8
0
100
AcDbLine
 62
7
  6
CONTINUOUS
 10
61.9436670248
 20
40.9686253013
 11
61.9436670252
 21
23.4686253013
  0
LINE
  5
22D
100
AcDbEntity
  8
0
100
AcDbLine
 62
7
  6
CONTINUOUS
 10
66.7492455878
 20
41.9096673829
 11
66.9299096502
 21
44.9686253005
  0
LINE
  5
22E
100
AcDbEntity
  8
0
100
AcDbLine
 62
7
  6
CONTINUOUS
 10
17.9345963056
 20
97.5150894031
 11
135.9527377439
 21
97.5150894031
  0
LINE
  5
22F
100
AcDbEntity
  8
0
100
AcDbLine
 62
7
  6
CONTINUOUS
 10
135.5498088466
 20
98.1936871158
 11
18.3375252028
 21
98.1936871158
  0
LINE
  5
230
100
AcDbEntity
  8
0
100
AcDbLine
 62
7
  6
CONTINUOUS
 10
24.5633098002
 20
101.7512783146
 11
129.3240242492
 21
101.7512783146
  0
LINE
  5
231
100
AcDbEntity
  8
0
100
AcDbLine
 62
7
  6
CONTINUOUS
 10
128.9219215957
 20
102.406162115
 11
24.9654124537
 21
102.406162115
  0
LINE
  5
232
100
AcDbEntity
  8
0
100
AcDbLine
 62
7
  6
CONTINUOUS
 10
129.3240242492
 20
101.7512783146
 11
135.5498088466
 21
98.1936871158
  0
LINE
  5
233
100
AcDbEntity
  8
0
100
AcDbLine
 62
7
  6
CONTINUOUS
 10
104.4574243992
 20
44.9686253004
 11
104.6380884617
 21
41.909667382
  0
LINE
  5
234
100
AcDbEntity
  8
0
100
AcDbLine
 62
7
  6
CONTINUOUS
 10
109.4436670247
 20
40.9686253005
 11
109.4436670247
 21
23.4686253005
  0
LINE
  5
235
100
AcDbEntity
  8
0
100
AcDbLine
 62
7
  6
CONTINUOUS
 10
114.4436670247
 20
40.9686253005
 11
114.4436670247
 21
23.4686253005
  0
LINE
  5
236
100
AcDbEntity
  8
0
100
AcDbLine
 62
7
  6
CONTINUOUS
 10
119.4299096502
 20
44.9686253001
 11
119.2492455877
 21
41.909667382
  0
LINE
  5
237
100
AcDbEntity
  8
0
100
AcDbLine
 62
7
  6
CONTINUOUS
 10
61.4436670252
 20
22.9686253013
 11
61.9436670252
 21
23.4686253013
  0
LINE
  5
238
100
AcDbEntity
  8
0
100
AcDbLine
 62
7
  6
CONTINUOUS
 10
126.8689075504
 20
143.7145756106
 11
128.9219215957
 21
102.406162115
  0
LINE
  5
239
100
AcDbEntity
  8
0
100
AcDbLine
 62
7
  6
CONTINUOUS
 10
135.9527377439
 20
97.5150894031
 11
136.9416670247
 21
48.068625299
  0
LINE
  5
23A
100
AcDbEntity
  8
0
100
AcDbLine
 62
7
  6
CONTINUOUS
 10
135.9436670247
 20
47.9686253005
 11
135.9436670247
 21
48.068625299
  0
LINE
  5
23B
100
AcDbEntity
  8
0
100
AcDbLine
 62
7
  6
CONTINUOUS
 10
136.9436670247
 20
46.9686252991
 11
136.9436670247
 21
47.968625299
  0
LINE
  5
23C
100
AcDbEntity
  8
0
100
AcDbLine
 62
7
  6
CONTINUOUS
 10
114.4436670247
 20
23.4686253005
 11
113.9436670247
 21
22.9686253005
  0
ARC
  5
23D
100
AcDbEntity
  8
0
100
AcDbCircle
 62
7
  6
CONTINUOUS
 10
76.9436670247
 20
140.9686253005
 40
50.0
100
AcDbArc
 50
3.1479444428
 51
176.8520555573
  0
ARC
  5
23E
100
AcDbEntity
  8
0
100
AcDbCircle
 62
7
  6
CONTINUOUS
 10
134.9436670247
 20
46.9686252991
 40
2.0
100
AcDbArc
 50
270.0
 51
360.0
  0
ARC
  5
23F
100
AcDbEntity
  8
0
100
AcDbCircle
 62
7
  6
CONTINUOUS
 10
18.9436670247
 20
46.9686252991
 40
2.0
100
AcDbArc
 50
180.0
 51
270.0
  0
ARC
  5
240
100
AcDbEntity
  8
0
100
AcDbCircle
 62
7
  6
CONTINUOUS
 10
53.1363489307
 20
41.9686253012
 40
1.0
100
AcDbArc
 50
183.3800000012
 51
270.0000000012
  0
ARC
  5
241
100
AcDbEntity
  8
0
100
AcDbCircle
 62
7
  6
CONTINUOUS
 10
65.7509851189
 20
41.9686253014
 40
1.0
100
AcDbArc
 50
270.0000000012
 51
356.6200000012
  0
ARC
  5
242
100
AcDbEntity
  8
0
100
AcDbCircle
 62
7
  6
CONTINUOUS
 10
105.6363489306
 20
41.9686253005
 40
1.0
100
AcDbArc
 50
183.38
 51
270.0
  0
ARC
  5
243
100
AcDbEntity
  8
0
100
AcDbCircle
 62
7
  6
CONTINUOUS
 10
118.2509851188
 20
41.9686253005
 40
1.0
100
AcDbArc
 50
270.0
 51
356.62
  0
ARC
  5
244
100
AcDbEntity
  8
0
100
AcDbCircle
 62
7
  6
CONTINUOUS
 10
135.1528976959
 20
97.4990926022
 40
0.8
100
AcDbArc
 50
1.1457628367
 51
60.2551187016
  0
ARC
  5
245
100
AcDbEntity
  8
0
100
AcDbCircle
 62
7
  6
CONTINUOUS
 10
129.7209353999
 20
102.4458728283
 40
0.8
100
AcDbArc
 50
182.8452395845
 51
240.2551187016
  0
ARC
  5
246
100
AcDbEntity
  8
0
100
AcDbCircle
 62
7
  6
CONTINUOUS
 10
24.1663986495
 20
102.4458728283
 40
0.8
100
AcDbArc
 50
299.7448812984
 51
357.1547604155
  0
ARC
  5
247
100
AcDbEntity
  8
0
100
AcDbCircle
 62
7
  6
CONTINUOUS
 10
18.7344363535
 20
97.4990926022
 40
0.8
100
AcDbArc
 50
119.7448812984
 51
178.8542371633
  0
SPLINE
  5
248
100
AcDbEntity
  8
0
100
AcDbSpline
 62
7
  6
CONTINUOUS
 70
0
 71
3
 72
58
 73
54
 74
0
 42
0.0000001
 43
0.0000001
 44
0.0000000001
 40
0.0
 40
0.0
 40
0.0
 40
0.0
 40
0.0971789079
 40
0.1934183236
 40
0.2877929533
 40
0.3793908223
 40
0.4673276737
 40
0.5096564281
 40
0.5507553567
 40
0.5905269929
 40
0.6288751063
 40
0.7009175612
 40
0.7344376356
 40
0.7505383845
 40
0.7661878015
 40
0.7961022537
 40
0.824115107
 40
0.8373782199
 40
0.8501306918
 40
0.8623621819
 40
0.8740609132
 40
0.8852344368
 40
0.8959016666
 40
0.9060305772
 40
0.9155854563
 40
0.9201917884
 40
0.924703272
 40
0.9333767106
 40
0.9413652787
 40
0.948685866
 40
0.9555107196
 40
0.958692281
 40
0.9617081876
 40
0.9645997792
 40
0.9674508315
 40
0.9702498303
 40
0.9728958449
 40
0.9753066508
 40
0.9774640049
 40
0.9795109036
 40
0.9817387516
 40
0.9842706867
 40
0.9869267872
 40
0.9894027617
 40
0.9914253867
 40
0.9928487202
 40
0.9938355976
 40
0.9946973531
 40
0.9956142774
 40
0.9966630969
 40
0.997843505
 40
0.9990794976
 40
1.0
 40
1.0
 40
1.0
 40
1.0
 10
76.9436670247
 20
143.4505448787
 30
0.0
 10
78.5767728623
 20
143.4505093492
 30
0.0
 10
81.8271962372
 20
143.4504843661
 30
0.0
 10
86.6635991336
 20
143.4505793157
 30
0.0
 10
91.4062118778
 20
143.4508622475
 30
0.0
 10
96.0092987227
 20
143.4498256489
 30
0.0
 10
99.7377471063
 20
143.4504957147
 30
0.0
 10
102.6175529917
 20
143.4519239182
 30
0.0
 10
104.6879354049
 20
143.4527562981
 30
0.0
 10
106.6914238937
 20
143.4505140961
 30
0.0
 10
109.2149039744
 20
143.4410594452
 30
0.0
 10
111.6333715984
 20
143.4447353193
 30
0.0
 10
113.6778831921
 20
143.4600825691
 30
0.0
 10
114.7747443481
 20
143.466172687
 30
0.0
 10
115.8110200262
 20
143.4690489129
 30
0.0
 10
117.0475413041
 20
143.4609098456
 30
0.0
 10
118.243512887
 20
143.4291294589
 30
0.0
 10
119.1512513471
 20
143.4091666584
 30
0.0
 10
119.7939423341
 20
143.4001124454
 30
0.0
 10
120.4104342978
 20
143.3989180239
 30
0.0
 10
121.0002771075
 20
143.4164352757
 30
0.0
 10
121.562296107
 20
143.4637912137
 30
0.0
 10
122.0942912973
 20
143.5393445377
 30
0.0
 10
122.5975974274
 20
143.6238870548
 30
0.0
 10
123.0072362153
 20
143.6390873021
 30
0.0
 10
123.3202986175
 20
143.6141033157
 30
0.0
 10
123.6159870901
 20
143.5679508718
 30
0.0
 10
123.9630052237
 20
143.4914050675
 30
0.0
 10
124.363818765
 20
143.4299256327
 30
0.0
 10
124.7370960796
 20
143.46806994
 30
0.0
 10
125.019553739
 20
143.5383293326
 30
0.0
 10
125.2346868141
 20
143.5794226547
 30
0.0
 10
125.387200555
 20
143.5929014426
 30
0.0
 10
125.5350084084
 20
143.5829396626
 30
0.0
 10
125.6738413014
 20
143.5438291114
 30
0.0
 10
125.8035832137
 20
143.4929107662
 30
0.0
 10
125.9264602883
 20
143.4444627429
 30
0.0
 10
126.0424743005
 20
143.4088949456
 30
0.0
 10
126.1546182657
 20
143.3962863351
 30
0.0
 10
126.2615574614
 20
143.4271718524
 30
0.0
 10
126.3518248372
 20
143.5008502491
 30
0.0
 10
126.4274008466
 20
143.6004670998
 30
0.0
 10
126.4947322104
 20
143.7102581121
 30
0.0
 10
126.5557878869
 20
143.8140093831
 30
0.0
 10
126.6110950263
 20
143.8963871517
 30
0.0
 10
126.6641344696
 20
143.9512770759
 30
0.0
 10
126.7197141747
 20
143.9674571444
 30
0.0
 10
126.7662652031
 20
143.9536576952
 30
0.0
 10
126.8021814506
 20
143.9209679237
 30
0.0
 10
126.8297929027
 20
143.8753872365
 30
0.0
 10
126.8503160526
 20
143.8205982088
 30
0.0
 10
126.8624329415
 20
143.7657974388
 30
0.0
 10
126.8681465315
 20
143.7298911115
 30
0.0
 10
126.8689140729
 20
143.7144409873
 30
0.0
  0
SPLINE
  5
249
100
AcDbEntity
  8
0
100
AcDbSpline
 62
7
  6
CONTINUOUS
 70
0
 71
3
 72
57
 73
53
 74
0
 42
0.0000001
 43
0.0000001
 44
0.0000000001
 40
0.0
 40
0.0
 40
0.0
 40
0.0
 40
0.0000755275
 40
0.0000938482
 40
0.0001896983
 40
0.0003462531
 40
0.0007714162
 40
0.0012620071
 40
0.0022558543
 40
0.0031896582
 40
0.0040377324
 40
0.0048866013
 40
0.0058679934
 40
0.0071739682
 40
0.0089944539
 40
0.0113119811
 40
0.0138685239
 40
0.0164086035
 40
0.0187274512
 40
0.0208153579
 40
0.0229669518
 40
0.0253671866
 40
0.0308900981
 40
0.0367439856
 40
0.0397714702
 40
0.0429413098
 40
0.049762006
 40
0.0533715689
 40
0.0571085032
 40
0.0650751378
 40
0.073734457
 40
0.0828792735
 40
0.0876104447
 40
0.0924635451
 40
0.1026010167
 40
0.1132947068
 40
0.1244974903
 40
0.1362151511
 40
0.148465028
 40
0.1745397999
 40
0.2026172203
 40
0.2325841704
 40
0.2643867612
 40
0.2979630951
 40
0.3332376647
 40
0.370125088
 40
0.4483696442
 40
0.5319315763
 40
0.6200088317
 40
0.7117522196
 40
0.8062762757
 40
1.0
 40
1.0
 40
1.0
 40
1.0
 10
27.0184195521
 20
143.714432433
 30
0.0
 10
27.0183568296
 20
143.7131668472
 30
0.0
 10
27.01746698
 20
143.7096977309
 30
0.0
 10
27.0204805452
 20
143.7121987194
 30
0.0
 10
27.0203488484
 20
143.7169215741
 30
0.0
 10
27.0242747669
 20
143.7276494724
 30
0.0
 10
27.0282649696
 20
143.7452003572
 30
0.0
 10
27.0385450749
 20
143.7755899937
 30
0.0
 10
27.0551695688
 20
143.8127409366
 30
0.0
 10
27.0823445505
 20
143.8512087569
 30
0.0
 10
27.1189417798
 20
143.8777339941
 30
0.0
 10
27.1642430836
 20
143.8873784004
 30
0.0
 10
27.2170868764
 20
143.8751464673
 30
0.0
 10
27.2735317383
 20
143.8332386142
 30
0.0
 10
27.3310952128
 20
143.7618635474
 30
0.0
 10
27.3923586984
 20
143.6677423904
 30
0.0
 10
27.4609540913
 20
143.5638762545
 30
0.0
 10
27.5371484901
 20
143.4655383983
 30
0.0
 10
27.6237570704
 20
143.3849703091
 30
0.0
 10
27.7302441338
 20
143.346024696
 30
0.0
 10
27.8434063164
 20
143.3517917415
 30
0.0
 10
28.0066487179
 20
143.3981337079
 30
0.0
 10
28.2139172327
 20
143.5012558406
 30
0.0
 10
28.4499096034
 20
143.5674203168
 30
0.0
 10
28.6530430074
 20
143.5708650677
 30
0.0
 10
28.8701194431
 20
143.5434884988
 30
0.0
 10
29.0925992598
 20
143.4922306563
 30
0.0
 10
29.3275845024
 20
143.4549475261
 30
0.0
 10
29.5846901396
 20
143.4415376383
 30
0.0
 10
29.9261673488
 20
143.4768029477
 30
0.0
 10
30.3492432395
 20
143.5649183397
 30
0.0
 10
30.7247836996
 20
143.6155400101
 30
0.0
 10
31.0391360113
 20
143.6258538866
 30
0.0
 10
31.3699714745
 20
143.6100561658
 30
0.0
 10
31.7970560369
 20
143.5495585337
 30
0.0
 10
32.3280749338
 20
143.4677180254
 30
0.0
 10
32.8885589773
 20
143.4021707389
 30
0.0
 10
33.4782334753
 20
143.3728151382
 30
0.0
 10
34.3179436306
 20
143.3679434442
 30
0.0
 10
35.4314661382
 20
143.4079937972
 30
0.0
 10
36.8417663885
 20
143.4612065924
 30
0.0
 10
38.3493245371
 20
143.4711718882
 30
0.0
 10
39.9488915754
 20
143.4599703077
 30
0.0
 10
41.6375529787
 20
143.4497483455
 30
0.0
 10
43.4115405057
 20
143.4450809739
 30
0.0
 10
45.9349411346
 20
143.4469513166
 30
0.0
 10
49.2684599436
 20
143.4539375045
 30
0.0
 10
53.4608081047
 20
143.4503545538
 30
0.0
 10
57.8796260575
 20
143.4499527156
 30
0.0
 10
62.4823584289
 20
143.4508295116
 30
0.0
 10
68.8575411211
 20
143.45048881
 30
0.0
 10
73.6935279484
 20
143.4504926359
 30
0.0
 10
76.9436670247
 20
143.4505448787
 30
0.0
  0
ENDSEC
  0
SECTION
  2
OBJECTS
  0
DICTIONARY
  5
C
100
AcDbDictionary
280
0
281
1
  3
ACAD_GROUP
350
D
  3
ACAD_MLINESTYLE
350
17
  3
ACAD_LAYOUT
350
1A
  3
ACAD_PLOTSETTINGS
350
19
  3
ACAD_PLOTSTYLENAME
350
E
  0
DICTIONARY
  5
D
102
{ACAD_REACTORS
330
C
102
}
100
AcDbDictionary
280
0
281
1
  0
ACDBDICTIONARYWDFLT
  5
E
102
{ACAD_REACTORS
330
C
102
}
100
AcDbDictionary
281
1
  3
Normal
350
F
100
AcDbDictionaryWithDefault
340
F
  0
DICTIONARY
  5
17
102
{ACAD_REACTORS
330
C
102
}
100
AcDbDictionary
280
0
281
1
  3
Standard
350
18
  0
DICTIONARY
  5
19
102
{ACAD_REACTORS
330
C
102
}
100
AcDbDictionary
281
1
  0
DICTIONARY
  5
1A
102
{ACAD_REACTORS
330
C
102
}
100
AcDbDictionary
281
1
  3
Model
350
24A
  3
Layout1
350
24B
  0
ACDBPLACEHOLDER
  5
F
102
{ACAD_REACTORS
330
E
102
}
  0
MLINESTYLE
  5
18
102
{ACAD_REACTORS
330
17
102
}
100
AcDbMlineStyle
  2
STANDARD
 70
0
  3

 62
256
 51
90.0
 52
90.0
 71
2
 49
0.5
 62
256
  6
BYLAYER
 49
-0.5
 62
256
  6
BYLAYER
  0
LAYOUT
  5
24A
102
{ACAD_REACTORS
330
1A
102
}
100
AcDbPlotSettings
  1

  2
none_device
  4

  6

 40
0.0
 41
0.0
 42
0.0
 43
0.0
 44
210.0
 45
297.0
 46
0.0
 47
0.0
 48
0.0
 49
0.0
140
0.0
141
0.0
142
1.0
143
1.0
 70
1024
 72
1
 73
0
 74
0
  7

 75
0
147
1.0
148
0.0
149
0.0
100
AcDbLayout
  1
Model
 70
0
 71
0
 10
0.0
 20
0.0
 11
210.0
 21
297.0
 12
0.0
 22
0.0
 32
0.0
 14
0.0
 24
0.0
 34
0.0
 15
0.0
 25
0.0
 35
0.0
146
0.0
 13
0.0
 23
0.0
 33
0.0
 16
1.0
 26
0.0
 36
0.0
 17
0.0
 27
1.0
 37
0.0
 76
0
330
210
345
0
346
0
  0
LAYOUT
  5
24B
102
{ACAD_REACTORS
330
1A
102
}
100
AcDbPlotSettings
  1

  2
none_device
  4

  6

 40
0.0
 41
0.0
 42
0.0
 43
0.0
 44
210.0
 45
297.0
 46
0.0
 47
0.0
 48
0.0
 49
0.0
140
0.0
141
0.0
142
1.0
143
1.0
 70
0
 72
1
 73
0
 74
0
  7

 75
0
147
1.0
148
0.0
149
0.0
100
AcDbLayout
  1
Layout1
 70
0
 71
1
 10
0.0
 20
0.0
 11
210.0
 21
297.0
 12
0.0
 22
0.0
 32
0.0
 14
0.0
 24
0.0
 34
0.0
 15
0.0
 25
0.0
 35
0.0
146
0.0
 13
0.0
 23
0.0
 33
0.0
 16
1.0
 26
0.0
 36
0.0
 17
0.0
 27
1.0
 37
0.0
 76
0
330
211
345
0
346
0
  0
ENDSEC
  0
EOF
