999
DXF file: C:\Users\sesa63760\Dev\_Creo\CAD\MCADPP0003095_3D-CAD\drw0001_1.dxf
999
Pro/ENGINEER 2019471 by Parametric Technology Corporation
  0
SECTION
  2
HEADER
  9
$ACADVER
  1
AC1024
  9
$DWGCODEPAGE
  3
ANSI_1252
  9
$EXTMAX
 10
153.5853227987
 20
217.2135279582
 30
0.0
  9
$EXTMIN
 10
-0.0
 20
0.0
 30
0.0
  9
$LIMMIN
 10
-0.0
 20
0.0
  9
$LIMMAX
 10
153.5853227987
 20
217.2135279582
  9
$VIEWCTR
 10
76.7926613994
 20
108.6067639791
  9
$VIEWSIZE
 40
217.2135279582
  9
$CLAYER
  8
0
  9
$LTSCALE
 40
14.1591040447
  9
$CELTYPE
  6
BYLAYER
  9
$DIMSCALE
 40
1.0
  9
$DIMASZ
 40
1.8283967
  9
$DIMEXO
 40
1.0
  9
$DIMDLI
 40
9.7826537036
  9
$DIMEXE
 40
1.0
  9
$DIMCEN
 40
2.3169442982
  9
$DIMLFAC
 40
1.0
  9
$DIMBLK
  1
_FILLED
  9
$DIMALT
 70
0
  9
$DIMALTF
 40
0.0393700787
  9
$DIMTXT
 40
2.55975538
  9
$DIMTOL
 70
1
  9
$DIMLIM
 70
0
  9
$DIMTFAC
 40
1.0
  9
$DIMTP
 40
0.01
  9
$DIMTM
 40
0.01
  9
$DIMGAP
 40
0.625
  9
$DIMDSEP
 70
46
  9
$AUNITS
 70
0
  9
$PDMODE
 70
3
  9
$PDSIZE
 40
0.3125
  9
$HANDSEED
  5
2C1
  9
$TILEMODE
 70
1
  9
$MEASUREMENT
 70
1
  9
$INSUNITS
 70
4
  0
ENDSEC
  0
SECTION
  2
CLASSES
  0
CLASS
  1
ACDBDICTIONARYWDFLT
  2
AcDbDictionaryWithDefault
  3
AutoCAD 2000
 90
0
 91
1
280
0
281
0
  0
CLASS
  1
ACDBPLACEHOLDER
  2
AcDbPlaceHolder
  3
AutoCAD 2000
 90
0
 91
1
280
0
281
0
  0
CLASS
  1
LAYOUT
  2
AcDbLayout
  3
AutoCAD 2000
 90
0
 91
0
280
0
281
0
  0
ENDSEC
  0
SECTION
  2
TABLES
  0
TABLE
  2
VPORT
  5
8
100
AcDbSymbolTable
 70
2
  0
VPORT
  5
1F4
100
AcDbSymbolTableRecord
100
AcDbViewportTableRecord
  2
*ACTIVE
 70
0
 10
0.0
 20
0.0
 11
1.0
 21
1.0
 12
76.7926613994
 22
108.6067639791
 13
0.0
 23
0.0
 14
1.0
 24
1.0
 15
0.0
 25
0.0
 16
0.0
 26
0.0
 36
1.0
 17
0.0
 27
0.0
 37
0.0
 40
217.2135279582
 41
0.7070707071
 42
50.0
 43
0.0
 44
0.0
 50
0.0
 51
0.0
 71
0
 72
100
 73
1
 74
1
 75
0
 76
0
 77
0
 78
0
  0
ENDTAB
  0
TABLE
  2
LTYPE
  5
5
100
AcDbSymbolTable
 70
6
  0
LTYPE
  5
14
100
AcDbSymbolTableRecord
100
AcDbLinetypeTableRecord
  2
BYBLOCK
 70
0
  3

 72
65
 73
0
 40
0.0
  0
LTYPE
  5
15
100
AcDbSymbolTableRecord
100
AcDbLinetypeTableRecord
  2
BYLAYER
 70
0
  3

 72
65
 73
0
 40
0.0
  0
LTYPE
  5
16
100
AcDbSymbolTableRecord
100
AcDbLinetypeTableRecord
  2
CONTINUOUS
 70
64
  3
Solid line
 72
65
 73
0
 40
0.0
  0
LTYPE
  5
1F5
100
AcDbSymbolTableRecord
100
AcDbLinetypeTableRecord
  2
CENTER
 70
64
  3
____ _ ____ _ ____ _ ____ _ ____ _ ____ _ ____
 72
65
 73
4
 40
0.6
 49
0.375
 74
0
 49
-0.075
 74
0
 49
0.075
 74
0
 49
-0.075
 74
0
  0
LTYPE
  5
1F6
100
AcDbSymbolTableRecord
100
AcDbLinetypeTableRecord
  2
HIDDEN
 70
64
  3
- - - - - - - - - - - - - - - - - - - -
 72
65
 73
2
 40
0.2
 49
0.1
 74
0
 49
-0.1
 74
0
  0
LTYPE
  5
1F7
100
AcDbSymbolTableRecord
100
AcDbLinetypeTableRecord
  2
PHANTOM
 70
64
  3
_____ _ _ _____ _ _ _____ _ _ _____
 72
65
 73
6
 40
0.8
 49
0.45
 74
0
 49
-0.05
 74
0
 49
0.1
 74
0
 49
-0.05
 74
0
 49
0.1
 74
0
 49
-0.05
 74
0
  0
LTYPE
  5
1F8
100
AcDbSymbolTableRecord
100
AcDbLinetypeTableRecord
  2
DOT
 70
64
  3
. . . . . . . . . . . . . . . . . . . .
 72
65
 73
2
 40
0.2
 49
0.1
 74
0
 49
-0.1
 74
0
  0
LTYPE
  5
1F9
100
AcDbSymbolTableRecord
100
AcDbLinetypeTableRecord
  2
DASHED
 70
64
  3
- - - - - - - - - - - - - - - - - - - -
 72
65
 73
2
 40
0.2
 49
0.1
 74
0
 49
-0.1
 74
0
  0
ENDTAB
  0
TABLE
  2
LAYER
  5
2
100
AcDbSymbolTable
 70
36
  0
LAYER
  5
10
100
AcDbSymbolTableRecord
100
AcDbLayerTableRecord
  2
0
 70
0
 62
7
  6
CONTINUOUS
370
-3
390
F
  0
LAYER
  5
1FA
100
AcDbSymbolTableRecord
100
AcDbLayerTableRecord
  2
DEFAULT_1
 70
0
 62
7
  6
CENTER
370
-3
390
F
  0
LAYER
  5
1FB
100
AcDbSymbolTableRecord
100
AcDbLayerTableRecord
  2
DEFAULT_2
 70
0
 62
8
  6
HIDDEN
370
-3
390
F
  0
LAYER
  5
1FC
100
AcDbSymbolTableRecord
100
AcDbLayerTableRecord
  2
DEFAULT_3
 70
0
 62
7
  6
PHANTOM
370
-3
390
F
  0
LAYER
  5
1FD
100
AcDbSymbolTableRecord
100
AcDbLayerTableRecord
  2
00_COMPONENTS
 70
0
 62
7
  6
CONTINUOUS
370
-3
390
F
  0
LAYER
  5
1FE
100
AcDbSymbolTableRecord
100
AcDbLayerTableRecord
  2
01_1_DEFAULT_DATUMS
 70
0
 62
7
  6
CONTINUOUS
370
-3
390
F
  0
LAYER
  5
1FF
100
AcDbSymbolTableRecord
100
AcDbLayerTableRecord
  2
01_PLANES
 70
0
 62
7
  6
CONTINUOUS
370
-3
390
F
  0
LAYER
  5
200
100
AcDbSymbolTableRecord
100
AcDbLayerTableRecord
  2
02_COORD_SYS
 70
0
 62
7
  6
CONTINUOUS
370
-3
390
F
  0
LAYER
  5
201
100
AcDbSymbolTableRecord
100
AcDbLayerTableRecord
  2
03_AXES
 70
0
 62
7
  6
CONTINUOUS
370
-3
390
F
  0
LAYER
  5
202
100
AcDbSymbolTableRecord
100
AcDbLayerTableRecord
  2
04_POINTS
 70
0
 62
7
  6
CONTINUOUS
370
-3
390
F
  0
LAYER
  5
203
100
AcDbSymbolTableRecord
100
AcDbLayerTableRecord
  2
05_CURVES
 70
0
 62
7
  6
CONTINUOUS
370
-3
390
F
  0
LAYER
  5
204
100
AcDbSymbolTableRecord
100
AcDbLayerTableRecord
  2
06_SURFS
 70
0
 62
7
  6
CONTINUOUS
370
-3
390
F
  0
LAYER
  5
205
100
AcDbSymbolTableRecord
100
AcDbLayerTableRecord
  2
07_COSMETICS
 70
0
 62
7
  6
CONTINUOUS
370
-3
390
F
  0
LAYER
  5
206
100
AcDbSymbolTableRecord
100
AcDbLayerTableRecord
  2
10_NOTES
 70
0
 62
7
  6
CONTINUOUS
370
-3
390
F
  0
LAYER
  5
207
100
AcDbSymbolTableRecord
100
AcDbLayerTableRecord
  2
11_NOTES_PUB
 70
0
 62
7
  6
CONTINUOUS
370
-3
390
F
  0
LAYER
  5
208
100
AcDbSymbolTableRecord
100
AcDbLayerTableRecord
  2
13_REF_GTOL
 70
0
 62
7
  6
CONTINUOUS
370
-3
390
F
  0
LAYER
  5
209
100
AcDbSymbolTableRecord
100
AcDbLayerTableRecord
  2
16_MISC
 70
0
 62
7
  6
CONTINUOUS
370
-3
390
F
  0
LAYER
  5
20A
100
AcDbSymbolTableRecord
100
AcDbLayerTableRecord
  2
17_NO_PRINT
 70
0
 62
7
  6
CONTINUOUS
370
-3
390
F
  0
LAYER
  5
20B
100
AcDbSymbolTableRecord
100
AcDbLayerTableRecord
  2
18_DATUM_CAMS_JOINTS
 70
0
 62
7
  6
CONTINUOUS
370
-3
390
F
  0
LAYER
  5
20C
100
AcDbSymbolTableRecord
100
AcDbLayerTableRecord
  2
19_DATUM_FUNCTIONAL
 70
0
 62
7
  6
CONTINUOUS
370
-3
390
F
  0
LAYER
  5
20D
100
AcDbSymbolTableRecord
100
AcDbLayerTableRecord
  2
20_DATUM_KINEMATIC_SCHEME
 70
0
 62
7
  6
CONTINUOUS
370
-3
390
F
  0
LAYER
  5
20E
100
AcDbSymbolTableRecord
100
AcDbLayerTableRecord
  2
SHELL3
 70
0
 62
7
  6
CONTINUOUS
370
-3
390
F
  0
ENDTAB
  0
TABLE
  2
STYLE
  5
3
100
AcDbSymbolTable
 70
1
  0
STYLE
  5
11
100
AcDbSymbolTableRecord
100
AcDbTextStyleTableRecord
  2
STANDARD
 70
0
 40
0.0
 41
0.8
 50
0.0
 71
0
 42
0.2
  3
txt
  4

  0
STYLE
  5
20F
100
AcDbSymbolTableRecord
100
AcDbTextStyleTableRecord
  2
TEXTSTYLE_1
 70
0
 40
0.0
 41
0.8
 50
0.0
 71
0
 42
0.2
  3
gdt
  4

  0
ENDTAB
  0
TABLE
  2
VIEW
  5
6
100
AcDbSymbolTable
 70
0
  0
ENDTAB
  0
TABLE
  2
UCS
  5
7
100
AcDbSymbolTable
 70
0
  0
ENDTAB
  0
TABLE
  2
APPID
  5
9
100
AcDbSymbolTable
 70
1
  0
APPID
  5
210
100
AcDbSymbolTableRecord
100
AcDbRegAppTableRecord
  2
ACAD
 70
0
  0
ENDTAB
  0
TABLE
  2
BLOCK_RECORD
  5
1
100
AcDbSymbolTable
 70
0
  0
BLOCK_RECORD
  5
211
100
AcDbSymbolTableRecord
100
AcDbBlockTableRecord
  2
*Model_Space
  0
BLOCK_RECORD
  5
212
100
AcDbSymbolTableRecord
100
AcDbBlockTableRecord
  2
*Paper_Space
  0
BLOCK_RECORD
  5
213
100
AcDbSymbolTableRecord
100
AcDbBlockTableRecord
  2
_FILLED
  0
ENDTAB
  0
TABLE
  2
DIMSTYLE
  5
A
100
AcDbSymbolTable
 70
1
100
AcDbDimStyleTable
 71
0
  0
DIMSTYLE
105
214
100
AcDbSymbolTableRecord
100
AcDbDimStyleTableRecord
  2
STANDARD
 70
0
  3

  4

 40
1.0
 41
1.8283967
 42
1.0
 43
0.38
 44
1.0
 45
0.0
 46
0.0
 47
0.01
 48
0.01
140
2.55975538
141
0.09
142
0.0
143
25.4
144
1.0
145
0.0
146
1.0
147
0.625
 71
1
 72
0
 73
0
 74
0
 75
0
 76
0
 77
1
 78
8
 79
2
170
0
171
1
172
0
173
0
174
0
175
0
176
0
177
0
178
0
270
2
179
2
271
2
272
2
273
2
274
2
275
0
280
0
281
0
282
0
283
1
284
8
285
0
286
0
287
3
288
0
340
11
278
46
341
213
342
213
343
213
344
213
  0
ENDTAB
  0
ENDSEC
  0
SECTION
  2
BLOCKS
  0
BLOCK
  5
20
100
AcDbEntity
  8
0
100
AcDbBlockBegin
  2
*Model_Space
 70
0
 10
0.0
 20
0.0
 30
0.0
  3
*Model_Space
  1

  0
ENDBLK
  5
21
100
AcDbEntity
  8
0
100
AcDbBlockEnd
  0
BLOCK
  5
1C
100
AcDbEntity
  8
0
100
AcDbBlockBegin
  2
*Paper_Space
 70
0
 10
0.0
 20
0.0
 30
0.0
  3
*Paper_Space
  1

  0
ENDBLK
  5
1D
100
AcDbEntity
  8
0
100
AcDbBlockEnd
  0
BLOCK
  5
215
100
AcDbEntity
  8
0
100
AcDbBlockBegin
  2
_FILLED
 70
64
 10
0.0
 20
0.0
  3
_FILLED
  1

  0
SOLID
  5
216
100
AcDbEntity
  8
0
  6
BYBLOCK
 62
0
100
AcDbTrace
 10
0.0
 20
0.0
 11
-1.0
 21
0.25
 12
-1.0
 22
-0.25
 13
-1.0
 23
-0.25
  0
ENDBLK
  5
217
100
AcDbEntity
  8
0
  6
BYBLOCK
 62
0
100
AcDbBlockEnd
  0
ENDSEC
  0
SECTION
  2
ENTITIES
  0
LINE
  5
218
100
AcDbEntity
  8
0
100
AcDbLine
 62
7
  6
CONTINUOUS
 10
40.2018196314
 20
164.312970214
 11
19.3206563699
 21
152.2572969466
  0
LINE
  5
219
100
AcDbEntity
  8
0
100
AcDbLine
 62
7
  6
CONTINUOUS
 10
17.8176644858
 20
92.5943081419
 11
17.8176644858
 21
135.1095889888
  0
LINE
  5
21A
100
AcDbEntity
  8
0
100
AcDbLine
 62
7
  6
CONTINUOUS
 10
17.8327737736
 20
150.1834339136
 11
17.8327737736
 21
142.3025525835
  0
LINE
  5
21B
100
AcDbEntity
  8
0
100
AcDbLine
 62
7
  6
CONTINUOUS
 10
18.0058760501
 20
141.5434510743
 11
18.0058760501
 21
149.4243324044
  0
LINE
  5
21C
100
AcDbEntity
  8
0
100
AcDbLine
 62
7
  6
CONTINUOUS
 10
21.4097818895
 20
133.0357259558
 11
21.4097818895
 21
90.5204451089
  0
LINE
  5
21D
100
AcDbEntity
  8
0
100
AcDbLine
 62
7
  6
CONTINUOUS
 10
24.1038475093
 20
134.5911361821
 11
24.1038475093
 21
121.1106812753
  0
LINE
  5
21E
100
AcDbEntity
  8
0
100
AcDbLine
 62
7
  6
CONTINUOUS
 10
27.9742180677
 20
146.9885710881
 11
27.9742180677
 21
151.20804222
  0
LINE
  5
21F
100
AcDbEntity
  8
0
100
AcDbLine
 62
7
  6
CONTINUOUS
 10
17.8176644858
 20
135.1095889888
 11
23.2057957253
 21
138.2204094413
  0
LINE
  5
220
100
AcDbEntity
  8
0
100
AcDbLine
 62
7
  6
CONTINUOUS
 10
64.5148018954
 20
162.0700329105
 11
69.9029331349
 21
165.180853363
  0
LINE
  5
221
100
AcDbEntity
  8
0
100
AcDbLine
 62
7
  6
CONTINUOUS
 10
73.4950505387
 20
163.10699033
 11
70.8009849189
 21
161.5515801038
  0
LINE
  5
222
100
AcDbEntity
  8
0
100
AcDbLine
 62
7
  6
CONTINUOUS
 10
24.1038475093
 20
134.5911361821
 11
21.4097818895
 21
133.0357259558
  0
LINE
  5
223
100
AcDbEntity
  8
0
100
AcDbLine
 62
7
  6
CONTINUOUS
 10
18.0058760501
 20
141.5434510743
 11
17.8329095033
 21
142.3025525325
  0
LINE
  5
224
100
AcDbEntity
  8
0
100
AcDbLine
 62
7
  6
CONTINUOUS
 10
17.8329095033
 20
150.1834338627
 11
18.0058760501
 21
149.4243324044
  0
LINE
  5
225
100
AcDbEntity
  8
0
100
AcDbLine
 62
7
  6
CONTINUOUS
 10
29.4919787489
 20
104.5192984024
 11
29.4919787489
 21
119.0368706984
  0
LINE
  5
226
100
AcDbEntity
  8
0
100
AcDbLine
 62
7
  6
CONTINUOUS
 10
30.7940302296
 20
149.5800597391
 11
30.7940302296
 21
147.3424967573
  0
LINE
  5
227
100
AcDbEntity
  8
0
100
AcDbLine
 62
7
  6
CONTINUOUS
 10
18.0806971349
 20
92.0129197242
 11
21.6728145386
 21
89.9390566913
  0
LINE
  5
228
100
AcDbEntity
  8
0
100
AcDbLine
 62
7
  6
CONTINUOUS
 10
39.6334015574
 20
79.5697415265
 11
43.2255189611
 21
77.4958784935
  0
LINE
  5
229
100
AcDbEntity
  8
0
100
AcDbLine
 62
7
  6
CONTINUOUS
 10
61.1861059798
 20
67.1265633287
 11
64.7782233836
 21
65.0527002957
  0
LINE
  5
22A
100
AcDbEntity
  8
0
100
AcDbLine
 62
7
  6
CONTINUOUS
 10
82.7388104023
 20
54.6833851309
 11
86.3309278061
 21
52.6095220979
  0
LINE
  5
22B
100
AcDbEntity
  8
0
100
AcDbLine
 62
7
  6
CONTINUOUS
 10
86.0678951569
 20
53.1909105026
 11
82.4757777532
 21
55.2647735355
  0
LINE
  5
22C
100
AcDbEntity
  8
0
100
AcDbLine
 62
7
  6
CONTINUOUS
 10
64.5151907345
 20
65.6340887003
 11
60.9230733307
 21
67.7079517333
  0
LINE
  5
22D
100
AcDbEntity
  8
0
100
AcDbLine
 62
7
  6
CONTINUOUS
 10
42.962486312
 20
78.0772668981
 11
39.3703689082
 21
80.1511299311
  0
LINE
  5
22E
100
AcDbEntity
  8
0
100
AcDbLine
 62
7
  6
CONTINUOUS
 10
21.4097818895
 20
90.5204450959
 11
17.8176644858
 21
92.5943081289
  0
LINE
  5
22F
100
AcDbEntity
  8
0
100
AcDbLine
 62
7
  6
CONTINUOUS
 10
36.5413397844
 20
152.728936748
 11
36.5413397844
 21
157.1185970647
  0
LINE
  5
230
100
AcDbEntity
  8
0
100
AcDbLine
 62
7
  6
CONTINUOUS
 10
38.5170043564
 20
155.9779723966
 11
38.5170043564
 21
153.2323620868
  0
LINE
  5
231
100
AcDbEntity
  8
0
100
AcDbLine
 62
7
  6
CONTINUOUS
 10
39.3703689082
 20
80.1511299441
 11
39.3703689082
 21
122.666410791
  0
LINE
  5
232
100
AcDbEntity
  8
0
100
AcDbLine
 62
7
  6
CONTINUOUS
 10
20.3211189043
 20
136.5549504436
 11
18.0058760501
 21
141.5434510743
  0
LINE
  5
233
100
AcDbEntity
  8
0
100
AcDbLine
 62
7
  6
CONTINUOUS
 10
42.962486312
 20
120.5925477581
 11
42.962486312
 21
78.0772669112
  0
LINE
  5
234
100
AcDbEntity
  8
0
100
AcDbLine
 62
7
  6
CONTINUOUS
 10
45.6565519318
 20
122.1479579843
 11
45.6565519318
 21
108.6675030775
  0
LINE
  5
235
100
AcDbEntity
  8
0
100
AcDbLine
 62
7
  6
CONTINUOUS
 10
18.0058760501
 20
149.4243324044
 11
23.2057957253
 21
138.2204094413
  0
LINE
  5
236
100
AcDbEntity
  8
0
100
AcDbLine
 62
7
  6
CONTINUOUS
 10
45.9346555329
 20
157.3579725964
 11
45.9346555329
 21
161.5774437283
  0
LINE
  5
237
100
AcDbEntity
  8
0
100
AcDbLine
 62
7
  6
CONTINUOUS
 10
48.7544676949
 20
159.9494612474
 11
48.7544676949
 21
157.7118982656
  0
LINE
  5
238
100
AcDbEntity
  8
0
100
AcDbLine
 62
7
  6
CONTINUOUS
 10
51.0446831713
 20
92.0761202047
 11
51.0446831713
 21
106.5936925006
  0
LINE
  5
239
100
AcDbEntity
  8
0
100
AcDbLine
 62
7
  6
CONTINUOUS
 10
39.3703689082
 20
122.666410791
 11
42.064434528
 21
124.2218210173
  0
LINE
  5
23A
100
AcDbEntity
  8
0
100
AcDbLine
 62
7
  6
CONTINUOUS
 10
88.7615719376
 20
151.1822649389
 11
91.4556375574
 21
152.7376751652
  0
LINE
  5
23B
100
AcDbEntity
  8
0
100
AcDbLine
 62
7
  6
CONTINUOUS
 10
95.0477549612
 20
150.6638121322
 11
92.3536893414
 21
149.108401906
  0
LINE
  5
23C
100
AcDbEntity
  8
0
100
AcDbLine
 62
7
  6
CONTINUOUS
 10
45.6565519318
 20
122.1479579843
 11
42.962486312
 21
120.5925477581
  0
LINE
  5
23D
100
AcDbEntity
  8
0
100
AcDbLine
 62
7
  6
CONTINUOUS
 10
82.4757777532
 20
73.929779812
 11
72.5973875938
 21
79.6329420069
  0
LINE
  5
23E
100
AcDbEntity
  8
0
100
AcDbLine
 62
7
  6
CONTINUOUS
 10
60.9230733307
 20
86.3729580097
 11
51.0446831713
 21
92.0761202047
  0
LINE
  5
23F
100
AcDbEntity
  8
0
100
AcDbLine
 62
7
  6
CONTINUOUS
 10
39.3703689082
 20
98.8161362075
 11
29.4919787489
 21
104.5192984024
  0
LINE
  5
240
100
AcDbEntity
  8
0
100
AcDbLine
 62
7
  6
CONTINUOUS
 10
38.7129433636
 20
113.7132647319
 11
39.3703689082
 21
113.1302997251
  0
LINE
  5
241
100
AcDbEntity
  8
0
100
AcDbLine
 62
7
  6
CONTINUOUS
 10
60.9230733307
 20
67.7079517463
 11
60.9230733307
 21
110.2232325932
  0
LINE
  5
242
100
AcDbEntity
  8
0
100
AcDbLine
 62
7
  6
CONTINUOUS
 10
60.2656477861
 20
101.2700865342
 11
60.9230733307
 21
100.6871215273
  0
LINE
  5
243
100
AcDbEntity
  8
0
100
AcDbLine
 62
7
  6
CONTINUOUS
 10
64.5151907345
 20
108.1493695603
 11
64.5151907345
 21
65.6340887134
  0
LINE
  5
244
100
AcDbEntity
  8
0
100
AcDbLine
 62
7
  6
CONTINUOUS
 10
67.2092563543
 20
109.7047797865
 11
67.2092563543
 21
96.2243248797
  0
LINE
  5
245
100
AcDbEntity
  8
0
100
AcDbLine
 62
7
  6
CONTINUOUS
 10
22.3078037741
 20
90.0019571081
 11
38.4724274425
 21
99.3345512263
  0
LINE
  5
246
100
AcDbEntity
  8
0
100
AcDbLine
 62
7
  6
CONTINUOUS
 10
110.862110937
 20
87.9340916722
 11
91.4560263965
 21
90.9361304849
  0
LINE
  5
247
100
AcDbEntity
  8
0
100
AcDbLine
 62
7
  6
CONTINUOUS
 10
67.2092563543
 20
96.2243248797
 11
70.5607475186
 21
95.3263423977
  0
LINE
  5
248
100
AcDbEntity
  8
0
100
AcDbLine
 62
7
  6
CONTINUOUS
 10
81.8183522086
 20
88.8269083364
 11
70.5607475186
 21
95.3263423977
  0
LINE
  5
249
100
AcDbEntity
  8
0
100
AcDbLine
 62
7
  6
CONTINUOUS
 10
60.2656477861
 20
101.2700865342
 11
49.0080430962
 21
107.7695205955
  0
LINE
  5
24A
100
AcDbEntity
  8
0
100
AcDbLine
 62
7
  6
CONTINUOUS
 10
38.7129433636
 20
113.7132647319
 11
27.4553386737
 21
120.2126987933
  0
LINE
  5
24B
100
AcDbEntity
  8
0
100
AcDbLine
 62
7
  6
CONTINUOUS
 10
81.8183522086
 20
88.8269083364
 11
82.4757777532
 21
88.2439433295
  0
LINE
  5
24C
100
AcDbEntity
  8
0
100
AcDbLine
 62
7
  6
CONTINUOUS
 10
72.5973875938
 20
79.6329420069
 11
72.5973875938
 21
94.1505143029
  0
LINE
  5
24D
100
AcDbEntity
  8
0
100
AcDbLine
 62
7
  6
CONTINUOUS
 10
60.9230733307
 20
110.2232325932
 11
63.6171389505
 21
111.7786428195
  0
LINE
  5
24E
100
AcDbEntity
  8
0
100
AcDbLine
 62
7
  6
CONTINUOUS
 10
110.3142763601
 20
138.7390867412
 11
113.0083419799
 21
140.2944969674
  0
LINE
  5
24F
100
AcDbEntity
  8
0
100
AcDbLine
 62
7
  6
CONTINUOUS
 10
116.6004593836
 20
138.2206339344
 11
113.9063937639
 21
136.6652237082
  0
LINE
  5
250
100
AcDbEntity
  8
0
100
AcDbLine
 62
7
  6
CONTINUOUS
 10
67.2092563543
 20
109.7047797865
 11
64.5151907345
 21
108.1493695603
  0
LINE
  5
251
100
AcDbEntity
  8
0
100
AcDbLine
 62
7
  6
CONTINUOUS
 10
91.4560263965
 20
98.817011815
 11
110.862110937
 21
95.8149730023
  0
LINE
  5
252
100
AcDbEntity
  8
0
100
AcDbLine
 62
7
  6
CONTINUOUS
 10
45.6565519318
 20
108.6675030775
 11
49.0080430962
 21
107.7695205955
  0
LINE
  5
253
100
AcDbEntity
  8
0
100
AcDbLine
 62
7
  6
CONTINUOUS
 10
86.0678951569
 20
95.7061913625
 11
82.4757777532
 21
97.7800543955
  0
LINE
  5
254
100
AcDbEntity
  8
0
100
AcDbLine
 62
7
  6
CONTINUOUS
 10
64.5151907345
 20
108.1493695603
 11
60.9230733307
 21
110.2232325932
  0
LINE
  5
255
100
AcDbEntity
  8
0
100
AcDbLine
 62
7
  6
CONTINUOUS
 10
42.962486312
 20
120.5925477581
 11
39.3703689082
 21
122.666410791
  0
LINE
  5
256
100
AcDbEntity
  8
0
100
AcDbLine
 62
7
  6
CONTINUOUS
 10
21.4097818895
 20
133.0357259558
 11
17.8176644858
 21
135.1095889888
  0
LINE
  5
257
100
AcDbEntity
  8
0
100
AcDbLine
 62
7
  6
CONTINUOUS
 10
73.4950505387
 20
159.9961957805
 11
73.4950505387
 21
163.10699033
  0
LINE
  5
258
100
AcDbEntity
  8
0
100
AcDbLine
 62
7
  6
CONTINUOUS
 10
24.1038475093
 20
121.1106812753
 11
27.4553386737
 21
120.2126987933
  0
LINE
  5
259
100
AcDbEntity
  8
0
100
AcDbLine
 62
7
  6
CONTINUOUS
 10
85.169843373
 20
99.3354646217
 11
67.2092563543
 21
109.7047797865
  0
LINE
  5
25A
100
AcDbEntity
  8
0
100
AcDbLine
 62
7
  6
CONTINUOUS
 10
63.6171389505
 20
111.7786428195
 11
45.6565519318
 21
122.1479579843
  0
LINE
  5
25B
100
AcDbEntity
  8
0
100
AcDbLine
 62
7
  6
CONTINUOUS
 10
42.064434528
 20
124.2218210173
 11
24.1038475093
 21
134.5911361821
  0
LINE
  5
25C
100
AcDbEntity
  8
0
100
AcDbLine
 62
7
  6
CONTINUOUS
 10
82.4757777532
 20
55.2647735486
 11
82.4757777532
 21
97.7800543955
  0
LINE
  5
25D
100
AcDbEntity
  8
0
100
AcDbLine
 62
7
  6
CONTINUOUS
 10
86.0678951569
 20
95.7061913625
 11
86.0678951569
 21
53.1909105156
  0
LINE
  5
25E
100
AcDbEntity
  8
0
100
AcDbLine
 62
7
  6
CONTINUOUS
 10
43.8605081966
 20
77.5587789103
 11
60.025131865
 21
86.8913730286
  0
LINE
  5
25F
100
AcDbEntity
  8
0
100
AcDbLine
 62
7
  6
CONTINUOUS
 10
24.0588427003
 20
148.9475126911
 11
26.8786548622
 21
147.3195302103
  0
LINE
  5
260
100
AcDbEntity
  8
0
100
AcDbLine
 62
7
  6
CONTINUOUS
 10
107.216360597
 20
100.937583478
 11
110.036172759
 21
99.3096009972
  0
LINE
  5
261
100
AcDbEntity
  8
0
100
AcDbLine
 62
7
  6
CONTINUOUS
 10
113.9515481264
 20
101.570130526
 11
111.1317359644
 21
103.1981130069
  0
LINE
  5
262
100
AcDbEntity
  8
0
100
AcDbLine
 62
7
  6
CONTINUOUS
 10
30.7940302296
 20
149.5800597391
 11
27.9742180677
 21
151.20804222
  0
LINE
  5
263
100
AcDbEntity
  8
0
100
AcDbLine
 62
7
  6
CONTINUOUS
 10
91.4560263965
 20
98.817011815
 11
91.4560263965
 21
90.9361304849
  0
LINE
  5
264
100
AcDbEntity
  8
0
100
AcDbLine
 62
7
  6
CONTINUOUS
 10
95.0477549612
 20
147.5530175827
 11
95.0477549612
 21
150.6638121322
  0
LINE
  5
265
100
AcDbEntity
  8
0
100
AcDbLine
 62
7
  6
CONTINUOUS
 10
82.4757777532
 20
97.7800543955
 11
85.169843373
 21
99.3354646217
  0
LINE
  5
266
100
AcDbEntity
  8
0
100
AcDbLine
 62
7
  6
CONTINUOUS
 10
131.8669807826
 20
126.2959085434
 11
134.5610464024
 21
127.8513187696
  0
LINE
  5
267
100
AcDbEntity
  8
0
100
AcDbLine
 62
7
  6
CONTINUOUS
 10
138.1531638061
 20
125.7774557367
 11
132.7650325666
 21
122.6666352842
  0
LINE
  5
268
100
AcDbEntity
  8
0
100
AcDbLine
 62
7
  6
CONTINUOUS
 10
91.4560263965
 20
98.817011815
 11
86.0678951569
 21
95.7061913625
  0
LINE
  5
269
100
AcDbEntity
  8
0
100
AcDbLine
 62
7
  6
CONTINUOUS
 10
31.7818238561
 20
154.370705665
 11
33.7574884281
 21
153.2300809969
  0
LINE
  5
26A
100
AcDbEntity
  8
0
100
AcDbLine
 62
7
  6
CONTINUOUS
 10
117.4538239354
 20
104.9090723289
 11
119.4294885075
 21
103.7684476607
  0
LINE
  5
26B
100
AcDbEntity
  8
0
100
AcDbLine
 62
7
  6
CONTINUOUS
 10
124.1890044358
 20
106.5163390604
 11
122.2133398637
 21
107.6569637286
  0
LINE
  5
26C
100
AcDbEntity
  8
0
100
AcDbLine
 62
7
  6
CONTINUOUS
 10
38.5170043564
 20
155.9779723966
 11
36.5413397844
 21
157.1185970647
  0
LINE
  5
26D
100
AcDbEntity
  8
0
100
AcDbLine
 62
7
  6
CONTINUOUS
 10
42.0192801655
 20
159.3169141995
 11
44.8390923274
 21
157.6889317186
  0
LINE
  5
26E
100
AcDbEntity
  8
0
100
AcDbLine
 62
7
  6
CONTINUOUS
 10
125.1767980622
 20
111.3069849864
 11
127.9966102242
 21
109.6790025055
  0
LINE
  5
26F
100
AcDbEntity
  8
0
100
AcDbLine
 62
7
  6
CONTINUOUS
 10
110.862110937
 20
95.8149730023
 11
110.862110937
 21
87.9340916722
  0
LINE
  5
270
100
AcDbEntity
  8
0
100
AcDbLine
 62
7
  6
CONTINUOUS
 10
111.1317359644
 20
98.978641875
 11
111.1317359644
 21
103.1981130069
  0
LINE
  5
271
100
AcDbEntity
  8
0
100
AcDbLine
 62
7
  6
CONTINUOUS
 10
115.7690086605
 20
96.5740745115
 11
136.650171922
 21
108.6297477789
  0
LINE
  5
272
100
AcDbEntity
  8
0
100
AcDbLine
 62
7
  6
CONTINUOUS
 10
65.413212619
 20
65.1156007125
 11
81.5778362875
 21
74.4481948308
  0
LINE
  5
273
100
AcDbEntity
  8
0
100
AcDbLine
 62
7
  6
CONTINUOUS
 10
131.9119855916
 20
111.9395320343
 11
129.0921734297
 21
113.5675145152
  0
LINE
  5
274
100
AcDbEntity
  8
0
100
AcDbLine
 62
7
  6
CONTINUOUS
 10
48.7544676949
 20
159.9494612474
 11
45.9346555329
 21
161.5774437283
  0
LINE
  5
275
100
AcDbEntity
  8
0
100
AcDbLine
 62
7
  6
CONTINUOUS
 10
113.9515481264
 20
101.570130526
 11
113.9515481264
 21
99.3325675442
  0
LINE
  5
276
100
AcDbEntity
  8
0
100
AcDbLine
 62
7
  6
CONTINUOUS
 10
115.7690086605
 20
88.6931931814
 11
115.7690086605
 21
96.5740745115
  0
LINE
  5
277
100
AcDbEntity
  8
0
100
AcDbLine
 62
7
  6
CONTINUOUS
 10
116.6004593836
 20
135.1098393849
 11
116.6004593836
 21
138.2206339344
  0
LINE
  5
278
100
AcDbEntity
  8
0
100
AcDbLine
 62
7
  6
CONTINUOUS
 10
136.650171922
 20
100.7488664488
 11
115.7690086605
 21
88.6931931814
  0
LINE
  5
279
100
AcDbEntity
  8
0
100
AcDbLine
 62
7
  6
CONTINUOUS
 10
122.2133398637
 20
103.2673034118
 11
122.2133398637
 21
107.6569637286
  0
LINE
  5
27A
100
AcDbEntity
  8
0
100
AcDbLine
 62
7
  6
CONTINUOUS
 10
70.8009849189
 20
161.5515801038
 11
88.7615719376
 21
151.1822649389
  0
LINE
  5
27B
100
AcDbEntity
  8
0
100
AcDbLine
 62
7
  6
CONTINUOUS
 10
92.3536893414
 20
149.108401906
 11
110.3142763601
 21
138.7390867412
  0
LINE
  5
27C
100
AcDbEntity
  8
0
100
AcDbLine
 62
7
  6
CONTINUOUS
 10
113.9063937639
 20
136.6652237082
 11
131.8669807826
 21
126.2959085434
  0
LINE
  5
27D
100
AcDbEntity
  8
0
100
AcDbLine
 62
7
  6
CONTINUOUS
 10
124.1890044358
 20
106.5163390604
 11
124.1890044358
 21
103.7707287506
  0
LINE
  5
27E
100
AcDbEntity
  8
0
100
AcDbLine
 62
7
  6
CONTINUOUS
 10
138.1531638061
 20
125.7774557367
 11
134.5610464024
 21
127.8513187696
  0
LINE
  5
27F
100
AcDbEntity
  8
0
100
AcDbLine
 62
7
  6
CONTINUOUS
 10
116.6004593836
 20
138.2206339344
 11
113.0083419799
 21
140.2944969674
  0
LINE
  5
280
100
AcDbEntity
  8
0
100
AcDbLine
 62
7
  6
CONTINUOUS
 10
95.0477549612
 20
150.6638121322
 11
91.4556375574
 21
152.7376751652
  0
LINE
  5
281
100
AcDbEntity
  8
0
100
AcDbLine
 62
7
  6
CONTINUOUS
 10
73.4950505387
 20
163.10699033
 11
69.9029331349
 21
165.180853363
  0
LINE
  5
282
100
AcDbEntity
  8
0
100
AcDbLine
 62
7
  6
CONTINUOUS
 10
129.0921734297
 20
109.3480433833
 11
129.0921734297
 21
113.5675145152
  0
LINE
  5
283
100
AcDbEntity
  8
0
100
AcDbLine
 62
7
  6
CONTINUOUS
 10
131.9119855916
 20
111.9395320343
 11
131.9119855916
 21
109.7019690525
  0
LINE
  5
284
100
AcDbEntity
  8
0
100
AcDbLine
 62
7
  6
CONTINUOUS
 10
86.9659170415
 20
52.6724225147
 11
137.2551419216
 21
81.706746725
  0
LINE
  5
285
100
AcDbEntity
  8
0
100
AcDbLine
 62
7
  6
CONTINUOUS
 10
64.5148018954
 20
162.0700329105
 11
45.1087173549
 21
165.0720717231
  0
LINE
  5
286
100
AcDbEntity
  8
0
100
AcDbLine
 62
7
  6
CONTINUOUS
 10
137.9649522417
 20
111.462712321
 11
132.7650325666
 21
122.6666352842
  0
LINE
  5
287
100
AcDbEntity
  8
0
100
AcDbLine
 62
7
  6
CONTINUOUS
 10
136.650171922
 20
108.6297477789
 11
136.650171922
 21
100.7488664488
  0
LINE
  5
288
100
AcDbEntity
  8
0
100
AcDbLine
 62
7
  6
CONTINUOUS
 10
138.1380545183
 20
110.7036108119
 11
138.1380545183
 21
102.8227294817
  0
LINE
  5
289
100
AcDbEntity
  8
0
100
AcDbLine
 62
7
  6
CONTINUOUS
 10
138.1531638061
 20
83.2621748898
 11
138.1531638061
 21
125.7774557367
  0
LINE
  5
28A
100
AcDbEntity
  8
0
100
AcDbLine
 62
7
  6
CONTINUOUS
 10
138.1379187885
 20
110.7036108628
 11
137.9649522417
 21
111.462712321
  0
SPLINE
  5
28B
100
AcDbEntity
  8
0
100
AcDbSpline
 62
7
  6
CONTINUOUS
 70
0
 71
3
 72
13
 73
9
 74
0
 42
0.0000001
 43
0.0000001
 44
0.0000000001
 40
0.0
 40
0.0
 40
0.0
 40
0.0
 40
0.0991178367
 40
0.2019501014
 40
0.3115901036
 40
0.4300926548
 40
0.6963706726
 40
1.0
 40
1.0
 40
1.0
 40
1.0
 10
36.4815629624
 20
110.6635523907
 30
0.0
 10
36.5749019786
 20
110.7174507795
 30
0.0
 10
36.7795061849
 20
110.8039652635
 30
0.0
 10
37.1164810749
 20
110.8596430977
 30
0.0
 10
37.4783429736
 20
110.8422575548
 30
0.0
 10
38.0042246768
 20
110.7193187545
 30
0.0
 10
38.68164784
 20
110.3782408708
 30
0.0
 10
39.1630339217
 20
109.9813677815
 30
0.0
 10
39.3988519332
 20
109.7502732229
 30
0.0
  0
SPLINE
  5
28C
100
AcDbEntity
  8
0
100
AcDbSpline
 62
7
  6
CONTINUOUS
 70
0
 71
3
 72
11
 73
7
 74
0
 42
0.0000001
 43
0.0000001
 44
0.0000000001
 40
0.0
 40
0.0
 40
0.0
 40
0.0
 40
0.2177456293
 40
0.4508837761
 40
0.7104602915
 40
1.0
 40
1.0
 40
1.0
 40
1.0
 10
21.6728500677
 20
89.9391182318
 30
0.0
 10
21.7147335361
 20
89.9149373544
 30
0.0
 10
21.8109357147
 20
89.8799025019
 30
0.0
 10
21.970866669
 20
89.8758864073
 30
0.0
 10
22.1412275183
 20
89.9171229932
 30
0.0
 10
22.2521109187
 20
89.9698030151
 30
0.0
 10
22.3078037741
 20
90.0019571081
 30
0.0
  0
SPLINE
  5
28D
100
AcDbEntity
  8
0
100
AcDbSpline
 62
7
  6
CONTINUOUS
 70
0
 71
3
 72
11
 73
7
 74
0
 42
0.0000001
 43
0.0000001
 44
0.0000000001
 40
0.0
 40
0.0
 40
0.0
 40
0.0
 40
0.2177442244
 40
0.4508817657
 40
0.7104588049
 40
1.0
 40
1.0
 40
1.0
 40
1.0
 10
18.0807326649
 20
92.0129812642
 30
0.0
 10
18.0388478204
 20
92.0371629659
 30
0.0
 10
17.9604018952
 20
92.1029603999
 30
0.0
 10
17.8769546274
 20
92.2394614853
 30
0.0
 10
17.8274841019
 20
92.4076236072
 30
0.0
 10
17.8176644859
 20
92.5299967901
 30
0.0
 10
17.8176644858
 20
92.5943081419
 30
0.0
  0
SPLINE
  5
28E
100
AcDbEntity
  8
0
100
AcDbSpline
 62
7
  6
CONTINUOUS
 70
0
 71
3
 72
17
 73
13
 74
0
 42
0.0000001
 43
0.0000001
 44
0.0000000001
 40
0.0
 40
0.0
 40
0.0
 40
0.0
 40
0.0428571277
 40
0.087483909
 40
0.1353159407
 40
0.187279013
 40
0.3045397097
 40
0.4382076182
 40
0.5825507004
 40
0.7297102646
 40
0.8713099941
 40
1.0
 40
1.0
 40
1.0
 40
1.0
 10
49.5653304927
 20
158.8191963943
 30
0.0
 10
49.565362154
 20
158.7403867116
 30
0.0
 10
49.5442602543
 20
158.5788263854
 30
0.0
 10
49.4516321222
 20
158.3455456789
 30
0.0
 10
49.3012552848
 20
158.1243980674
 30
0.0
 10
49.0182451353
 20
157.8403125771
 30
0.0
 10
48.5359457702
 20
157.5467304654
 30
0.0
 10
47.8424941429
 20
157.3150856236
 30
0.0
 10
47.0642721209
 20
157.2057188463
 30
0.0
 10
46.2643635452
 20
157.2278447735
 30
0.0
 10
45.5080770269
 20
157.3791536766
 30
0.0
 10
45.0440359751
 20
157.5706101252
 30
0.0
 10
44.8390923274
 20
157.6889317186
 30
0.0
  0
SPLINE
  5
28F
100
AcDbEntity
  8
0
100
AcDbSpline
 62
7
  6
CONTINUOUS
 70
0
 71
3
 72
17
 73
13
 74
0
 42
0.0000001
 43
0.0000001
 44
0.0000000001
 40
0.0
 40
0.0
 40
0.0
 40
0.0
 40
0.0428571277
 40
0.087483909
 40
0.1353159407
 40
0.187279013
 40
0.3045397097
 40
0.4382076182
 40
0.5825507004
 40
0.7297102646
 40
0.8713099941
 40
1.0
 40
1.0
 40
1.0
 40
1.0
 10
31.6048930275
 20
148.449794886
 30
0.0
 10
31.6049246887
 20
148.3709852033
 30
0.0
 10
31.5838227891
 20
148.2094248771
 30
0.0
 10
31.491194657
 20
147.9761441706
 30
0.0
 10
31.3408178196
 20
147.754996559
 30
0.0
 10
31.0578076701
 20
147.4709110687
 30
0.0
 10
30.575508305
 20
147.1773289571
 30
0.0
 10
29.8820566776
 20
146.9456841153
 30
0.0
 10
29.1038346557
 20
146.8363173379
 30
0.0
 10
28.30392608
 20
146.8584432651
 30
0.0
 10
27.5476395617
 20
147.0097521682
 30
0.0
 10
27.0835985099
 20
147.2012086169
 30
0.0
 10
26.8786548622
 20
147.3195302103
 30
0.0
  0
SPLINE
  5
290
100
AcDbEntity
  8
0
100
AcDbSpline
 62
7
  6
CONTINUOUS
 70
0
 71
3
 72
17
 73
13
 74
0
 42
0.0000001
 43
0.0000001
 44
0.0000000001
 40
0.0
 40
0.0
 40
0.0
 40
0.0
 40
0.0428584554
 40
0.0874839031
 40
0.1353177481
 40
0.1872794187
 40
0.3045395902
 40
0.4382053041
 40
0.582547581
 40
0.729712444
 40
0.8713059798
 40
1.0
 40
1.0
 40
1.0
 40
1.0
 10
39.5027349203
 20
154.6040266903
 30
0.0
 10
39.5027421642
 20
154.5082228891
 30
0.0
 10
39.4770619255
 20
154.3118410804
 30
0.0
 10
39.3644935132
 20
154.0282510806
 30
0.0
 10
39.1816981936
 20
153.7594215106
 30
0.0
 10
38.8376524636
 20
153.4141084079
 30
0.0
 10
38.2513798506
 20
153.0572387703
 30
0.0
 10
37.4084281981
 20
152.7756589324
 30
0.0
 10
36.462420301
 20
152.6426955208
 30
0.0
 10
35.4900589866
 20
152.6696094058
 30
0.0
 10
34.5707047917
 20
152.8535016895
 30
0.0
 10
34.0066251136
 20
153.0862451185
 30
0.0
 10
33.7574884281
 20
153.2300809969
 30
0.0
  0
SPLINE
  5
291
100
AcDbEntity
  8
0
100
AcDbSpline
 62
7
  6
CONTINUOUS
 70
0
 71
3
 72
11
 73
7
 74
0
 42
0.0000001
 43
0.0000001
 44
0.0000000001
 40
0.0
 40
0.0
 40
0.0
 40
0.0
 40
0.2177456293
 40
0.4508837761
 40
0.7104602915
 40
1.0
 40
1.0
 40
1.0
 40
1.0
 10
86.3309633352
 20
52.6095836384
 30
0.0
 10
86.3728468036
 20
52.5854027611
 30
0.0
 10
86.4690489821
 20
52.5503679086
 30
0.0
 10
86.6289799364
 20
52.5463518139
 30
0.0
 10
86.7993407858
 20
52.5875883999
 30
0.0
 10
86.9102241862
 20
52.6402684218
 30
0.0
 10
86.9659170415
 20
52.6724225147
 30
0.0
  0
SPLINE
  5
292
100
AcDbEntity
  8
0
100
AcDbSpline
 62
7
  6
CONTINUOUS
 70
0
 71
3
 72
11
 73
7
 74
0
 42
0.0000001
 43
0.0000001
 44
0.0000000001
 40
0.0
 40
0.0
 40
0.0
 40
0.0
 40
0.2177442244
 40
0.4508817657
 40
0.7104588049
 40
1.0
 40
1.0
 40
1.0
 40
1.0
 10
82.7388459323
 20
54.6834466709
 30
0.0
 10
82.6969610878
 20
54.7076283725
 30
0.0
 10
82.6185151627
 20
54.7734258065
 30
0.0
 10
82.5350678949
 20
54.909926892
 30
0.0
 10
82.4855973693
 20
55.0780890139
 30
0.0
 10
82.4757777533
 20
55.2004621967
 30
0.0
 10
82.4757777532
 20
55.2647735486
 30
0.0
  0
SPLINE
  5
293
100
AcDbEntity
  8
0
100
AcDbSpline
 62
7
  6
CONTINUOUS
 70
0
 71
3
 72
11
 73
7
 74
0
 42
0.0000001
 43
0.0000001
 44
0.0000000001
 40
0.0
 40
0.0
 40
0.0
 40
0.0
 40
0.2897036169
 40
0.5490920547
 40
0.7822205729
 40
1.0
 40
1.0
 40
1.0
 40
1.0
 10
117.4538239354
 20
104.9090723289
 30
0.0
 10
117.3061482231
 20
104.9943310123
 30
0.0
 10
117.0382256487
 20
105.1788646354
 30
0.0
 10
116.7180143246
 20
105.515376897
 30
0.0
 10
116.5154630972
 20
105.887651712
 30
0.0
 10
116.4681030639
 20
106.1548325301
 30
0.0
 10
116.4680933715
 20
106.2830180352
 30
0.0
  0
SPLINE
  5
294
100
AcDbEntity
  8
0
100
AcDbSpline
 62
7
  6
CONTINUOUS
 70
0
 71
3
 72
11
 73
7
 74
0
 42
0.0000001
 43
0.0000001
 44
0.0000000001
 40
0.0
 40
0.0
 40
0.0
 40
0.0
 40
0.2897036169
 40
0.5490920547
 40
0.7822205729
 40
1.0
 40
1.0
 40
1.0
 40
1.0
 10
31.7818238561
 20
154.370705665
 30
0.0
 10
31.6341481437
 20
154.4559643485
 30
0.0
 10
31.3662255693
 20
154.6404979716
 30
0.0
 10
31.0460142452
 20
154.9770102332
 30
0.0
 10
30.8434630179
 20
155.3492850481
 30
0.0
 10
30.7961029845
 20
155.6164658662
 30
0.0
 10
30.7960932922
 20
155.7446513713
 30
0.0
  0
SPLINE
  5
295
100
AcDbEntity
  8
0
100
AcDbSpline
 62
7
  6
CONTINUOUS
 70
0
 71
3
 72
11
 73
7
 74
0
 42
0.0000001
 43
0.0000001
 44
0.0000000001
 40
0.0
 40
0.0
 40
0.0
 40
0.0
 40
0.2896433527
 40
0.5491132405
 40
0.7822372579
 40
1.0
 40
1.0
 40
1.0
 40
1.0
 10
107.216360597
 20
100.937583478
 30
0.0
 10
107.0949022014
 20
101.0077059291
 30
0.0
 10
106.8745185461
 20
101.1595564858
 30
0.0
 10
106.6110616748
 20
101.4363390748
 30
0.0
 10
106.4443530382
 20
101.7426081242
 30
0.0
 10
106.4055401598
 20
101.9624061386
 30
0.0
 10
106.4054977991
 20
102.0678483311
 30
0.0
  0
SPLINE
  5
296
100
AcDbEntity
  8
0
100
AcDbSpline
 62
7
  6
CONTINUOUS
 70
0
 71
3
 72
11
 73
7
 74
0
 42
0.0000001
 43
0.0000001
 44
0.0000000001
 40
0.0
 40
0.0
 40
0.0
 40
0.0
 40
0.2896433527
 40
0.5491132405
 40
0.7822372579
 40
1.0
 40
1.0
 40
1.0
 40
1.0
 10
125.1767980622
 20
111.3069849864
 30
0.0
 10
125.0553396666
 20
111.3771074374
 30
0.0
 10
124.8349560113
 20
111.5289579941
 30
0.0
 10
124.57149914
 20
111.8057405831
 30
0.0
 10
124.4047905034
 20
112.1120096326
 30
0.0
 10
124.3659776251
 20
112.3318076469
 30
0.0
 10
124.3659352644
 20
112.4372498394
 30
0.0
  0
SPLINE
  5
297
100
AcDbEntity
  8
0
100
AcDbSpline
 62
7
  6
CONTINUOUS
 70
0
 71
3
 72
11
 73
7
 74
0
 42
0.0000001
 43
0.0000001
 44
0.0000000001
 40
0.0
 40
0.0
 40
0.0
 40
0.0
 40
0.2896433527
 40
0.5491132405
 40
0.7822372579
 40
1.0
 40
1.0
 40
1.0
 40
1.0
 10
24.0588427003
 20
148.9475126911
 30
0.0
 10
23.9373843046
 20
149.0176351422
 30
0.0
 10
23.7170006494
 20
149.1694856989
 30
0.0
 10
23.4535437781
 20
149.4462682879
 30
0.0
 10
23.2868351414
 20
149.7525373373
 30
0.0
 10
23.2480222631
 20
149.9723353517
 30
0.0
 10
23.2479799024
 20
150.0777775442
 30
0.0
  0
SPLINE
  5
298
100
AcDbEntity
  8
0
100
AcDbSpline
 62
7
  6
CONTINUOUS
 70
0
 71
3
 72
11
 73
7
 74
0
 42
0.0000001
 43
0.0000001
 44
0.0000000001
 40
0.0
 40
0.0
 40
0.0
 40
0.0
 40
0.2896433527
 40
0.5491132405
 40
0.7822372579
 40
1.0
 40
1.0
 40
1.0
 40
1.0
 10
42.0192801655
 20
159.3169141995
 30
0.0
 10
41.8978217699
 20
159.3870366505
 30
0.0
 10
41.6774381146
 20
159.5388872072
 30
0.0
 10
41.4139812433
 20
159.8156697962
 30
0.0
 10
41.2472726067
 20
160.1219388457
 30
0.0
 10
41.2084597283
 20
160.34173686
 30
0.0
 10
41.2084173676
 20
160.4471790525
 30
0.0
  0
SPLINE
  5
299
100
AcDbEntity
  8
0
100
AcDbSpline
 62
7
  6
CONTINUOUS
 70
0
 71
3
 72
11
 73
7
 74
0
 42
0.0000001
 43
0.0000001
 44
0.0000000001
 40
0.0
 40
0.0
 40
0.0
 40
0.0
 40
0.2897947154
 40
0.5490638454
 40
0.7822412704
 40
1.0
 40
1.0
 40
1.0
 40
1.0
 10
19.3206563699
 20
152.2572969466
 30
0.0
 10
19.0976807561
 20
152.1285626844
 30
0.0
 10
18.6932136477
 20
151.850123279
 30
0.0
 10
18.2100144829
 20
151.3420350175
 30
0.0
 10
17.9042326265
 20
150.7802331884
 30
0.0
 10
17.8327778986
 20
150.3769027813
 30
0.0
 10
17.8327710579
 20
150.1834338643
 30
0.0
  0
SPLINE
  5
29A
100
AcDbEntity
  8
0
100
AcDbSpline
 62
7
  6
CONTINUOUS
 70
0
 71
3
 72
11
 73
7
 74
0
 42
0.0000001
 43
0.0000001
 44
0.0000000001
 40
0.0
 40
0.0
 40
0.0
 40
0.0
 40
0.2612436208
 40
0.5224562168
 40
0.7720156147
 40
1.0
 40
1.0
 40
1.0
 40
1.0
 10
45.1087173549
 20
165.0720717231
 30
0.0
 10
44.6743290844
 20
165.1392697427
 30
0.0
 10
43.7937037084
 20
165.2047540804
 30
0.0
 10
42.4935723241
 20
165.1079562878
 30
0.0
 10
41.2781163103
 20
164.8247482765
 30
0.0
 10
40.5340230341
 20
164.504766793
 30
0.0
 10
40.2018196314
 20
164.312970214
 30
0.0
  0
SPLINE
  5
29B
100
AcDbEntity
  8
0
100
AcDbSpline
 62
7
  6
CONTINUOUS
 70
0
 71
3
 72
13
 73
9
 74
0
 42
0.0000001
 43
0.0000001
 44
0.0000000001
 40
0.0
 40
0.0
 40
0.0
 40
0.0
 40
0.0991178367
 40
0.2019501014
 40
0.3115901036
 40
0.4300926548
 40
0.6963706726
 40
1.0
 40
1.0
 40
1.0
 40
1.0
 10
79.5869718074
 20
85.7771959951
 30
0.0
 10
79.6803108235
 20
85.8310943839
 30
0.0
 10
79.8849150298
 20
85.9176088679
 30
0.0
 10
80.2218899199
 20
85.9732867021
 30
0.0
 10
80.5837518186
 20
85.9559011593
 30
0.0
 10
81.1096335218
 20
85.8329623589
 30
0.0
 10
81.787056685
 20
85.4918844752
 30
0.0
 10
82.2684427666
 20
85.095011386
 30
0.0
 10
82.5042607781
 20
84.8639168273
 30
0.0
  0
SPLINE
  5
29C
100
AcDbEntity
  8
0
100
AcDbSpline
 62
7
  6
CONTINUOUS
 70
0
 71
3
 72
11
 73
7
 74
0
 42
0.0000001
 43
0.0000001
 44
0.0000000001
 40
0.0
 40
0.0
 40
0.0
 40
0.0
 40
0.2177456293
 40
0.4508837761
 40
0.7104602915
 40
1.0
 40
1.0
 40
1.0
 40
1.0
 10
64.7782589127
 20
65.0527618362
 30
0.0
 10
64.8201423811
 20
65.0285809588
 30
0.0
 10
64.9163445596
 20
64.9935461063
 30
0.0
 10
65.076275514
 20
64.9895300117
 30
0.0
 10
65.2466363633
 20
65.0307665977
 30
0.0
 10
65.3575197637
 20
65.0834466196
 30
0.0
 10
65.413212619
 20
65.1156007125
 30
0.0
  0
SPLINE
  5
29D
100
AcDbEntity
  8
0
100
AcDbSpline
 62
7
  6
CONTINUOUS
 70
0
 71
3
 72
11
 73
7
 74
0
 42
0.0000001
 43
0.0000001
 44
0.0000000001
 40
0.0
 40
0.0
 40
0.0
 40
0.0
 40
0.2279843853
 40
0.4775437832
 40
0.7387563792
 40
1.0
 40
1.0
 40
1.0
 40
1.0
 10
115.7690086605
 20
88.6931931814
 30
0.0
 10
115.4368052578
 20
88.5013966023
 30
0.0
 10
114.6927119816
 20
88.1814151189
 30
0.0
 10
113.4772559677
 20
87.8982071075
 30
0.0
 10
112.1771245835
 20
87.8014093149
 30
0.0
 10
111.2964992075
 20
87.8668936527
 30
0.0
 10
110.862110937
 20
87.9340916722
 30
0.0
  0
SPLINE
  5
29E
100
AcDbEntity
  8
0
100
AcDbSpline
 62
7
  6
CONTINUOUS
 70
0
 71
3
 72
11
 73
7
 74
0
 42
0.0000001
 43
0.0000001
 44
0.0000000001
 40
0.0
 40
0.0
 40
0.0
 40
0.0
 40
0.2177442244
 40
0.4508817657
 40
0.7104588049
 40
1.0
 40
1.0
 40
1.0
 40
1.0
 10
61.1861415098
 20
67.1266248687
 30
0.0
 10
61.1442566653
 20
67.1508065703
 30
0.0
 10
61.0658107402
 20
67.2166040043
 30
0.0
 10
60.9823634724
 20
67.3531050898
 30
0.0
 10
60.9328929468
 20
67.5212672117
 30
0.0
 10
60.9230733308
 20
67.6436403945
 30
0.0
 10
60.9230733307
 20
67.7079517463
 30
0.0
  0
SPLINE
  5
29F
100
AcDbEntity
  8
0
100
AcDbSpline
 62
7
  6
CONTINUOUS
 70
0
 71
3
 72
11
 73
7
 74
0
 42
0.0000001
 43
0.0000001
 44
0.0000000001
 40
0.0
 40
0.0
 40
0.0
 40
0.0
 40
0.2372518718
 40
0.4999985497
 40
0.7627460178
 40
1.0
 40
1.0
 40
1.0
 40
1.0
 10
137.2551419216
 20
81.706746725
 30
0.0
 10
137.3826422606
 20
81.780358641
 30
0.0
 10
137.6239251622
 20
81.9834023179
 30
0.0
 10
137.9054273275
 20
82.3682528583
 30
0.0
 10
138.0979647338
 20
82.8044684132
 30
0.0
 10
138.1531638059
 20
83.1149490896
 30
0.0
 10
138.1531638061
 20
83.2621748898
 30
0.0
  0
SPLINE
  5
2A0
100
AcDbEntity
  8
0
100
AcDbSpline
 62
7
  6
CONTINUOUS
 70
0
 71
3
 72
13
 73
9
 74
0
 42
0.0000001
 43
0.0000001
 44
0.0000000001
 40
0.0
 40
0.0
 40
0.0
 40
0.0
 40
0.0991178367
 40
0.2019501014
 40
0.3115901036
 40
0.4300926548
 40
0.6963706726
 40
1.0
 40
1.0
 40
1.0
 40
1.0
 10
58.0342673849
 20
98.2203741929
 30
0.0
 10
58.127606401
 20
98.2742725817
 30
0.0
 10
58.3322106073
 20
98.3607870657
 30
0.0
 10
58.6691854974
 20
98.4164648999
 30
0.0
 10
59.0310473961
 20
98.3990793571
 30
0.0
 10
59.5569290993
 20
98.2761405567
 30
0.0
 10
60.2343522625
 20
97.935062673
 30
0.0
 10
60.7157383441
 20
97.5381895837
 30
0.0
 10
60.9515563556
 20
97.3070950251
 30
0.0
  0
SPLINE
  5
2A1
100
AcDbEntity
  8
0
100
AcDbSpline
 62
7
  6
CONTINUOUS
 70
0
 71
3
 72
11
 73
7
 74
0
 42
0.0000001
 43
0.0000001
 44
0.0000000001
 40
0.0
 40
0.0
 40
0.0
 40
0.0
 40
0.2177456293
 40
0.4508837761
 40
0.7104602915
 40
1.0
 40
1.0
 40
1.0
 40
1.0
 10
43.2255544902
 20
77.495940034
 30
0.0
 10
43.2674379586
 20
77.4717591566
 30
0.0
 10
43.3636401371
 20
77.4367243041
 30
0.0
 10
43.5235710915
 20
77.4327082095
 30
0.0
 10
43.6939319408
 20
77.4739447954
 30
0.0
 10
43.8048153412
 20
77.5266248173
 30
0.0
 10
43.8605081966
 20
77.5587789103
 30
0.0
  0
SPLINE
  5
2A2
100
AcDbEntity
  8
0
100
AcDbSpline
 62
7
  6
CONTINUOUS
 70
0
 71
3
 72
11
 73
7
 74
0
 42
0.0000001
 43
0.0000001
 44
0.0000000001
 40
0.0
 40
0.0
 40
0.0
 40
0.0
 40
0.2177442244
 40
0.4508817657
 40
0.7104588049
 40
1.0
 40
1.0
 40
1.0
 40
1.0
 10
39.6334370873
 20
79.5698030665
 30
0.0
 10
39.5915522428
 20
79.5939847681
 30
0.0
 10
39.5131063177
 20
79.6597822021
 30
0.0
 10
39.4296590499
 20
79.7962832875
 30
0.0
 10
39.3801885244
 20
79.9644454095
 30
0.0
 10
39.3703689084
 20
80.0868185923
 30
0.0
 10
39.3703689082
 20
80.1511299441
 30
0.0
  0
SPLINE
  5
2A3
100
AcDbEntity
  8
0
100
AcDbSpline
 62
7
  6
CONTINUOUS
 70
0
 71
3
 72
11
 73
7
 74
0
 42
0.0000001
 43
0.0000001
 44
0.0000000001
 40
0.0
 40
0.0
 40
0.0
 40
0.0
 40
0.2177587296
 40
0.4509361546
 40
0.7102052846
 40
1.0
 40
1.0
 40
1.0
 40
1.0
 10
138.138057234
 20
102.822729531
 30
0.0
 10
138.1380503933
 20
102.629260614
 30
0.0
 10
138.0665956654
 20
102.2259302069
 30
0.0
 10
137.760813809
 20
101.6641283779
 30
0.0
 10
137.2776146442
 20
101.1560401163
 30
0.0
 10
136.8731475358
 20
100.8776007109
 30
0.0
 10
136.650171922
 20
100.7488664488
 30
0.0
  0
SPLINE
  5
2A4
100
AcDbEntity
  8
0
100
AcDbSpline
 62
7
  6
CONTINUOUS
 70
0
 71
3
 72
17
 73
13
 74
0
 42
0.0000001
 43
0.0000001
 44
0.0000000001
 40
0.0
 40
0.0
 40
0.0
 40
0.0
 40
0.0428571277
 40
0.087483909
 40
0.1353159407
 40
0.187279013
 40
0.3045397097
 40
0.4382076182
 40
0.5825507004
 40
0.7297102646
 40
0.8713099941
 40
1.0
 40
1.0
 40
1.0
 40
1.0
 10
132.7228483895
 20
110.8092671812
 30
0.0
 10
132.7228800507
 20
110.7304574985
 30
0.0
 10
132.7017781511
 20
110.5688971723
 30
0.0
 10
132.6091500189
 20
110.3356164658
 30
0.0
 10
132.4587731816
 20
110.1144688543
 30
0.0
 10
132.1757630321
 20
109.830383364
 30
0.0
 10
131.6934636669
 20
109.5368012523
 30
0.0
 10
131.0000120396
 20
109.3051564105
 30
0.0
 10
130.2217900177
 20
109.1957896332
 30
0.0
 10
129.4218814419
 20
109.2179155604
 30
0.0
 10
128.6655949236
 20
109.3692244635
 30
0.0
 10
128.2015538719
 20
109.5606809121
 30
0.0
 10
127.9966102242
 20
109.6790025055
 30
0.0
  0
SPLINE
  5
2A5
100
AcDbEntity
  8
0
100
AcDbSpline
 62
7
  6
CONTINUOUS
 70
0
 71
3
 72
17
 73
13
 74
0
 42
0.0000001
 43
0.0000001
 44
0.0000000001
 40
0.0
 40
0.0
 40
0.0
 40
0.0
 40
0.0428571277
 40
0.087483909
 40
0.1353159407
 40
0.187279013
 40
0.3045397097
 40
0.4382076182
 40
0.5825507004
 40
0.7297102646
 40
0.8713099941
 40
1.0
 40
1.0
 40
1.0
 40
1.0
 10
114.7624109242
 20
100.4398656729
 30
0.0
 10
114.7624425855
 20
100.3610559902
 30
0.0
 10
114.7413406859
 20
100.199495664
 30
0.0
 10
114.6487125537
 20
99.9662149575
 30
0.0
 10
114.4983357163
 20
99.7450673459
 30
0.0
 10
114.2153255668
 20
99.4609818556
 30
0.0
 10
113.7330262017
 20
99.167399744
 30
0.0
 10
113.0395745744
 20
98.9357549022
 30
0.0
 10
112.2613525524
 20
98.8263881248
 30
0.0
 10
111.4614439767
 20
98.848514052
 30
0.0
 10
110.7051574584
 20
98.9998229551
 30
0.0
 10
110.2411164066
 20
99.1912794038
 30
0.0
 10
110.036172759
 20
99.3096009972
 30
0.0
  0
SPLINE
  5
2A6
100
AcDbEntity
  8
0
100
AcDbSpline
 62
7
  6
CONTINUOUS
 70
0
 71
3
 72
17
 73
13
 74
0
 42
0.0000001
 43
0.0000001
 44
0.0000000001
 40
0.0
 40
0.0
 40
0.0
 40
0.0
 40
0.0428584554
 40
0.0874839031
 40
0.1353177481
 40
0.1872794187
 40
0.3045395902
 40
0.4382053041
 40
0.582547581
 40
0.729712444
 40
0.8713059798
 40
1.0
 40
1.0
 40
1.0
 40
1.0
 10
125.1747349997
 20
105.1423933541
 30
0.0
 10
125.1747422436
 20
105.046589553
 30
0.0
 10
125.1490620049
 20
104.8502077443
 30
0.0
 10
125.0364935926
 20
104.5666177445
 30
0.0
 10
124.853698273
 20
104.2977881744
 30
0.0
 10
124.5096525429
 20
103.9524750717
 30
0.0
 10
123.92337993
 20
103.5956054341
 30
0.0
 10
123.0804282774
 20
103.3140255962
 30
0.0
 10
122.1344203804
 20
103.1810621847
 30
0.0
 10
121.1620590659
 20
103.2079760696
 30
0.0
 10
120.242704871
 20
103.3918683533
 30
0.0
 10
119.678625193
 20
103.6246117823
 30
0.0
 10
119.4294885075
 20
103.7684476607
 30
0.0
  0
SPLINE
  5
2A7
100
AcDbEntity
  8
0
100
AcDbSpline
 62
7
  6
CONTINUOUS
 70
0
 71
3
 72
15
 73
11
 74
0
 42
0.0000001
 43
0.0000001
 44
0.0000000001
 40
0.0
 40
0.0
 40
0.0
 40
0.0
 40
0.1004174982
 40
0.2146025508
 40
0.3408214913
 40
0.4754219348
 40
0.6136665244
 40
0.7503689749
 40
0.8805610655
 40
1.0
 40
1.0
 40
1.0
 40
1.0
 10
60.952104013
 20
91.1675940806
 30
0.0
 10
60.7265114732
 20
91.2069430269
 30
0.0
 10
60.2572090004
 20
91.3678556711
 30
0.0
 10
59.5926469692
 20
91.7792593894
 30
0.0
 10
58.952989473
 20
92.3527240437
 30
0.0
 10
58.3723997195
 20
93.057490121
 30
0.0
 10
57.8817876689
 20
93.8555697589
 30
0.0
 10
57.5077368628
 20
94.7037209407
 30
0.0
 10
57.2708094197
 20
95.5554695127
 30
0.0
 10
57.2096546655
 20
96.1253578481
 30
0.0
 10
57.2096546655
 20
96.3977341045
 30
0.0
  0
SPLINE
  5
2A8
100
AcDbEntity
  8
0
100
AcDbSpline
 62
7
  6
CONTINUOUS
 70
0
 71
3
 72
11
 73
7
 74
0
 42
0.0000001
 43
0.0000001
 44
0.0000000001
 40
0.0
 40
0.0
 40
0.0
 40
0.0
 40
0.2897947154
 40
0.5490638454
 40
0.7822412704
 40
1.0
 40
1.0
 40
1.0
 40
1.0
 10
136.650171922
 20
108.6297477789
 30
0.0
 10
136.8731475358
 20
108.7584820411
 30
0.0
 10
137.2776146442
 20
109.0369214465
 30
0.0
 10
137.760813809
 20
109.545009708
 30
0.0
 10
138.0665956654
 20
110.106811537
 30
0.0
 10
138.1380503933
 20
110.5101419441
 30
0.0
 10
138.138057234
 20
110.7036108612
 30
0.0
  0
SPLINE
  5
2A9
100
AcDbEntity
  8
0
100
AcDbSpline
 62
7
  6
CONTINUOUS
 70
0
 71
3
 72
17
 73
13
 74
0
 42
0.0000001
 43
0.0000001
 44
0.0000000001
 40
0.0
 40
0.0
 40
0.0
 40
0.0
 40
0.0428571277
 40
0.087483909
 40
0.1353159407
 40
0.187279013
 40
0.3045397097
 40
0.4382076182
 40
0.5825507004
 40
0.7297102646
 40
0.8713099941
 40
1.0
 40
1.0
 40
1.0
 40
1.0
 10
124.3659352644
 20
112.4372498394
 30
0.0
 10
124.3659036031
 20
112.5160595222
 30
0.0
 10
124.3870055028
 20
112.6776198484
 30
0.0
 10
124.4796336349
 20
112.9109005549
 30
0.0
 10
124.6300104723
 20
113.1320481664
 30
0.0
 10
124.9130206218
 20
113.4161336567
 30
0.0
 10
125.3953199869
 20
113.7097157684
 30
0.0
 10
126.0887716143
 20
113.9413606102
 30
0.0
 10
126.8669936362
 20
114.0507273875
 30
0.0
 10
127.6669022119
 20
114.0286014603
 30
0.0
 10
128.4231887302
 20
113.8772925572
 30
0.0
 10
128.887229782
 20
113.6858361086
 30
0.0
 10
129.0921734297
 20
113.5675145152
 30
0.0
  0
SPLINE
  5
2AA
100
AcDbEntity
  8
0
100
AcDbSpline
 62
7
  6
CONTINUOUS
 70
0
 71
3
 72
11
 73
7
 74
0
 42
0.0000001
 43
0.0000001
 44
0.0000000001
 40
0.0
 40
0.0
 40
0.0
 40
0.0
 40
0.2895411593
 40
0.5491183968
 40
0.7822559146
 40
1.0
 40
1.0
 40
1.0
 40
1.0
 10
86.0678951569
 20
53.1909105156
 30
0.0
 10
86.0678951571
 20
53.1265991727
 30
0.0
 10
86.0777148497
 20
53.0042259685
 30
0.0
 10
86.1271852969
 20
52.8360637883
 30
0.0
 10
86.2106326341
 20
52.6995627417
 30
0.0
 10
86.2890785052
 20
52.6337653019
 30
0.0
 10
86.3309633352
 20
52.6095836384
 30
0.0
  0
SPLINE
  5
2AB
100
AcDbEntity
  8
0
100
AcDbSpline
 62
7
  6
CONTINUOUS
 70
0
 71
3
 72
11
 73
7
 74
0
 42
0.0000001
 43
0.0000001
 44
0.0000000001
 40
0.0
 40
0.0
 40
0.0
 40
0.0
 40
0.2897016594
 40
0.5490895814
 40
0.7822189142
 40
1.0
 40
1.0
 40
1.0
 40
1.0
 10
35.656950243
 20
108.8409123022
 30
0.0
 10
35.656950243
 20
109.0426442753
 30
0.0
 10
35.6875355624
 20
109.4262977022
 30
0.0
 10
35.8429024696
 20
109.953421292
 30
0.0
 10
36.1045078013
 20
110.3811519048
 30
0.0
 10
36.3502352911
 20
110.5877175449
 30
0.0
 10
36.4815629624
 20
110.6635523907
 30
0.0
  0
SPLINE
  5
2AC
100
AcDbEntity
  8
0
100
AcDbSpline
 62
7
  6
CONTINUOUS
 70
0
 71
3
 72
17
 73
13
 74
0
 42
0.0000001
 43
0.0000001
 44
0.0000000001
 40
0.0
 40
0.0
 40
0.0
 40
0.0
 40
0.0428571277
 40
0.087483909
 40
0.1353159407
 40
0.187279013
 40
0.3045397097
 40
0.4382076182
 40
0.5825507004
 40
0.7297102646
 40
0.8713099941
 40
1.0
 40
1.0
 40
1.0
 40
1.0
 10
106.4054977991
 20
102.0678483311
 30
0.0
 10
106.4054661379
 20
102.1466580139
 30
0.0
 10
106.4265680375
 20
102.30821834
 30
0.0
 10
106.5191961697
 20
102.5414990465
 30
0.0
 10
106.669573007
 20
102.7626466581
 30
0.0
 10
106.9525831565
 20
103.0467321484
 30
0.0
 10
107.4348825217
 20
103.34031426
 30
0.0
 10
108.128334149
 20
103.5719591018
 30
0.0
 10
108.9065561709
 20
103.6813258792
 30
0.0
 10
109.7064647467
 20
103.659199952
 30
0.0
 10
110.462751265
 20
103.5078910489
 30
0.0
 10
110.9267923167
 20
103.3164346002
 30
0.0
 10
111.1317359644
 20
103.1981130069
 30
0.0
  0
SPLINE
  5
2AD
100
AcDbEntity
  8
0
100
AcDbSpline
 62
7
  6
CONTINUOUS
 70
0
 71
3
 72
11
 73
7
 74
0
 42
0.0000001
 43
0.0000001
 44
0.0000000001
 40
0.0
 40
0.0
 40
0.0
 40
0.0
 40
0.2612436208
 40
0.5224562168
 40
0.7720156147
 40
1.0
 40
1.0
 40
1.0
 40
1.0
 10
110.862110937
 20
95.8149730023
 30
0.0
 10
111.2964992075
 20
95.7477749828
 30
0.0
 10
112.1771245835
 20
95.682290645
 30
0.0
 10
113.4772559677
 20
95.7790884376
 30
0.0
 10
114.6927119816
 20
96.062296449
 30
0.0
 10
115.4368052578
 20
96.3822779324
 30
0.0
 10
115.7690086605
 20
96.5740745115
 30
0.0
  0
SPLINE
  5
2AE
100
AcDbEntity
  8
0
100
AcDbSpline
 62
7
  6
CONTINUOUS
 70
0
 71
3
 72
17
 73
13
 74
0
 42
0.0000001
 43
0.0000001
 44
0.0000000001
 40
0.0
 40
0.0
 40
0.0
 40
0.0
 40
0.0428584554
 40
0.0874839031
 40
0.1353177481
 40
0.1872794187
 40
0.3045395902
 40
0.4382053041
 40
0.582547581
 40
0.729712444
 40
0.8713059798
 40
1.0
 40
1.0
 40
1.0
 40
1.0
 10
116.4680933715
 20
106.2830180352
 30
0.0
 10
116.4680861276
 20
106.3788218363
 30
0.0
 10
116.4937663664
 20
106.575203645
 30
0.0
 10
116.6063347787
 20
106.8587936448
 30
0.0
 10
116.7891300983
 20
107.1276232149
 30
0.0
 10
117.1331758283
 20
107.4729363175
 30
0.0
 10
117.7194484412
 20
107.8298059552
 30
0.0
 10
118.5624000938
 20
108.1113857931
 30
0.0
 10
119.5084079909
 20
108.2443492046
 30
0.0
 10
120.4807693053
 20
108.2174353197
 30
0.0
 10
121.4001235002
 20
108.033543036
 30
0.0
 10
121.9642031783
 20
107.800799607
 30
0.0
 10
122.2133398637
 20
107.6569637286
 30
0.0
  0
SPLINE
  5
2AF
100
AcDbEntity
  8
0
100
AcDbSpline
 62
7
  6
CONTINUOUS
 70
0
 71
3
 72
11
 73
7
 74
0
 42
0.0000001
 43
0.0000001
 44
0.0000000001
 40
0.0
 40
0.0
 40
0.0
 40
0.0
 40
0.2895411593
 40
0.5491183968
 40
0.7822559146
 40
1.0
 40
1.0
 40
1.0
 40
1.0
 10
21.4097818895
 20
90.5204451089
 30
0.0
 10
21.4097818896
 20
90.4561337661
 30
0.0
 10
21.4196015823
 20
90.3337605618
 30
0.0
 10
21.4690720294
 20
90.1655983817
 30
0.0
 10
21.5525193667
 20
90.029097335
 30
0.0
 10
21.6309652378
 20
89.9632998953
 30
0.0
 10
21.6728500677
 20
89.9391182318
 30
0.0
  0
SPLINE
  5
2B0
100
AcDbEntity
  8
0
100
AcDbSpline
 62
7
  6
CONTINUOUS
 70
0
 71
3
 72
17
 73
13
 74
0
 42
0.0000001
 43
0.0000001
 44
0.0000000001
 40
0.0
 40
0.0
 40
0.0
 40
0.0
 40
0.0428584554
 40
0.0874839031
 40
0.1353177481
 40
0.1872794187
 40
0.3045395902
 40
0.4382053041
 40
0.582547581
 40
0.729712444
 40
0.8713059798
 40
1.0
 40
1.0
 40
1.0
 40
1.0
 10
30.7960932922
 20
155.7446513713
 30
0.0
 10
30.7960860483
 20
155.8404551725
 30
0.0
 10
30.821766287
 20
156.0368369812
 30
0.0
 10
30.9343346993
 20
156.320426981
 30
0.0
 10
31.1171300189
 20
156.589256551
 30
0.0
 10
31.4611757489
 20
156.9345696537
 30
0.0
 10
32.0474483619
 20
157.2914392914
 30
0.0
 10
32.8904000144
 20
157.5730191292
 30
0.0
 10
33.8364079115
 20
157.7059825408
 30
0.0
 10
34.8087692259
 20
157.6790686559
 30
0.0
 10
35.7281234208
 20
157.4951763722
 30
0.0
 10
36.2922030989
 20
157.2624329431
 30
0.0
 10
36.5413397844
 20
157.1185970647
 30
0.0
  0
SPLINE
  5
2B1
100
AcDbEntity
  8
0
100
AcDbSpline
 62
7
  6
CONTINUOUS
 70
0
 71
3
 72
11
 73
7
 74
0
 42
0.0000001
 43
0.0000001
 44
0.0000000001
 40
0.0
 40
0.0
 40
0.0
 40
0.0
 40
0.2895411593
 40
0.5491183968
 40
0.7822559146
 40
1.0
 40
1.0
 40
1.0
 40
1.0
 10
42.962486312
 20
78.0772669112
 30
0.0
 10
42.9624863121
 20
78.0129555683
 30
0.0
 10
42.9723060048
 20
77.890582364
 30
0.0
 10
43.0217764519
 20
77.7224201839
 30
0.0
 10
43.1052237892
 20
77.5859191372
 30
0.0
 10
43.1836696602
 20
77.5201216975
 30
0.0
 10
43.2255544902
 20
77.495940034
 30
0.0
  0
SPLINE
  5
2B2
100
AcDbEntity
  8
0
100
AcDbSpline
 62
7
  6
CONTINUOUS
 70
0
 71
3
 72
11
 73
7
 74
0
 42
0.0000001
 43
0.0000001
 44
0.0000000001
 40
0.0
 40
0.0
 40
0.0
 40
0.0
 40
0.2897036169
 40
0.5490920547
 40
0.7822205729
 40
1.0
 40
1.0
 40
1.0
 40
1.0
 10
124.1890044358
 20
106.5163390604
 30
0.0
 10
124.3366801482
 20
106.431080377
 30
0.0
 10
124.6046027226
 20
106.2465467538
 30
0.0
 10
124.9248140467
 20
105.9100344923
 30
0.0
 10
125.127365274
 20
105.5377596773
 30
0.0
 10
125.1747253074
 20
105.2705788592
 30
0.0
 10
125.1747349997
 20
105.1423933541
 30
0.0
  0
SPLINE
  5
2B3
100
AcDbEntity
  8
0
100
AcDbSpline
 62
7
  6
CONTINUOUS
 70
0
 71
3
 72
11
 73
7
 74
0
 42
0.0000001
 43
0.0000001
 44
0.0000000001
 40
0.0
 40
0.0
 40
0.0
 40
0.0
 40
0.2897036169
 40
0.5490920547
 40
0.7822205729
 40
1.0
 40
1.0
 40
1.0
 40
1.0
 10
38.5170043564
 20
155.9779723966
 30
0.0
 10
38.6646800688
 20
155.8927137131
 30
0.0
 10
38.9326026432
 20
155.70818009
 30
0.0
 10
39.2528139673
 20
155.3716678284
 30
0.0
 10
39.4553651946
 20
154.9993930135
 30
0.0
 10
39.502725228
 20
154.7322121954
 30
0.0
 10
39.5027349203
 20
154.6040266903
 30
0.0
  0
SPLINE
  5
2B4
100
AcDbEntity
  8
0
100
AcDbSpline
 62
7
  6
CONTINUOUS
 70
0
 71
3
 72
15
 73
11
 74
0
 42
0.0000001
 43
0.0000001
 44
0.0000000001
 40
0.0
 40
0.0
 40
0.0
 40
0.0
 40
0.1004174982
 40
0.2146025508
 40
0.3408214913
 40
0.4754219348
 40
0.6136665244
 40
0.7503689749
 40
0.8805610655
 40
1.0
 40
1.0
 40
1.0
 40
1.0
 10
82.5048084355
 20
78.7244158828
 30
0.0
 10
82.2792158957
 20
78.7637648291
 30
0.0
 10
81.8099134228
 20
78.9246774733
 30
0.0
 10
81.1453513917
 20
79.3360811917
 30
0.0
 10
80.5056938954
 20
79.9095458459
 30
0.0
 10
79.925104142
 20
80.6143119232
 30
0.0
 10
79.4344920913
 20
81.4123915612
 30
0.0
 10
79.0604412853
 20
82.2605427429
 30
0.0
 10
78.8235138421
 20
83.1122913149
 30
0.0
 10
78.762359088
 20
83.6821796503
 30
0.0
 10
78.762359088
 20
83.9545559067
 30
0.0
  0
SPLINE
  5
2B5
100
AcDbEntity
  8
0
100
AcDbSpline
 62
7
  6
CONTINUOUS
 70
0
 71
3
 72
11
 73
7
 74
0
 42
0.0000001
 43
0.0000001
 44
0.0000000001
 40
0.0
 40
0.0
 40
0.0
 40
0.0
 40
0.2896433527
 40
0.5491132405
 40
0.7822372579
 40
1.0
 40
1.0
 40
1.0
 40
1.0
 10
113.9515481264
 20
101.570130526
 30
0.0
 10
114.073006522
 20
101.5000080749
 30
0.0
 10
114.2933901773
 20
101.3481575182
 30
0.0
 10
114.5568470486
 20
101.0713749293
 30
0.0
 10
114.7235556852
 20
100.7651058798
 30
0.0
 10
114.7623685636
 20
100.5453078655
 30
0.0
 10
114.7624109242
 20
100.4398656729
 30
0.0
  0
SPLINE
  5
2B6
100
AcDbEntity
  8
0
100
AcDbSpline
 62
7
  6
CONTINUOUS
 70
0
 71
3
 72
11
 73
7
 74
0
 42
0.0000001
 43
0.0000001
 44
0.0000000001
 40
0.0
 40
0.0
 40
0.0
 40
0.0
 40
0.2896433527
 40
0.5491132405
 40
0.7822372579
 40
1.0
 40
1.0
 40
1.0
 40
1.0
 10
131.9119855916
 20
111.9395320343
 30
0.0
 10
132.0334439873
 20
111.8694095833
 30
0.0
 10
132.2538276425
 20
111.7175590266
 30
0.0
 10
132.5172845138
 20
111.4407764376
 30
0.0
 10
132.6839931505
 20
111.1345073881
 30
0.0
 10
132.7228060288
 20
110.9147093738
 30
0.0
 10
132.7228483895
 20
110.8092671812
 30
0.0
  0
SPLINE
  5
2B7
100
AcDbEntity
  8
0
100
AcDbSpline
 62
7
  6
CONTINUOUS
 70
0
 71
3
 72
11
 73
7
 74
0
 42
0.0000001
 43
0.0000001
 44
0.0000000001
 40
0.0
 40
0.0
 40
0.0
 40
0.0
 40
0.2897016594
 40
0.5490895814
 40
0.7822189142
 40
1.0
 40
1.0
 40
1.0
 40
1.0
 10
57.2096546655
 20
96.3977341045
 30
0.0
 10
57.2096546655
 20
96.5994660775
 30
0.0
 10
57.2402399849
 20
96.9831195044
 30
0.0
 10
57.3956068921
 20
97.5102430942
 30
0.0
 10
57.6572122238
 20
97.937973707
 30
0.0
 10
57.9029397135
 20
98.1445393472
 30
0.0
 10
58.0342673849
 20
98.2203741929
 30
0.0
  0
SPLINE
  5
2B8
100
AcDbEntity
  8
0
100
AcDbSpline
 62
7
  6
CONTINUOUS
 70
0
 71
3
 72
17
 73
13
 74
0
 42
0.0000001
 43
0.0000001
 44
0.0000000001
 40
0.0
 40
0.0
 40
0.0
 40
0.0
 40
0.0428571277
 40
0.087483909
 40
0.1353159407
 40
0.187279013
 40
0.3045397097
 40
0.4382076182
 40
0.5825507004
 40
0.7297102646
 40
0.8713099941
 40
1.0
 40
1.0
 40
1.0
 40
1.0
 10
41.2084173676
 20
160.4471790525
 30
0.0
 10
41.2083857064
 20
160.5259887353
 30
0.0
 10
41.229487606
 20
160.6875490615
 30
0.0
 10
41.3221157382
 20
160.920829768
 30
0.0
 10
41.4724925755
 20
161.1419773795
 30
0.0
 10
41.755502725
 20
161.4260628698
 30
0.0
 10
42.2378020902
 20
161.7196449815
 30
0.0
 10
42.9312537175
 20
161.9512898233
 30
0.0
 10
43.7094757394
 20
162.0606566006
 30
0.0
 10
44.5093843152
 20
162.0385306734
 30
0.0
 10
45.2656708335
 20
161.8872217703
 30
0.0
 10
45.7297118852
 20
161.6957653217
 30
0.0
 10
45.9346555329
 20
161.5774437283
 30
0.0
  0
SPLINE
  5
2B9
100
AcDbEntity
  8
0
100
AcDbSpline
 62
7
  6
CONTINUOUS
 70
0
 71
3
 72
11
 73
7
 74
0
 42
0.0000001
 43
0.0000001
 44
0.0000000001
 40
0.0
 40
0.0
 40
0.0
 40
0.0
 40
0.2896433527
 40
0.5491132405
 40
0.7822372579
 40
1.0
 40
1.0
 40
1.0
 40
1.0
 10
30.7940302296
 20
149.5800597391
 30
0.0
 10
30.9154886253
 20
149.509937288
 30
0.0
 10
31.1358722805
 20
149.3580867313
 30
0.0
 10
31.3993291518
 20
149.0813041424
 30
0.0
 10
31.5660377885
 20
148.7750350929
 30
0.0
 10
31.6048506668
 20
148.5552370785
 30
0.0
 10
31.6048930275
 20
148.449794886
 30
0.0
  0
SPLINE
  5
2BA
100
AcDbEntity
  8
0
100
AcDbSpline
 62
7
  6
CONTINUOUS
 70
0
 71
3
 72
15
 73
11
 74
0
 42
0.0000001
 43
0.0000001
 44
0.0000000001
 40
0.0
 40
0.0
 40
0.0
 40
0.0
 40
0.1004174982
 40
0.2146025508
 40
0.3408214913
 40
0.4754219348
 40
0.6136665244
 40
0.7503689749
 40
0.8805610655
 40
1.0
 40
1.0
 40
1.0
 40
1.0
 10
39.3993995905
 20
103.6107722783
 30
0.0
 10
39.1738070507
 20
103.6501212246
 30
0.0
 10
38.7045045779
 20
103.8110338688
 30
0.0
 10
38.0399425467
 20
104.2224375872
 30
0.0
 10
37.4002850505
 20
104.7959022415
 30
0.0
 10
36.819695297
 20
105.5006683187
 30
0.0
 10
36.3290832464
 20
106.2987479567
 30
0.0
 10
35.9550324403
 20
107.1468991385
 30
0.0
 10
35.7181049972
 20
107.9986477104
 30
0.0
 10
35.656950243
 20
108.5685360459
 30
0.0
 10
35.656950243
 20
108.8409123022
 30
0.0
  0
SPLINE
  5
2BB
100
AcDbEntity
  8
0
100
AcDbSpline
 62
7
  6
CONTINUOUS
 70
0
 71
3
 72
11
 73
7
 74
0
 42
0.0000001
 43
0.0000001
 44
0.0000000001
 40
0.0
 40
0.0
 40
0.0
 40
0.0
 40
0.2896433527
 40
0.5491132405
 40
0.7822372579
 40
1.0
 40
1.0
 40
1.0
 40
1.0
 10
48.7544676949
 20
159.9494612474
 30
0.0
 10
48.8759260905
 20
159.8793387964
 30
0.0
 10
49.0963097458
 20
159.7274882397
 30
0.0
 10
49.3597666171
 20
159.4507056507
 30
0.0
 10
49.5264752537
 20
159.1444366012
 30
0.0
 10
49.5652881321
 20
158.9246385869
 30
0.0
 10
49.5653304927
 20
158.8191963943
 30
0.0
  0
SPLINE
  5
2BC
100
AcDbEntity
  8
0
100
AcDbSpline
 62
7
  6
CONTINUOUS
 70
0
 71
3
 72
17
 73
13
 74
0
 42
0.0000001
 43
0.0000001
 44
0.0000000001
 40
0.0
 40
0.0
 40
0.0
 40
0.0
 40
0.0428571277
 40
0.087483909
 40
0.1353159407
 40
0.187279013
 40
0.3045397097
 40
0.4382076182
 40
0.5825507004
 40
0.7297102646
 40
0.8713099941
 40
1.0
 40
1.0
 40
1.0
 40
1.0
 10
23.2479799024
 20
150.0777775442
 30
0.0
 10
23.2479482412
 20
150.156587227
 30
0.0
 10
23.2690501408
 20
150.3181475531
 30
0.0
 10
23.3616782729
 20
150.5514282596
 30
0.0
 10
23.5120551103
 20
150.7725758712
 30
0.0
 10
23.7950652598
 20
151.0566613615
 30
0.0
 10
24.2773646249
 20
151.3502434731
 30
0.0
 10
24.9708162523
 20
151.5818883149
 30
0.0
 10
25.7490382742
 20
151.6912550923
 30
0.0
 10
26.54894685
 20
151.6691291651
 30
0.0
 10
27.3052333682
 20
151.517820262
 30
0.0
 10
27.76927442
 20
151.3263638133
 30
0.0
 10
27.9742180677
 20
151.20804222
 30
0.0
  0
SPLINE
  5
2BD
100
AcDbEntity
  8
0
100
AcDbSpline
 62
7
  6
CONTINUOUS
 70
0
 71
3
 72
11
 73
7
 74
0
 42
0.0000001
 43
0.0000001
 44
0.0000000001
 40
0.0
 40
0.0
 40
0.0
 40
0.0
 40
0.2895411593
 40
0.5491183968
 40
0.7822559146
 40
1.0
 40
1.0
 40
1.0
 40
1.0
 10
64.5151907345
 20
65.6340887134
 30
0.0
 10
64.5151907346
 20
65.5697773705
 30
0.0
 10
64.5250104273
 20
65.4474041662
 30
0.0
 10
64.5744808744
 20
65.2792419861
 30
0.0
 10
64.6579282116
 20
65.1427409395
 30
0.0
 10
64.7363740827
 20
65.0769434997
 30
0.0
 10
64.7782589127
 20
65.0527618362
 30
0.0
  0
SPLINE
  5
2BE
100
AcDbEntity
  8
0
100
AcDbSpline
 62
7
  6
CONTINUOUS
 70
0
 71
3
 72
11
 73
7
 74
0
 42
0.0000001
 43
0.0000001
 44
0.0000000001
 40
0.0
 40
0.0
 40
0.0
 40
0.0
 40
0.2897016594
 40
0.5490895814
 40
0.7822189142
 40
1.0
 40
1.0
 40
1.0
 40
1.0
 10
78.762359088
 20
83.9545559067
 30
0.0
 10
78.762359088
 20
84.1562878797
 30
0.0
 10
78.7929444073
 20
84.5399413067
 30
0.0
 10
78.9483113146
 20
85.0670648965
 30
0.0
 10
79.2099166462
 20
85.4947955092
 30
0.0
 10
79.455644136
 20
85.7013611494
 30
0.0
 10
79.5869718074
 20
85.7771959951
 30
0.0
  0
ENDSEC
  0
SECTION
  2
OBJECTS
  0
DICTIONARY
  5
C
100
AcDbDictionary
280
0
281
1
  3
ACAD_GROUP
350
D
  3
ACAD_MLINESTYLE
350
17
  3
ACAD_LAYOUT
350
1A
  3
ACAD_PLOTSETTINGS
350
19
  3
ACAD_PLOTSTYLENAME
350
E
  0
DICTIONARY
  5
D
102
{ACAD_REACTORS
330
C
102
}
100
AcDbDictionary
280
0
281
1
  0
ACDBDICTIONARYWDFLT
  5
E
102
{ACAD_REACTORS
330
C
102
}
100
AcDbDictionary
281
1
  3
Normal
350
F
100
AcDbDictionaryWithDefault
340
F
  0
DICTIONARY
  5
17
102
{ACAD_REACTORS
330
C
102
}
100
AcDbDictionary
280
0
281
1
  3
Standard
350
18
  0
DICTIONARY
  5
19
102
{ACAD_REACTORS
330
C
102
}
100
AcDbDictionary
281
1
  0
DICTIONARY
  5
1A
102
{ACAD_REACTORS
330
C
102
}
100
AcDbDictionary
281
1
  3
Model
350
2BF
  3
Layout1
350
2C0
  0
ACDBPLACEHOLDER
  5
F
102
{ACAD_REACTORS
330
E
102
}
  0
MLINESTYLE
  5
18
102
{ACAD_REACTORS
330
17
102
}
100
AcDbMlineStyle
  2
STANDARD
 70
0
  3

 62
256
 51
90.0
 52
90.0
 71
2
 49
0.5
 62
256
  6
BYLAYER
 49
-0.5
 62
256
  6
BYLAYER
  0
LAYOUT
  5
2BF
102
{ACAD_REACTORS
330
1A
102
}
100
AcDbPlotSettings
  1

  2
none_device
  4

  6

 40
0.0
 41
0.0
 42
0.0
 43
0.0
 44
210.0
 45
297.0
 46
0.0
 47
0.0
 48
0.0
 49
0.0
140
0.0
141
0.0
142
1.0
143
1.0
 70
1024
 72
1
 73
0
 74
0
  7

 75
0
147
1.0
148
0.0
149
0.0
100
AcDbLayout
  1
Model
 70
0
 71
0
 10
0.0
 20
0.0
 11
210.0
 21
297.0
 12
0.0
 22
0.0
 32
0.0
 14
0.0
 24
0.0
 34
0.0
 15
0.0
 25
0.0
 35
0.0
146
0.0
 13
0.0
 23
0.0
 33
0.0
 16
1.0
 26
0.0
 36
0.0
 17
0.0
 27
1.0
 37
0.0
 76
0
330
211
345
0
346
0
  0
LAYOUT
  5
2C0
102
{ACAD_REACTORS
330
1A
102
}
100
AcDbPlotSettings
  1

  2
none_device
  4

  6

 40
0.0
 41
0.0
 42
0.0
 43
0.0
 44
210.0
 45
297.0
 46
0.0
 47
0.0
 48
0.0
 49
0.0
140
0.0
141
0.0
142
1.0
143
1.0
 70
0
 72
1
 73
0
 74
0
  7

 75
0
147
1.0
148
0.0
149
0.0
100
AcDbLayout
  1
Layout1
 70
0
 71
1
 10
0.0
 20
0.0
 11
210.0
 21
297.0
 12
0.0
 22
0.0
 32
0.0
 14
0.0
 24
0.0
 34
0.0
 15
0.0
 25
0.0
 35
0.0
146
0.0
 13
0.0
 23
0.0
 33
0.0
 16
1.0
 26
0.0
 36
0.0
 17
0.0
 27
1.0
 37
0.0
 76
0
330
212
345
0
346
0
  0
ENDSEC
  0
EOF
