999
DXF file: C:\Users\sesa63760\Dev\_Creo\CAD\MCADID0000849_3D-CAD\drw0001_4.dxf
999
Pro/ENGINEER 2019471 by Parametric Technology Corporation
  0
SECTION
  2
HEADER
  9
$ACADVER
  1
AC1024
  9
$DWGCODEPAGE
  3
ANSI_1252
  9
$EXTMAX
 10
245.200930165
 20
346.7841726619
 30
0.0
  9
$EXTMIN
 10
0.0
 20
0.0
 30
0.0
  9
$LIMMIN
 10
0.0
 20
0.0
  9
$LIMMAX
 10
245.200930165
 20
346.7841726619
  9
$VIEWCTR
 10
122.6004650825
 20
173.3920863309
  9
$VIEWSIZE
 40
346.7841726619
  9
$CLAYER
  8
0
  9
$LTSCALE
 40
22.6051905143
  9
$CELTYPE
  6
BYLAYER
  9
$DIMSCALE
 40
1.0
  9
$DIMASZ
 40
2.9190586924
  9
$DIMEXO
 40
1.0
  9
$DIMDLI
 40
15.618131628
  9
$DIMEXE
 40
1.0
  9
$DIMCEN
 40
3.6990311751
  9
$DIMLFAC
 40
1.0
  9
$DIMBLK
  1
_FILLED
  9
$DIMALT
 70
0
  9
$DIMALTF
 40
0.0393700787
  9
$DIMTXT
 40
4.0866821694
  9
$DIMTOL
 70
1
  9
$DIMLIM
 70
0
  9
$DIMTFAC
 40
1.0
  9
$DIMTP
 40
0.01
  9
$DIMTM
 40
0.01
  9
$DIMGAP
 40
0.625
  9
$DIMDSEP
 70
46
  9
$AUNITS
 70
0
  9
$PDMODE
 70
3
  9
$PDSIZE
 40
0.3125
  9
$HANDSEED
  5
3D1
  9
$TILEMODE
 70
1
  9
$MEASUREMENT
 70
1
  9
$INSUNITS
 70
4
  0
ENDSEC
  0
SECTION
  2
CLASSES
  0
CLASS
  1
ACDBDICTIONARYWDFLT
  2
AcDbDictionaryWithDefault
  3
AutoCAD 2000
 90
0
 91
1
280
0
281
0
  0
CLASS
  1
ACDBPLACEHOLDER
  2
AcDbPlaceHolder
  3
AutoCAD 2000
 90
0
 91
1
280
0
281
0
  0
CLASS
  1
LAYOUT
  2
AcDbLayout
  3
AutoCAD 2000
 90
0
 91
0
280
0
281
0
  0
ENDSEC
  0
SECTION
  2
TABLES
  0
TABLE
  2
VPORT
  5
8
100
AcDbSymbolTable
 70
2
  0
VPORT
  5
1F4
100
AcDbSymbolTableRecord
100
AcDbViewportTableRecord
  2
*ACTIVE
 70
0
 10
0.0
 20
0.0
 11
1.0
 21
1.0
 12
122.6004650825
 22
173.3920863309
 13
0.0
 23
0.0
 14
1.0
 24
1.0
 15
0.0
 25
0.0
 16
0.0
 26
0.0
 36
1.0
 17
0.0
 27
0.0
 37
0.0
 40
346.7841726619
 41
0.7070707071
 42
50.0
 43
0.0
 44
0.0
 50
0.0
 51
0.0
 71
0
 72
100
 73
1
 74
1
 75
0
 76
0
 77
0
 78
0
  0
ENDTAB
  0
TABLE
  2
LTYPE
  5
5
100
AcDbSymbolTable
 70
6
  0
LTYPE
  5
14
100
AcDbSymbolTableRecord
100
AcDbLinetypeTableRecord
  2
BYBLOCK
 70
0
  3

 72
65
 73
0
 40
0.0
  0
LTYPE
  5
15
100
AcDbSymbolTableRecord
100
AcDbLinetypeTableRecord
  2
BYLAYER
 70
0
  3

 72
65
 73
0
 40
0.0
  0
LTYPE
  5
16
100
AcDbSymbolTableRecord
100
AcDbLinetypeTableRecord
  2
CONTINUOUS
 70
64
  3
Solid line
 72
65
 73
0
 40
0.0
  0
LTYPE
  5
1F5
100
AcDbSymbolTableRecord
100
AcDbLinetypeTableRecord
  2
CENTER
 70
64
  3
____ _ ____ _ ____ _ ____ _ ____ _ ____ _ ____
 72
65
 73
4
 40
0.6
 49
0.375
 74
0
 49
-0.075
 74
0
 49
0.075
 74
0
 49
-0.075
 74
0
  0
LTYPE
  5
1F6
100
AcDbSymbolTableRecord
100
AcDbLinetypeTableRecord
  2
HIDDEN
 70
64
  3
- - - - - - - - - - - - - - - - - - - -
 72
65
 73
2
 40
0.2
 49
0.1
 74
0
 49
-0.1
 74
0
  0
LTYPE
  5
1F7
100
AcDbSymbolTableRecord
100
AcDbLinetypeTableRecord
  2
PHANTOM
 70
64
  3
_____ _ _ _____ _ _ _____ _ _ _____
 72
65
 73
6
 40
0.8
 49
0.45
 74
0
 49
-0.05
 74
0
 49
0.1
 74
0
 49
-0.05
 74
0
 49
0.1
 74
0
 49
-0.05
 74
0
  0
LTYPE
  5
1F8
100
AcDbSymbolTableRecord
100
AcDbLinetypeTableRecord
  2
DOT
 70
64
  3
. . . . . . . . . . . . . . . . . . . .
 72
65
 73
2
 40
0.2
 49
0.1
 74
0
 49
-0.1
 74
0
  0
LTYPE
  5
1F9
100
AcDbSymbolTableRecord
100
AcDbLinetypeTableRecord
  2
DASHED
 70
64
  3
- - - - - - - - - - - - - - - - - - - -
 72
65
 73
2
 40
0.2
 49
0.1
 74
0
 49
-0.1
 74
0
  0
ENDTAB
  0
TABLE
  2
LAYER
  5
2
100
AcDbSymbolTable
 70
36
  0
LAYER
  5
10
100
AcDbSymbolTableRecord
100
AcDbLayerTableRecord
  2
0
 70
0
 62
7
  6
CONTINUOUS
370
-3
390
F
  0
LAYER
  5
1FA
100
AcDbSymbolTableRecord
100
AcDbLayerTableRecord
  2
DEFAULT_1
 70
0
 62
7
  6
CENTER
370
-3
390
F
  0
LAYER
  5
1FB
100
AcDbSymbolTableRecord
100
AcDbLayerTableRecord
  2
DEFAULT_2
 70
0
 62
8
  6
HIDDEN
370
-3
390
F
  0
LAYER
  5
1FC
100
AcDbSymbolTableRecord
100
AcDbLayerTableRecord
  2
DEFAULT_3
 70
0
 62
7
  6
PHANTOM
370
-3
390
F
  0
LAYER
  5
1FD
100
AcDbSymbolTableRecord
100
AcDbLayerTableRecord
  2
00_COMPONENTS
 70
0
 62
7
  6
CONTINUOUS
370
-3
390
F
  0
LAYER
  5
1FE
100
AcDbSymbolTableRecord
100
AcDbLayerTableRecord
  2
01_1_DEFAULT_DATUMS
 70
0
 62
7
  6
CONTINUOUS
370
-3
390
F
  0
LAYER
  5
1FF
100
AcDbSymbolTableRecord
100
AcDbLayerTableRecord
  2
01_PLANES
 70
0
 62
7
  6
CONTINUOUS
370
-3
390
F
  0
LAYER
  5
200
100
AcDbSymbolTableRecord
100
AcDbLayerTableRecord
  2
02_COORD_SYS
 70
0
 62
7
  6
CONTINUOUS
370
-3
390
F
  0
LAYER
  5
201
100
AcDbSymbolTableRecord
100
AcDbLayerTableRecord
  2
03_AXES
 70
0
 62
7
  6
CONTINUOUS
370
-3
390
F
  0
LAYER
  5
202
100
AcDbSymbolTableRecord
100
AcDbLayerTableRecord
  2
04_POINTS
 70
0
 62
7
  6
CONTINUOUS
370
-3
390
F
  0
LAYER
  5
203
100
AcDbSymbolTableRecord
100
AcDbLayerTableRecord
  2
05_CURVES
 70
0
 62
7
  6
CONTINUOUS
370
-3
390
F
  0
LAYER
  5
204
100
AcDbSymbolTableRecord
100
AcDbLayerTableRecord
  2
06_SURFS
 70
0
 62
7
  6
CONTINUOUS
370
-3
390
F
  0
LAYER
  5
205
100
AcDbSymbolTableRecord
100
AcDbLayerTableRecord
  2
07_COSMETICS
 70
0
 62
7
  6
CONTINUOUS
370
-3
390
F
  0
LAYER
  5
206
100
AcDbSymbolTableRecord
100
AcDbLayerTableRecord
  2
10_NOTES
 70
0
 62
7
  6
CONTINUOUS
370
-3
390
F
  0
LAYER
  5
207
100
AcDbSymbolTableRecord
100
AcDbLayerTableRecord
  2
11_NOTES_PUB
 70
0
 62
7
  6
CONTINUOUS
370
-3
390
F
  0
LAYER
  5
208
100
AcDbSymbolTableRecord
100
AcDbLayerTableRecord
  2
13_REF_GTOL
 70
0
 62
7
  6
CONTINUOUS
370
-3
390
F
  0
LAYER
  5
209
100
AcDbSymbolTableRecord
100
AcDbLayerTableRecord
  2
16_MISC
 70
0
 62
7
  6
CONTINUOUS
370
-3
390
F
  0
LAYER
  5
20A
100
AcDbSymbolTableRecord
100
AcDbLayerTableRecord
  2
17_NO_PRINT
 70
0
 62
7
  6
CONTINUOUS
370
-3
390
F
  0
LAYER
  5
20B
100
AcDbSymbolTableRecord
100
AcDbLayerTableRecord
  2
18_DATUM_CAMS_JOINTS
 70
0
 62
7
  6
CONTINUOUS
370
-3
390
F
  0
LAYER
  5
20C
100
AcDbSymbolTableRecord
100
AcDbLayerTableRecord
  2
19_DATUM_FUNCTIONAL
 70
0
 62
7
  6
CONTINUOUS
370
-3
390
F
  0
LAYER
  5
20D
100
AcDbSymbolTableRecord
100
AcDbLayerTableRecord
  2
20_DATUM_KINEMATIC_SCHEME
 70
0
 62
7
  6
CONTINUOUS
370
-3
390
F
  0
ENDTAB
  0
TABLE
  2
STYLE
  5
3
100
AcDbSymbolTable
 70
1
  0
STYLE
  5
11
100
AcDbSymbolTableRecord
100
AcDbTextStyleTableRecord
  2
STANDARD
 70
0
 40
0.0
 41
0.8
 50
0.0
 71
0
 42
0.2
  3
txt
  4

  0
STYLE
  5
20E
100
AcDbSymbolTableRecord
100
AcDbTextStyleTableRecord
  2
TEXTSTYLE_1
 70
0
 40
0.0
 41
0.8
 50
0.0
 71
0
 42
0.2
  3
gdt
  4

  0
ENDTAB
  0
TABLE
  2
VIEW
  5
6
100
AcDbSymbolTable
 70
0
  0
ENDTAB
  0
TABLE
  2
UCS
  5
7
100
AcDbSymbolTable
 70
0
  0
ENDTAB
  0
TABLE
  2
APPID
  5
9
100
AcDbSymbolTable
 70
1
  0
APPID
  5
20F
100
AcDbSymbolTableRecord
100
AcDbRegAppTableRecord
  2
ACAD
 70
0
  0
ENDTAB
  0
TABLE
  2
BLOCK_RECORD
  5
1
100
AcDbSymbolTable
 70
0
  0
BLOCK_RECORD
  5
210
100
AcDbSymbolTableRecord
100
AcDbBlockTableRecord
  2
*Model_Space
  0
BLOCK_RECORD
  5
211
100
AcDbSymbolTableRecord
100
AcDbBlockTableRecord
  2
*Paper_Space
  0
BLOCK_RECORD
  5
212
100
AcDbSymbolTableRecord
100
AcDbBlockTableRecord
  2
_FILLED
  0
ENDTAB
  0
TABLE
  2
DIMSTYLE
  5
A
100
AcDbSymbolTable
 70
1
100
AcDbDimStyleTable
 71
0
  0
DIMSTYLE
105
213
100
AcDbSymbolTableRecord
100
AcDbDimStyleTableRecord
  2
STANDARD
 70
0
  3

  4

 40
1.0
 41
2.9190586924
 42
1.0
 43
0.38
 44
1.0
 45
0.0
 46
0.0
 47
0.01
 48
0.01
140
4.0866821694
141
0.09
142
0.0
143
25.4
144
1.0
145
0.0
146
1.0
147
0.625
 71
1
 72
0
 73
0
 74
0
 75
0
 76
0
 77
1
 78
8
 79
2
170
0
171
1
172
0
173
0
174
0
175
0
176
0
177
0
178
0
270
2
179
2
271
2
272
2
273
2
274
2
275
0
280
0
281
0
282
0
283
1
284
8
285
0
286
0
287
3
288
0
340
11
278
46
341
212
342
212
343
212
344
212
  0
ENDTAB
  0
ENDSEC
  0
SECTION
  2
BLOCKS
  0
BLOCK
  5
20
100
AcDbEntity
  8
0
100
AcDbBlockBegin
  2
*Model_Space
 70
0
 10
0.0
 20
0.0
 30
0.0
  3
*Model_Space
  1

  0
ENDBLK
  5
21
100
AcDbEntity
  8
0
100
AcDbBlockEnd
  0
BLOCK
  5
1C
100
AcDbEntity
  8
0
100
AcDbBlockBegin
  2
*Paper_Space
 70
0
 10
0.0
 20
0.0
 30
0.0
  3
*Paper_Space
  1

  0
ENDBLK
  5
1D
100
AcDbEntity
  8
0
100
AcDbBlockEnd
  0
BLOCK
  5
214
100
AcDbEntity
  8
0
100
AcDbBlockBegin
  2
_FILLED
 70
64
 10
0.0
 20
0.0
  3
_FILLED
  1

  0
SOLID
  5
215
100
AcDbEntity
  8
0
  6
BYBLOCK
 62
0
100
AcDbTrace
 10
0.0
 20
0.0
 11
-1.0
 21
0.25
 12
-1.0
 22
-0.25
 13
-1.0
 23
-0.25
  0
ENDBLK
  5
216
100
AcDbEntity
  8
0
  6
BYBLOCK
 62
0
100
AcDbBlockEnd
  0
ENDSEC
  0
SECTION
  2
ENTITIES
  0
LINE
  5
217
100
AcDbEntity
  8
0
100
AcDbLine
 62
7
  6
CONTINUOUS
 10
53.0339204061
 20
24.8309352518
 11
198.033918132
 21
24.8309352518
  0
LINE
  5
218
100
AcDbEntity
  8
0
100
AcDbLine
 62
7
  6
CONTINUOUS
 10
198.033918097
 20
26.7103293062
 11
196.5339206445
 21
26.7103293062
  0
LINE
  5
219
100
AcDbEntity
  8
0
100
AcDbLine
 62
7
  6
CONTINUOUS
 10
54.5339159953
 20
26.7103293062
 11
53.0339204061
 21
26.7103293062
  0
LINE
  5
21A
100
AcDbEntity
  8
0
100
AcDbLine
 62
7
  6
CONTINUOUS
 10
147.9206696658
 20
28.3309352518
 11
142.1471669739
 21
28.3309352518
  0
LINE
  5
21B
100
AcDbEntity
  8
0
100
AcDbLine
 62
7
  6
CONTINUOUS
 10
142.1471669739
 20
38.3309352518
 11
147.9206696658
 21
38.3309352518
  0
LINE
  5
21C
100
AcDbEntity
  8
0
100
AcDbLine
 62
7
  6
CONTINUOUS
 10
80.6067183199
 20
40.8309352518
 11
90.4611183199
 21
40.8309352518
  0
LINE
  5
21D
100
AcDbEntity
  8
0
100
AcDbLine
 62
7
  6
CONTINUOUS
 10
120.6067183199
 20
40.8309352518
 11
130.4611183199
 21
40.8309352518
  0
LINE
  5
21E
100
AcDbEntity
  8
0
100
AcDbLine
 62
7
  6
CONTINUOUS
 10
160.6067183199
 20
40.8309352518
 11
170.4611183199
 21
40.8309352518
  0
LINE
  5
21F
100
AcDbEntity
  8
0
100
AcDbLine
 62
7
  6
CONTINUOUS
 10
71.5348370659
 20
26.8309393049
 11
73.5348336684
 21
24.8309352518
  0
LINE
  5
220
100
AcDbEntity
  8
0
100
AcDbLine
 62
7
  6
CONTINUOUS
 10
91.0357679341
 20
319.8309352518
 11
89.0357554244
 21
317.8309488193
  0
LINE
  5
221
100
AcDbEntity
  8
0
100
AcDbLine
 62
7
  6
CONTINUOUS
 10
93.5799204099
 20
319.830931452
 11
91.5330000507
 21
317.7840120242
  0
LINE
  5
222
100
AcDbEntity
  8
0
100
AcDbLine
 62
7
  6
CONTINUOUS
 10
53.0339204061
 20
42.830933012
 11
198.0339163567
 21
42.830933012
  0
LINE
  5
223
100
AcDbEntity
  8
0
100
AcDbLine
 62
7
  6
CONTINUOUS
 10
193.0338695821
 20
43.7309352518
 11
189.0339670577
 21
43.7309352518
  0
LINE
  5
224
100
AcDbEntity
  8
0
100
AcDbLine
 62
7
  6
CONTINUOUS
 10
62.0338695821
 20
43.7309352518
 11
58.0339670577
 21
43.7309352518
  0
LINE
  5
225
100
AcDbEntity
  8
0
100
AcDbLine
 62
7
  6
CONTINUOUS
 10
195.0338207456
 20
45.7315148107
 11
188.9396466943
 21
45.7315148107
  0
LINE
  5
226
100
AcDbEntity
  8
0
100
AcDbLine
 62
7
  6
CONTINUOUS
 10
62.1281899455
 20
45.7315148107
 11
56.0340158942
 21
45.7315148107
  0
LINE
  5
227
100
AcDbEntity
  8
0
100
AcDbLine
 62
7
  6
CONTINUOUS
 10
198.0339162337
 20
46.8309352518
 11
188.9396466943
 21
46.8309352518
  0
LINE
  5
228
100
AcDbEntity
  8
0
100
AcDbLine
 62
7
  6
CONTINUOUS
 10
53.1020530832
 20
46.8309352518
 11
53.0339204061
 21
46.8309352518
  0
LINE
  5
229
100
AcDbEntity
  8
0
100
AcDbLine
 62
7
  6
CONTINUOUS
 10
62.1281899455
 20
46.8309352518
 11
53.1124400548
 21
46.8309352518
  0
LINE
  5
22A
100
AcDbEntity
  8
0
100
AcDbLine
 62
7
  6
CONTINUOUS
 10
91.5330000507
 20
26.8778481604
 11
93.5799204099
 21
24.8309352518
  0
LINE
  5
22B
100
AcDbEntity
  8
0
100
AcDbLine
 62
7
  6
CONTINUOUS
 10
52.5339183199
 20
64.8309352517
 11
53.0339204061
 21
64.8309352517
  0
LINE
  5
22C
100
AcDbEntity
  8
0
100
AcDbLine
 62
7
  6
CONTINUOUS
 10
197.9597984818
 20
65.330935371
 11
53.1122550544
 21
65.330935371
  0
LINE
  5
22D
100
AcDbEntity
  8
0
100
AcDbLine
 62
7
  6
CONTINUOUS
 10
53.0339204061
 20
66.7544717232
 11
52.5339183199
 21
66.7544717232
  0
LINE
  5
22E
100
AcDbEntity
  8
0
100
AcDbLine
 62
7
  6
CONTINUOUS
 10
53.1122550545
 20
64.832377264
 11
197.959798364
 21
64.8323673368
  0
LINE
  5
22F
100
AcDbEntity
  8
0
100
AcDbLine
 62
7
  6
CONTINUOUS
 10
128.533918346
 20
26.8309393049
 11
130.5339182081
 21
24.8309352518
  0
LINE
  5
230
100
AcDbEntity
  8
0
100
AcDbLine
 62
7
  6
CONTINUOUS
 10
73.7547028091
 20
82.6699449941
 11
73.2597280622
 21
83.164919741
  0
LINE
  5
231
100
AcDbEntity
  8
0
100
AcDbLine
 62
7
  6
CONTINUOUS
 10
100.260415628
 20
311.3309352518
 11
103.1471669739
 21
316.3309352518
  0
LINE
  5
232
100
AcDbEntity
  8
0
100
AcDbLine
 62
7
  6
CONTINUOUS
 10
71.4536165563
 20
77.3282642685
 11
61.6833453876
 21
77.2705813699
  0
LINE
  5
233
100
AcDbEntity
  8
0
100
AcDbLine
 62
7
  6
CONTINUOUS
 10
197.8052245748
 20
76.2961289944
 11
53.249543066
 21
76.2961289944
  0
LINE
  5
234
100
AcDbEntity
  8
0
100
AcDbLine
 62
7
  6
CONTINUOUS
 10
71.5321734833
 20
77.0664748035
 11
181.2356621313
 21
77.0664748035
  0
LINE
  5
235
100
AcDbEntity
  8
0
100
AcDbLine
 62
7
  6
CONTINUOUS
 10
72.3108183199
 20
78.830919149
 11
112.9508183199
 21
78.830919149
  0
LINE
  5
236
100
AcDbEntity
  8
0
100
AcDbLine
 62
7
  6
CONTINUOUS
 10
115.4538183199
 20
78.830919149
 11
140.8538183199
 21
78.830919149
  0
LINE
  5
237
100
AcDbEntity
  8
0
100
AcDbLine
 62
7
  6
CONTINUOUS
 10
143.3388183199
 20
78.830919149
 11
158.5788183199
 21
78.830919149
  0
LINE
  5
238
100
AcDbEntity
  8
0
100
AcDbLine
 62
7
  6
CONTINUOUS
 10
158.5788183199
 20
79.0309225346
 11
143.3388183199
 21
79.0309225346
  0
LINE
  5
239
100
AcDbEntity
  8
0
100
AcDbLine
 62
7
  6
CONTINUOUS
 10
140.8538183199
 20
79.0309225346
 11
115.4538183199
 21
79.0309225346
  0
LINE
  5
23A
100
AcDbEntity
  8
0
100
AcDbLine
 62
7
  6
CONTINUOUS
 10
112.9508183199
 20
79.0309225346
 11
72.3108183199
 21
79.0309225346
  0
LINE
  5
23B
100
AcDbEntity
  8
0
100
AcDbLine
 62
7
  6
CONTINUOUS
 10
158.5788183199
 20
79.1309242273
 11
143.3388183199
 21
79.1309242273
  0
LINE
  5
23C
100
AcDbEntity
  8
0
100
AcDbLine
 62
7
  6
CONTINUOUS
 10
140.8538183199
 20
79.1309242273
 11
115.4538183199
 21
79.1309242273
  0
LINE
  5
23D
100
AcDbEntity
  8
0
100
AcDbLine
 62
7
  6
CONTINUOUS
 10
112.9508183199
 20
79.1309242273
 11
72.3108183199
 21
79.1309242273
  0
LINE
  5
23E
100
AcDbEntity
  8
0
100
AcDbLine
 62
7
  6
CONTINUOUS
 10
72.3108183199
 20
79.635315358
 11
112.9508183199
 21
79.635315358
  0
LINE
  5
23F
100
AcDbEntity
  8
0
100
AcDbLine
 62
7
  6
CONTINUOUS
 10
115.4538183199
 20
79.635315358
 11
140.8538183199
 21
79.635315358
  0
LINE
  5
240
100
AcDbEntity
  8
0
100
AcDbLine
 62
7
  6
CONTINUOUS
 10
143.3388183199
 20
79.635315358
 11
158.5788183199
 21
79.635315358
  0
LINE
  5
241
100
AcDbEntity
  8
0
100
AcDbLine
 62
7
  6
CONTINUOUS
 10
158.5788183199
 20
79.8351250023
 11
143.3388183199
 21
79.8351250023
  0
LINE
  5
242
100
AcDbEntity
  8
0
100
AcDbLine
 62
7
  6
CONTINUOUS
 10
140.8538183199
 20
79.8351250023
 11
115.4538183199
 21
79.8351250023
  0
LINE
  5
243
100
AcDbEntity
  8
0
100
AcDbLine
 62
7
  6
CONTINUOUS
 10
112.9508183199
 20
79.8351250023
 11
72.3108183199
 21
79.8351250023
  0
LINE
  5
244
100
AcDbEntity
  8
0
100
AcDbLine
 62
7
  6
CONTINUOUS
 10
197.4965424303
 20
76.3044959497
 11
190.5283382322
 21
76.3205285304
  0
LINE
  5
245
100
AcDbEntity
  8
0
100
AcDbLine
 62
7
  6
CONTINUOUS
 10
189.356163402
 20
77.2709313866
 11
181.3156016163
 21
77.3201424732
  0
LINE
  5
246
100
AcDbEntity
  8
0
100
AcDbLine
 62
7
  6
CONTINUOUS
 10
78.8347028091
 20
82.6699449941
 11
78.3397280622
 21
83.164919741
  0
LINE
  5
247
100
AcDbEntity
  8
0
100
AcDbLine
 62
7
  6
CONTINUOUS
 10
75.9467338307
 20
85.8519255095
 11
76.4417085776
 21
85.3569507626
  0
LINE
  5
248
100
AcDbEntity
  8
0
100
AcDbLine
 62
7
  6
CONTINUOUS
 10
83.9147028091
 20
82.6699449941
 11
83.4197280622
 21
83.164919741
  0
LINE
  5
249
100
AcDbEntity
  8
0
100
AcDbLine
 62
7
  6
CONTINUOUS
 10
81.0267338307
 20
85.8519255095
 11
81.5217085776
 21
85.3569507626
  0
LINE
  5
24A
100
AcDbEntity
  8
0
100
AcDbLine
 62
7
  6
CONTINUOUS
 10
88.9947028091
 20
82.6699449941
 11
88.4997280622
 21
83.164919741
  0
LINE
  5
24B
100
AcDbEntity
  8
0
100
AcDbLine
 62
7
  6
CONTINUOUS
 10
86.1067338307
 20
85.8519255095
 11
86.6017085776
 21
85.3569507626
  0
LINE
  5
24C
100
AcDbEntity
  8
0
100
AcDbLine
 62
7
  6
CONTINUOUS
 10
111.8074210118
 20
311.3309352518
 11
108.9206696658
 21
306.3309352518
  0
LINE
  5
24D
100
AcDbEntity
  8
0
100
AcDbLine
 62
7
  6
CONTINUOUS
 10
72.3108183199
 20
87.2609209467
 11
112.9508183199
 21
87.2609209467
  0
LINE
  5
24E
100
AcDbEntity
  8
0
100
AcDbLine
 62
7
  6
CONTINUOUS
 10
115.4538183199
 20
87.2609209467
 11
140.8538183199
 21
87.2609209467
  0
LINE
  5
24F
100
AcDbEntity
  8
0
100
AcDbLine
 62
7
  6
CONTINUOUS
 10
143.3388183199
 20
87.2609209467
 11
158.5788183199
 21
87.2609209467
  0
LINE
  5
250
100
AcDbEntity
  8
0
100
AcDbLine
 62
7
  6
CONTINUOUS
 10
158.5788183199
 20
87.8609209467
 11
143.3388183199
 21
87.8609209467
  0
LINE
  5
251
100
AcDbEntity
  8
0
100
AcDbLine
 62
7
  6
CONTINUOUS
 10
140.8538183199
 20
87.8609209467
 11
115.4538183199
 21
87.8609209467
  0
LINE
  5
252
100
AcDbEntity
  8
0
100
AcDbLine
 62
7
  6
CONTINUOUS
 10
112.9508183199
 20
87.8609209467
 11
72.3108183199
 21
87.8609209467
  0
LINE
  5
253
100
AcDbEntity
  8
0
100
AcDbLine
 62
7
  6
CONTINUOUS
 10
158.5788183199
 20
88.2309143568
 11
143.3388183199
 21
88.2309143568
  0
LINE
  5
254
100
AcDbEntity
  8
0
100
AcDbLine
 62
7
  6
CONTINUOUS
 10
140.8538183199
 20
88.2309143568
 11
115.4538183199
 21
88.2309143568
  0
LINE
  5
255
100
AcDbEntity
  8
0
100
AcDbLine
 62
7
  6
CONTINUOUS
 10
112.9508183199
 20
88.2309143568
 11
72.3108183199
 21
88.2309143568
  0
LINE
  5
256
100
AcDbEntity
  8
0
100
AcDbLine
 62
7
  6
CONTINUOUS
 10
72.3108183199
 20
88.2628482862
 11
112.9508183199
 21
88.2628482862
  0
LINE
  5
257
100
AcDbEntity
  8
0
100
AcDbLine
 62
7
  6
CONTINUOUS
 10
115.4538183199
 20
88.2628482862
 11
140.8538183199
 21
88.2628482862
  0
LINE
  5
258
100
AcDbEntity
  8
0
100
AcDbLine
 62
7
  6
CONTINUOUS
 10
143.3388183199
 20
88.2628482862
 11
158.5788183199
 21
88.2628482862
  0
LINE
  5
259
100
AcDbEntity
  8
0
100
AcDbLine
 62
7
  6
CONTINUOUS
 10
158.5788183199
 20
88.4882425095
 11
143.3388183199
 21
88.4882425095
  0
LINE
  5
25A
100
AcDbEntity
  8
0
100
AcDbLine
 62
7
  6
CONTINUOUS
 10
140.8538183199
 20
88.4882425095
 11
115.4538183199
 21
88.4882425095
  0
LINE
  5
25B
100
AcDbEntity
  8
0
100
AcDbLine
 62
7
  6
CONTINUOUS
 10
112.9508183199
 20
88.4882425095
 11
72.3108183199
 21
88.4882425095
  0
LINE
  5
25C
100
AcDbEntity
  8
0
100
AcDbLine
 62
7
  6
CONTINUOUS
 10
161.6639183199
 20
89.9309352518
 11
178.0639183199
 21
89.9309352518
  0
LINE
  5
25D
100
AcDbEntity
  8
0
100
AcDbLine
 62
7
  6
CONTINUOUS
 10
189.9680643326
 20
92.6889313302
 11
61.0995806566
 21
92.6889313302
  0
LINE
  5
25E
100
AcDbEntity
  8
0
100
AcDbLine
 62
7
  6
CONTINUOUS
 10
190.2410298527
 20
92.8309352518
 11
189.9680643326
 21
92.8309352518
  0
LINE
  5
25F
100
AcDbEntity
  8
0
100
AcDbLine
 62
7
  6
CONTINUOUS
 10
61.0995806566
 20
92.8309352518
 11
60.8235109872
 21
92.8309352518
  0
LINE
  5
260
100
AcDbEntity
  8
0
100
AcDbLine
 62
7
  6
CONTINUOUS
 10
94.0747028091
 20
82.6699449941
 11
93.5797280622
 21
83.164919741
  0
LINE
  5
261
100
AcDbEntity
  8
0
100
AcDbLine
 62
7
  6
CONTINUOUS
 10
91.1867338307
 20
85.8519255095
 11
91.6817085776
 21
85.3569507626
  0
LINE
  5
262
100
AcDbEntity
  8
0
100
AcDbLine
 62
7
  6
CONTINUOUS
 10
99.1547028091
 20
82.6699449941
 11
98.6597280622
 21
83.164919741
  0
LINE
  5
263
100
AcDbEntity
  8
0
100
AcDbLine
 62
7
  6
CONTINUOUS
 10
96.2667338307
 20
85.8519255095
 11
96.7617085776
 21
85.3569507626
  0
LINE
  5
264
100
AcDbEntity
  8
0
100
AcDbLine
 62
7
  6
CONTINUOUS
 10
104.2347028091
 20
82.6699449941
 11
103.7397280622
 21
83.164919741
  0
LINE
  5
265
100
AcDbEntity
  8
0
100
AcDbLine
 62
7
  6
CONTINUOUS
 10
101.3467338307
 20
85.8519255095
 11
101.8417085776
 21
85.3569507626
  0
LINE
  5
266
100
AcDbEntity
  8
0
100
AcDbLine
 62
7
  6
CONTINUOUS
 10
71.4536165563
 20
77.3282642685
 11
71.5321734833
 21
77.0664748035
  0
LINE
  5
267
100
AcDbEntity
  8
0
100
AcDbLine
 62
7
  6
CONTINUOUS
 10
53.2594063779
 20
65.330935371
 11
53.254474722
 21
68.8309352518
  0
LINE
  5
268
100
AcDbEntity
  8
0
100
AcDbLine
 62
7
  6
CONTINUOUS
 10
53.254474722
 20
68.8309352518
 11
53.249543066
 21
76.2961289944
  0
LINE
  5
269
100
AcDbEntity
  8
0
100
AcDbLine
 62
7
  6
CONTINUOUS
 10
52.5339183199
 20
64.8309352517
 11
52.5339183199
 21
136.8309352517
  0
LINE
  5
26A
100
AcDbEntity
  8
0
100
AcDbLine
 62
7
  6
CONTINUOUS
 10
52.5339183199
 20
245.8309352517
 11
52.5339183199
 21
279.8309352517
  0
LINE
  5
26B
100
AcDbEntity
  8
0
100
AcDbLine
 62
7
  6
CONTINUOUS
 10
53.0339204061
 20
24.8309352518
 11
53.0339204061
 21
319.830931452
  0
LINE
  5
26C
100
AcDbEntity
  8
0
100
AcDbLine
 62
7
  6
CONTINUOUS
 10
53.0795733136
 20
276.8309318543
 11
53.0795733136
 21
276.3309308411
  0
LINE
  5
26D
100
AcDbEntity
  8
0
100
AcDbLine
 62
7
  6
CONTINUOUS
 10
53.0795733136
 20
65.330935371
 11
53.0795733136
 21
64.8309269071
  0
LINE
  5
26E
100
AcDbEntity
  8
0
100
AcDbLine
 62
7
  6
CONTINUOUS
 10
53.0840050155
 20
294.8309352518
 11
53.0840050155
 21
276.8309318543
  0
LINE
  5
26F
100
AcDbEntity
  8
0
100
AcDbLine
 62
7
  6
CONTINUOUS
 10
53.102153579
 20
68.8309352518
 11
53.1024390753
 21
65.330935371
  0
LINE
  5
270
100
AcDbEntity
  8
0
100
AcDbLine
 62
7
  6
CONTINUOUS
 10
53.1018680828
 20
276.3309308411
 11
53.102153579
 21
68.8309352518
  0
LINE
  5
271
100
AcDbEntity
  8
0
100
AcDbLine
 62
7
  6
CONTINUOUS
 10
53.1024390753
 20
64.8324024314
 11
53.1024390753
 21
46.8309352518
  0
LINE
  5
272
100
AcDbEntity
  8
0
100
AcDbLine
 62
7
  6
CONTINUOUS
 10
53.249543066
 20
265.3309309007
 11
53.249543066
 21
276.3309308411
  0
LINE
  5
273
100
AcDbEntity
  8
0
100
AcDbLine
 62
7
  6
CONTINUOUS
 10
53.5941104568
 20
265.3189889347
 11
53.5941104568
 21
76.3041660183
  0
LINE
  5
274
100
AcDbEntity
  8
0
100
AcDbLine
 62
7
  6
CONTINUOUS
 10
53.5941104568
 20
64.8330514587
 11
53.5941104568
 21
46.8309352518
  0
LINE
  5
275
100
AcDbEntity
  8
0
100
AcDbLine
 62
7
  6
CONTINUOUS
 10
54.0866992768
 20
64.8344216838
 11
54.0866992768
 21
46.8309352518
  0
LINE
  5
276
100
AcDbEntity
  8
0
100
AcDbLine
 62
7
  6
CONTINUOUS
 10
54.3713219749
 20
294.8309352518
 11
54.3713219749
 21
276.8309318543
  0
LINE
  5
277
100
AcDbEntity
  8
0
100
AcDbLine
 62
7
  6
CONTINUOUS
 10
54.5339159953
 20
319.830931452
 11
54.5339159953
 21
298.8309317351
  0
LINE
  5
278
100
AcDbEntity
  8
0
100
AcDbLine
 62
7
  6
CONTINUOUS
 10
54.5339159953
 20
42.8309373697
 11
54.5339159953
 21
24.8309352518
  0
LINE
  5
279
100
AcDbEntity
  8
0
100
AcDbLine
 62
7
  6
CONTINUOUS
 10
55.3339146363
 20
24.8309352518
 11
55.3339146363
 21
42.8309373697
  0
LINE
  5
27A
100
AcDbEntity
  8
0
100
AcDbLine
 62
7
  6
CONTINUOUS
 10
55.3339146363
 20
298.8309317351
 11
55.3339146363
 21
319.830931452
  0
LINE
  5
27B
100
AcDbEntity
  8
0
100
AcDbLine
 62
7
  6
CONTINUOUS
 10
56.0340158942
 20
295.9303556929
 11
56.0340158942
 21
294.8309352518
  0
LINE
  5
27C
100
AcDbEntity
  8
0
100
AcDbLine
 62
7
  6
CONTINUOUS
 10
56.0340158942
 20
45.7315148107
 11
56.0340158942
 21
46.8309352518
  0
LINE
  5
27D
100
AcDbEntity
  8
0
100
AcDbLine
 62
7
  6
CONTINUOUS
 10
60.1339183201
 20
298.8309317351
 11
60.1339183201
 21
297.9309352518
  0
LINE
  5
27E
100
AcDbEntity
  8
0
100
AcDbLine
 62
7
  6
CONTINUOUS
 10
60.1339183201
 20
43.7309352518
 11
60.1339183201
 21
42.830933012
  0
LINE
  5
27F
100
AcDbEntity
  8
0
100
AcDbLine
 62
7
  6
CONTINUOUS
 10
60.5327148696
 20
76.3203500412
 11
60.5327148696
 21
265.3133571754
  0
LINE
  5
280
100
AcDbEntity
  8
0
100
AcDbLine
 62
7
  6
CONTINUOUS
 10
60.8238304257
 20
92.8309352518
 11
60.8238304257
 21
77.2175748814
  0
LINE
  5
281
100
AcDbEntity
  8
0
100
AcDbLine
 62
7
  6
CONTINUOUS
 10
61.0995806566
 20
92.6889313302
 11
61.0995806566
 21
92.8309352518
  0
LINE
  5
282
100
AcDbEntity
  8
0
100
AcDbLine
 62
7
  6
CONTINUOUS
 10
61.1162059295
 20
264.0085660138
 11
61.1162059295
 21
92.7062383909
  0
LINE
  5
283
100
AcDbEntity
  8
0
100
AcDbLine
 62
7
  6
CONTINUOUS
 10
60.5364584574
 20
298.8309317351
 11
60.5365251226
 21
299.0771120745
  0
LINE
  5
284
100
AcDbEntity
  8
0
100
AcDbLine
 62
7
  6
CONTINUOUS
 10
171.035766146
 20
319.8309352518
 11
169.0357573616
 21
317.8309488193
  0
LINE
  5
285
100
AcDbEntity
  8
0
100
AcDbLine
 62
7
  6
CONTINUOUS
 10
173.5320858943
 20
319.830931452
 11
171.5320855665
 21
317.8309320555
  0
LINE
  5
286
100
AcDbEntity
  8
0
100
AcDbLine
 62
7
  6
CONTINUOUS
 10
109.3147028091
 20
82.6699449941
 11
108.8197280622
 21
83.164919741
  0
LINE
  5
287
100
AcDbEntity
  8
0
100
AcDbLine
 62
7
  6
CONTINUOUS
 10
106.4267338307
 20
85.8519255095
 11
106.9217085776
 21
85.3569507626
  0
LINE
  5
288
100
AcDbEntity
  8
0
100
AcDbLine
 62
7
  6
CONTINUOUS
 10
111.5067338307
 20
85.8519255095
 11
112.0017085776
 21
85.3569507626
  0
LINE
  5
289
100
AcDbEntity
  8
0
100
AcDbLine
 62
7
  6
CONTINUOUS
 10
171.5311654198
 20
26.8309393049
 11
173.5311657476
 21
24.8309352518
  0
LINE
  5
28A
100
AcDbEntity
  8
0
100
AcDbLine
 62
7
  6
CONTINUOUS
 10
116.8888028091
 20
82.6699449941
 11
116.3938280622
 21
83.164919741
  0
LINE
  5
28B
100
AcDbEntity
  8
0
100
AcDbLine
 62
7
  6
CONTINUOUS
 10
121.9688028091
 20
82.6699449941
 11
121.4738280622
 21
83.164919741
  0
LINE
  5
28C
100
AcDbEntity
  8
0
100
AcDbLine
 62
7
  6
CONTINUOUS
 10
119.0808338307
 20
85.8519255095
 11
119.5758085776
 21
85.3569507626
  0
LINE
  5
28D
100
AcDbEntity
  8
0
100
AcDbLine
 62
7
  6
CONTINUOUS
 10
177.7831797825
 20
25.0808890929
 11
178.0329108524
 21
24.8309352518
  0
LINE
  5
28E
100
AcDbEntity
  8
0
100
AcDbLine
 62
7
  6
CONTINUOUS
 10
61.6833453876
 20
77.2705813699
 11
61.6833453876
 21
92.6889313302
  0
LINE
  5
28F
100
AcDbEntity
  8
0
100
AcDbLine
 62
7
  6
CONTINUOUS
 10
61.9939247316
 20
263.9701163419
 11
61.9939247316
 21
92.7241378691
  0
LINE
  5
290
100
AcDbEntity
  8
0
100
AcDbLine
 62
7
  6
CONTINUOUS
 10
62.1281899455
 20
298.8309317351
 11
62.1281899455
 21
294.8309352518
  0
LINE
  5
291
100
AcDbEntity
  8
0
100
AcDbLine
 62
7
  6
CONTINUOUS
 10
62.1281899455
 20
46.8309352518
 11
62.1281899455
 21
42.8309318434
  0
LINE
  5
292
100
AcDbEntity
  8
0
100
AcDbLine
 62
7
  6
CONTINUOUS
 10
64.5311671171
 20
33.3309316745
 11
64.5311683702
 21
26.8309393049
  0
LINE
  5
293
100
AcDbEntity
  8
0
100
AcDbLine
 62
7
  6
CONTINUOUS
 10
64.5339183199
 20
309.4442555928
 11
64.5339197206
 21
305.9641811614
  0
LINE
  5
294
100
AcDbEntity
  8
0
100
AcDbLine
 62
7
  6
CONTINUOUS
 10
71.4536165563
 20
92.6889313302
 11
71.4536165563
 21
77.3282642685
  0
LINE
  5
295
100
AcDbEntity
  8
0
100
AcDbLine
 62
7
  6
CONTINUOUS
 10
71.5321734833
 20
92.6889313302
 11
71.5321734833
 21
77.0664748035
  0
LINE
  5
296
100
AcDbEntity
  8
0
100
AcDbLine
 62
7
  6
CONTINUOUS
 10
71.5339183199
 20
305.9641812562
 11
71.5339183199
 21
309.4442555924
  0
LINE
  5
297
100
AcDbEntity
  8
0
100
AcDbLine
 62
7
  6
CONTINUOUS
 10
71.5348370659
 20
26.8309393049
 11
71.5348370659
 21
33.330945027
  0
LINE
  5
298
100
AcDbEntity
  8
0
100
AcDbLine
 62
7
  6
CONTINUOUS
 10
72.3108183199
 20
78.830919149
 11
72.3108183199
 21
79.6109204317
  0
LINE
  5
299
100
AcDbEntity
  8
0
100
AcDbLine
 62
7
  6
CONTINUOUS
 10
72.3108183199
 20
79.635315358
 11
72.3108183199
 21
92.6889313302
  0
LINE
  5
29A
100
AcDbEntity
  8
0
100
AcDbLine
 62
7
  6
CONTINUOUS
 10
127.0488028091
 20
82.6699449941
 11
126.5538280622
 21
83.164919741
  0
LINE
  5
29B
100
AcDbEntity
  8
0
100
AcDbLine
 62
7
  6
CONTINUOUS
 10
124.1608338307
 20
85.8519255095
 11
124.6558085776
 21
85.3569507626
  0
LINE
  5
29C
100
AcDbEntity
  8
0
100
AcDbLine
 62
7
  6
CONTINUOUS
 10
186.5330025839
 20
26.8309393049
 11
188.533010394
 21
24.8309352518
  0
LINE
  5
29D
100
AcDbEntity
  8
0
100
AcDbLine
 62
7
  6
CONTINUOUS
 10
132.1288028091
 20
82.6699449941
 11
131.6338280622
 21
83.164919741
  0
LINE
  5
29E
100
AcDbEntity
  8
0
100
AcDbLine
 62
7
  6
CONTINUOUS
 10
129.2408338307
 20
85.8519255095
 11
129.7358085776
 21
85.3569507626
  0
LINE
  5
29F
100
AcDbEntity
  8
0
100
AcDbLine
 62
7
  6
CONTINUOUS
 10
137.2088028091
 20
82.6699449941
 11
136.7138280622
 21
83.164919741
  0
LINE
  5
2A0
100
AcDbEntity
  8
0
100
AcDbLine
 62
7
  6
CONTINUOUS
 10
134.3208338307
 20
85.8519255095
 11
134.8158085776
 21
85.3569507626
  0
LINE
  5
2A1
100
AcDbEntity
  8
0
100
AcDbLine
 62
7
  6
CONTINUOUS
 10
142.1471669739
 20
28.3309352518
 11
139.260415628
 21
33.3309352518
  0
LINE
  5
2A2
100
AcDbEntity
  8
0
100
AcDbLine
 62
7
  6
CONTINUOUS
 10
79.5330018091
 20
317.8318484769
 11
79.5549872318
 21
310.9310807099
  0
LINE
  5
2A3
100
AcDbEntity
  8
0
100
AcDbLine
 62
7
  6
CONTINUOUS
 10
75.0339165616
 20
301.8646765991
 11
75.0339165616
 21
298.8309317351
  0
LINE
  5
2A4
100
AcDbEntity
  8
0
100
AcDbLine
 62
7
  6
CONTINUOUS
 10
79.5330018091
 20
33.2176067949
 11
79.5330018091
 21
26.8309393049
  0
LINE
  5
2A5
100
AcDbEntity
  8
0
100
AcDbLine
 62
7
  6
CONTINUOUS
 10
80.6067183199
 20
40.8309352518
 11
80.6067183199
 21
42.8309375479
  0
LINE
  5
2A6
100
AcDbEntity
  8
0
100
AcDbLine
 62
7
  6
CONTINUOUS
 10
80.6067183199
 20
298.8309317351
 11
80.6067183199
 21
300.8309352518
  0
LINE
  5
2A7
100
AcDbEntity
  8
0
100
AcDbLine
 62
7
  6
CONTINUOUS
 10
82.0320867288
 20
317.8309488193
 11
82.0320872398
 21
311.3309352554
  0
LINE
  5
2A8
100
AcDbEntity
  8
0
100
AcDbLine
 62
7
  6
CONTINUOUS
 10
82.0339158868
 20
36.6976856711
 11
82.0339158868
 21
33.4442591691
  0
LINE
  5
2A9
100
AcDbEntity
  8
0
100
AcDbLine
 62
7
  6
CONTINUOUS
 10
139.4008338307
 20
85.8519255095
 11
139.8958085776
 21
85.3569507626
  0
LINE
  5
2AA
100
AcDbEntity
  8
0
100
AcDbLine
 62
7
  6
CONTINUOUS
 10
144.7828028091
 20
82.6699449941
 11
144.2878280622
 21
83.164919741
  0
LINE
  5
2AB
100
AcDbEntity
  8
0
100
AcDbLine
 62
7
  6
CONTINUOUS
 10
149.8628028091
 20
82.6699449941
 11
149.3678280622
 21
83.164919741
  0
LINE
  5
2AC
100
AcDbEntity
  8
0
100
AcDbLine
 62
7
  6
CONTINUOUS
 10
146.9748338307
 20
85.8519255095
 11
147.4698085776
 21
85.3569507626
  0
LINE
  5
2AD
100
AcDbEntity
  8
0
100
AcDbLine
 62
7
  6
CONTINUOUS
 10
154.9428028091
 20
82.6699449941
 11
154.4478280622
 21
83.164919741
  0
LINE
  5
2AE
100
AcDbEntity
  8
0
100
AcDbLine
 62
7
  6
CONTINUOUS
 10
152.0548338307
 20
85.8519255095
 11
152.5498085776
 21
85.3569507626
  0
LINE
  5
2AF
100
AcDbEntity
  8
0
100
AcDbLine
 62
7
  6
CONTINUOUS
 10
147.9206696658
 20
38.3309352518
 11
150.8074210118
 21
33.3309352518
  0
LINE
  5
2B0
100
AcDbEntity
  8
0
100
AcDbLine
 62
7
  6
CONTINUOUS
 10
84.6708545829
 20
264.2540881759
 11
84.6708545829
 21
219.6364255565
  0
LINE
  5
2B1
100
AcDbEntity
  8
0
100
AcDbLine
 62
7
  6
CONTINUOUS
 10
89.0354702162
 20
33.2867723972
 11
89.0354702162
 21
36.6985068739
  0
LINE
  5
2B2
100
AcDbEntity
  8
0
100
AcDbLine
 62
7
  6
CONTINUOUS
 10
89.0357555583
 20
311.3309352554
 11
89.0357554244
 21
317.8309488193
  0
LINE
  5
2B3
100
AcDbEntity
  8
0
100
AcDbLine
 62
7
  6
CONTINUOUS
 10
90.4611183199
 20
40.8309352518
 11
90.4611183199
 21
42.8309375479
  0
LINE
  5
2B4
100
AcDbEntity
  8
0
100
AcDbLine
 62
7
  6
CONTINUOUS
 10
90.4611183199
 20
298.8309317351
 11
90.4611183199
 21
300.8309352518
  0
LINE
  5
2B5
100
AcDbEntity
  8
0
100
AcDbLine
 62
7
  6
CONTINUOUS
 10
91.5330000507
 20
26.8778481604
 11
91.5330000507
 21
33.2176067949
  0
LINE
  5
2B6
100
AcDbEntity
  8
0
100
AcDbLine
 62
7
  6
CONTINUOUS
 10
91.5330000507
 20
311.4442554851
 11
91.5330000507
 21
317.7840120242
  0
LINE
  5
2B7
100
AcDbEntity
  8
0
100
AcDbLine
 62
7
  6
CONTINUOUS
 10
60.823510146
 20
77.216587772
 11
60.5327148696
 21
76.3203500412
  0
LINE
  5
2B8
100
AcDbEntity
  8
0
100
AcDbLine
 62
7
  6
CONTINUOUS
 10
52.5339183199
 20
134.9073987802
 11
53.0339204061
 21
134.9073987802
  0
LINE
  5
2B9
100
AcDbEntity
  8
0
100
AcDbLine
 62
7
  6
CONTINUOUS
 10
53.0339204061
 20
136.8309352517
 11
52.5339183199
 21
136.8309352517
  0
LINE
  5
2BA
100
AcDbEntity
  8
0
100
AcDbLine
 62
7
  6
CONTINUOUS
 10
157.1348338307
 20
85.8519255095
 11
157.6298085776
 21
85.3569507626
  0
LINE
  5
2BB
100
AcDbEntity
  8
0
100
AcDbLine
 62
7
  6
CONTINUOUS
 10
60.5327148696
 20
265.3133571754
 11
61.1162059295
 21
264.0085660138
  0
LINE
  5
2BC
100
AcDbEntity
  8
0
100
AcDbLine
 62
7
  6
CONTINUOUS
 10
112.9508183199
 20
92.6889313302
 11
112.9508183199
 21
79.635315358
  0
LINE
  5
2BD
100
AcDbEntity
  8
0
100
AcDbLine
 62
7
  6
CONTINUOUS
 10
112.9508183199
 20
79.6109204317
 11
112.9508183199
 21
78.830919149
  0
LINE
  5
2BE
100
AcDbEntity
  8
0
100
AcDbLine
 62
7
  6
CONTINUOUS
 10
115.4538183199
 20
78.830919149
 11
115.4538183199
 21
79.6109204317
  0
LINE
  5
2BF
100
AcDbEntity
  8
0
100
AcDbLine
 62
7
  6
CONTINUOUS
 10
115.4538183199
 20
79.635315358
 11
115.4538183199
 21
92.6889313302
  0
LINE
  5
2C0
100
AcDbEntity
  8
0
100
AcDbLine
 62
7
  6
CONTINUOUS
 10
120.6067183199
 20
40.8309352518
 11
120.6067183199
 21
42.8309375479
  0
LINE
  5
2C1
100
AcDbEntity
  8
0
100
AcDbLine
 62
7
  6
CONTINUOUS
 10
120.6067183199
 20
298.8309317351
 11
120.6067183199
 21
300.8309352518
  0
LINE
  5
2C2
100
AcDbEntity
  8
0
100
AcDbLine
 62
7
  6
CONTINUOUS
 10
122.5339182938
 20
28.4212508322
 11
122.5339182938
 21
26.8309393049
  0
LINE
  5
2C3
100
AcDbEntity
  8
0
100
AcDbLine
 62
7
  6
CONTINUOUS
 10
189.9680643326
 20
92.6889313302
 11
189.9516307103
 21
92.7062383909
  0
LINE
  5
2C4
100
AcDbEntity
  8
0
100
AcDbLine
 62
7
  6
CONTINUOUS
 10
128.533918346
 20
26.8309393049
 11
128.533918346
 21
28.4212508322
  0
LINE
  5
2C5
100
AcDbEntity
  8
0
100
AcDbLine
 62
7
  6
CONTINUOUS
 10
130.4611183199
 20
40.8309352518
 11
130.4611183199
 21
42.8309375479
  0
LINE
  5
2C6
100
AcDbEntity
  8
0
100
AcDbLine
 62
7
  6
CONTINUOUS
 10
130.4611183199
 20
298.8309317351
 11
130.4611183199
 21
300.8309352518
  0
LINE
  5
2C7
100
AcDbEntity
  8
0
100
AcDbLine
 62
7
  6
CONTINUOUS
 10
61.1162059295
 20
92.7062383909
 11
61.0995806566
 21
92.6889313302
  0
LINE
  5
2C8
100
AcDbEntity
  8
0
100
AcDbLine
 62
7
  6
CONTINUOUS
 10
140.8538183199
 20
92.6889313302
 11
140.8538183199
 21
79.635315358
  0
LINE
  5
2C9
100
AcDbEntity
  8
0
100
AcDbLine
 62
7
  6
CONTINUOUS
 10
140.8538183199
 20
79.6109204317
 11
140.8538183199
 21
78.830919149
  0
LINE
  5
2CA
100
AcDbEntity
  8
0
100
AcDbLine
 62
7
  6
CONTINUOUS
 10
143.3388183199
 20
78.830919149
 11
143.3388183199
 21
79.6109204317
  0
LINE
  5
2CB
100
AcDbEntity
  8
0
100
AcDbLine
 62
7
  6
CONTINUOUS
 10
143.3388183199
 20
79.635315358
 11
143.3388183199
 21
92.6889313302
  0
LINE
  5
2CC
100
AcDbEntity
  8
0
100
AcDbLine
 62
7
  6
CONTINUOUS
 10
189.9516307103
 20
264.0085660138
 11
190.5283382322
 21
265.3132276715
  0
LINE
  5
2CD
100
AcDbEntity
  8
0
100
AcDbLine
 62
7
  6
CONTINUOUS
 10
158.5788183199
 20
92.6889313302
 11
158.5788183199
 21
79.635315358
  0
LINE
  5
2CE
100
AcDbEntity
  8
0
100
AcDbLine
 62
7
  6
CONTINUOUS
 10
158.5788183199
 20
79.6109204317
 11
158.5788183199
 21
78.830919149
  0
LINE
  5
2CF
100
AcDbEntity
  8
0
100
AcDbLine
 62
7
  6
CONTINUOUS
 10
159.5311671172
 20
33.170688534
 11
159.5311671781
 21
26.8309393049
  0
LINE
  5
2D0
100
AcDbEntity
  8
0
100
AcDbLine
 62
7
  6
CONTINUOUS
 10
159.5311671781
 20
317.8309320555
 11
159.5311671781
 21
311.4911748179
  0
LINE
  5
2D1
100
AcDbEntity
  8
0
100
AcDbLine
 62
7
  6
CONTINUOUS
 10
73.2597280622
 20
83.164919741
 11
75.9467338307
 21
85.8519255095
  0
LINE
  5
2D2
100
AcDbEntity
  8
0
100
AcDbLine
 62
7
  6
CONTINUOUS
 10
76.4417085776
 20
85.3569507626
 11
73.7547028091
 21
82.6699449941
  0
LINE
  5
2D3
100
AcDbEntity
  8
0
100
AcDbLine
 62
7
  6
CONTINUOUS
 10
78.3397280622
 20
83.164919741
 11
81.0267338307
 21
85.8519255095
  0
LINE
  5
2D4
100
AcDbEntity
  8
0
100
AcDbLine
 62
7
  6
CONTINUOUS
 10
81.5217085776
 20
85.3569507626
 11
78.8347028091
 21
82.6699449941
  0
LINE
  5
2D5
100
AcDbEntity
  8
0
100
AcDbLine
 62
7
  6
CONTINUOUS
 10
83.4197280622
 20
83.164919741
 11
86.1067338307
 21
85.8519255095
  0
LINE
  5
2D6
100
AcDbEntity
  8
0
100
AcDbLine
 62
7
  6
CONTINUOUS
 10
86.6017085776
 20
85.3569507626
 11
83.9147028091
 21
82.6699449941
  0
LINE
  5
2D7
100
AcDbEntity
  8
0
100
AcDbLine
 62
7
  6
CONTINUOUS
 10
190.5283382322
 20
76.3205285304
 11
190.240743451
 21
77.2172392471
  0
LINE
  5
2D8
100
AcDbEntity
  8
0
100
AcDbLine
 62
7
  6
CONTINUOUS
 10
160.6067183199
 20
40.8309352518
 11
160.6067183199
 21
42.8309375479
  0
LINE
  5
2D9
100
AcDbEntity
  8
0
100
AcDbLine
 62
7
  6
CONTINUOUS
 10
160.6067183199
 20
298.8309317351
 11
160.6067183199
 21
300.8309352518
  0
LINE
  5
2DA
100
AcDbEntity
  8
0
100
AcDbLine
 62
7
  6
CONTINUOUS
 10
161.6639183199
 20
89.9309352518
 11
161.6639183199
 21
92.6889313302
  0
LINE
  5
2DB
100
AcDbEntity
  8
0
100
AcDbLine
 62
7
  6
CONTINUOUS
 10
162.0320886659
 20
317.8309488193
 11
162.0320886659
 21
311.3309430973
  0
LINE
  5
2DC
100
AcDbEntity
  8
0
100
AcDbLine
 62
7
  6
CONTINUOUS
 10
162.0339158868
 20
36.6976856711
 11
162.0339158868
 21
33.4442591691
  0
LINE
  5
2DD
100
AcDbEntity
  8
0
100
AcDbLine
 62
7
  6
CONTINUOUS
 10
166.4249667343
 20
226.6822358009
 11
166.4249667343
 21
264.2540881759
  0
LINE
  5
2DE
100
AcDbEntity
  8
0
100
AcDbLine
 62
7
  6
CONTINUOUS
 10
169.0354702162
 20
33.2867723972
 11
169.0354702162
 21
36.6985068739
  0
LINE
  5
2DF
100
AcDbEntity
  8
0
100
AcDbLine
 62
7
  6
CONTINUOUS
 10
169.0357555582
 20
311.3309352554
 11
169.0357573616
 21
317.8309488193
  0
LINE
  5
2E0
100
AcDbEntity
  8
0
100
AcDbLine
 62
7
  6
CONTINUOUS
 10
170.4611183199
 20
40.8309352518
 11
170.4611183199
 21
42.8309375479
  0
LINE
  5
2E1
100
AcDbEntity
  8
0
100
AcDbLine
 62
7
  6
CONTINUOUS
 10
170.4611183199
 20
298.8309317351
 11
170.4611183199
 21
300.8309352518
  0
LINE
  5
2E2
100
AcDbEntity
  8
0
100
AcDbLine
 62
7
  6
CONTINUOUS
 10
88.4997280622
 20
83.164919741
 11
91.1867338307
 21
85.8519255095
  0
LINE
  5
2E3
100
AcDbEntity
  8
0
100
AcDbLine
 62
7
  6
CONTINUOUS
 10
91.6817085776
 20
85.3569507626
 11
88.9947028091
 21
82.6699449941
  0
LINE
  5
2E4
100
AcDbEntity
  8
0
100
AcDbLine
 62
7
  6
CONTINUOUS
 10
93.5797280622
 20
83.164919741
 11
96.2667338307
 21
85.8519255095
  0
LINE
  5
2E5
100
AcDbEntity
  8
0
100
AcDbLine
 62
7
  6
CONTINUOUS
 10
96.7617085776
 20
85.3569507626
 11
94.0747028091
 21
82.6699449941
  0
LINE
  5
2E6
100
AcDbEntity
  8
0
100
AcDbLine
 62
7
  6
CONTINUOUS
 10
98.6597280622
 20
83.164919741
 11
101.3467338307
 21
85.8519255095
  0
LINE
  5
2E7
100
AcDbEntity
  8
0
100
AcDbLine
 62
7
  6
CONTINUOUS
 10
101.8417085776
 20
85.3569507626
 11
99.1547028091
 21
82.6699449941
  0
LINE
  5
2E8
100
AcDbEntity
  8
0
100
AcDbLine
 62
7
  6
CONTINUOUS
 10
171.5311654198
 20
26.8309393049
 11
171.5311654198
 21
33.1706979395
  0
LINE
  5
2E9
100
AcDbEntity
  8
0
100
AcDbLine
 62
7
  6
CONTINUOUS
 10
171.5320855665
 20
311.4911749343
 11
171.5320855665
 21
317.8309320555
  0
LINE
  5
2EA
100
AcDbEntity
  8
0
100
AcDbLine
 62
7
  6
CONTINUOUS
 10
176.0339163529
 20
301.8646350767
 11
176.0339163529
 21
298.8309317351
  0
LINE
  5
2EB
100
AcDbEntity
  8
0
100
AcDbLine
 62
7
  6
CONTINUOUS
 10
178.0639183199
 20
89.9309352518
 11
178.0639183199
 21
92.6889313302
  0
LINE
  5
2EC
100
AcDbEntity
  8
0
100
AcDbLine
 62
7
  6
CONTINUOUS
 10
179.5330012523
 20
33.3309316756
 11
179.5329995739
 21
26.8309393049
  0
LINE
  5
2ED
100
AcDbEntity
  8
0
100
AcDbLine
 62
7
  6
CONTINUOUS
 10
179.5339183199
 20
309.4442555928
 11
179.5339197206
 21
305.9641811614
  0
LINE
  5
2EE
100
AcDbEntity
  8
0
100
AcDbLine
 62
7
  6
CONTINUOUS
 10
181.2356621313
 20
92.6889313302
 11
181.2356621313
 21
77.0664748035
  0
LINE
  5
2EF
100
AcDbEntity
  8
0
100
AcDbLine
 62
7
  6
CONTINUOUS
 10
181.3156016163
 20
92.6889313302
 11
181.3156016163
 21
77.3201424732
  0
LINE
  5
2F0
100
AcDbEntity
  8
0
100
AcDbLine
 62
7
  6
CONTINUOUS
 10
103.7397280622
 20
83.164919741
 11
106.4267338307
 21
85.8519255095
  0
LINE
  5
2F1
100
AcDbEntity
  8
0
100
AcDbLine
 62
7
  6
CONTINUOUS
 10
106.9217085776
 20
85.3569507626
 11
104.2347028091
 21
82.6699449941
  0
LINE
  5
2F2
100
AcDbEntity
  8
0
100
AcDbLine
 62
7
  6
CONTINUOUS
 10
108.8197280622
 20
83.164919741
 11
111.5067338307
 21
85.8519255095
  0
LINE
  5
2F3
100
AcDbEntity
  8
0
100
AcDbLine
 62
7
  6
CONTINUOUS
 10
112.0017085776
 20
85.3569507626
 11
109.3147028091
 21
82.6699449941
  0
LINE
  5
2F4
100
AcDbEntity
  8
0
100
AcDbLine
 62
7
  6
CONTINUOUS
 10
103.1471669739
 20
306.3309352518
 11
100.260415628
 21
311.3309352518
  0
LINE
  5
2F5
100
AcDbEntity
  8
0
100
AcDbLine
 62
7
  6
CONTINUOUS
 10
186.5330025839
 20
26.8309393049
 11
186.5330012523
 21
33.3309316756
  0
LINE
  5
2F6
100
AcDbEntity
  8
0
100
AcDbLine
 62
7
  6
CONTINUOUS
 10
186.5339183199
 20
305.9641812562
 11
186.5339183199
 21
309.4442555924
  0
LINE
  5
2F7
100
AcDbEntity
  8
0
100
AcDbLine
 62
7
  6
CONTINUOUS
 10
188.9396466943
 20
42.8309318434
 11
188.9396466943
 21
46.8309352518
  0
LINE
  5
2F8
100
AcDbEntity
  8
0
100
AcDbLine
 62
7
  6
CONTINUOUS
 10
188.9396466943
 20
294.8309352518
 11
188.9396466943
 21
298.8309317351
  0
LINE
  5
2F9
100
AcDbEntity
  8
0
100
AcDbLine
 62
7
  6
CONTINUOUS
 10
189.0638098977
 20
263.970052901
 11
189.0638098977
 21
92.7241674028
  0
LINE
  5
2FA
100
AcDbEntity
  8
0
100
AcDbLine
 62
7
  6
CONTINUOUS
 10
189.356163402
 20
92.6889313302
 11
189.356163402
 21
77.2709313866
  0
LINE
  5
2FB
100
AcDbEntity
  8
0
100
AcDbLine
 62
7
  6
CONTINUOUS
 10
189.9516307103
 20
92.7062383909
 11
189.9516307103
 21
264.0085660138
  0
LINE
  5
2FC
100
AcDbEntity
  8
0
100
AcDbLine
 62
7
  6
CONTINUOUS
 10
189.9680643326
 20
92.8309352518
 11
189.9680643326
 21
92.6889313302
  0
LINE
  5
2FD
100
AcDbEntity
  8
0
100
AcDbLine
 62
7
  6
CONTINUOUS
 10
190.2406358057
 20
77.2175748814
 11
190.2406358057
 21
92.8309352518
  0
LINE
  5
2FE
100
AcDbEntity
  8
0
100
AcDbLine
 62
7
  6
CONTINUOUS
 10
190.5283382322
 20
265.3132276715
 11
190.5283382322
 21
76.3205285304
  0
LINE
  5
2FF
100
AcDbEntity
  8
0
100
AcDbLine
 62
7
  6
CONTINUOUS
 10
190.5339183199
 20
319.830931452
 11
190.5339183199
 21
298.8309317351
  0
LINE
  5
300
100
AcDbEntity
  8
0
100
AcDbLine
 62
7
  6
CONTINUOUS
 10
190.9339183197
 20
42.830933012
 11
190.9339183197
 21
43.7309352518
  0
LINE
  5
301
100
AcDbEntity
  8
0
100
AcDbLine
 62
7
  6
CONTINUOUS
 10
190.9339183197
 20
297.9309352518
 11
190.9339183197
 21
298.8309317351
  0
LINE
  5
302
100
AcDbEntity
  8
0
100
AcDbLine
 62
7
  6
CONTINUOUS
 10
116.3938280622
 20
83.164919741
 11
119.0808338307
 21
85.8519255095
  0
LINE
  5
303
100
AcDbEntity
  8
0
100
AcDbLine
 62
7
  6
CONTINUOUS
 10
119.5758085776
 20
85.3569507626
 11
116.8888028091
 21
82.6699449941
  0
LINE
  5
304
100
AcDbEntity
  8
0
100
AcDbLine
 62
7
  6
CONTINUOUS
 10
62.5311605601
 20
24.8309352518
 11
64.5311683702
 21
26.8309393049
  0
LINE
  5
305
100
AcDbEntity
  8
0
100
AcDbLine
 62
7
  6
CONTINUOUS
 10
121.4738280622
 20
83.164919741
 11
124.1608338307
 21
85.8519255095
  0
LINE
  5
306
100
AcDbEntity
  8
0
100
AcDbLine
 62
7
  6
CONTINUOUS
 10
124.6558085776
 20
85.3569507626
 11
121.9688028091
 21
82.6699449941
  0
LINE
  5
307
100
AcDbEntity
  8
0
100
AcDbLine
 62
7
  6
CONTINUOUS
 10
126.5538280622
 20
83.164919741
 11
129.2408338307
 21
85.8519255095
  0
LINE
  5
308
100
AcDbEntity
  8
0
100
AcDbLine
 62
7
  6
CONTINUOUS
 10
129.7358085776
 20
85.3569507626
 11
127.0488028091
 21
82.6699449941
  0
LINE
  5
309
100
AcDbEntity
  8
0
100
AcDbLine
 62
7
  6
CONTINUOUS
 10
131.6338280622
 20
83.164919741
 11
134.3208338307
 21
85.8519255095
  0
LINE
  5
30A
100
AcDbEntity
  8
0
100
AcDbLine
 62
7
  6
CONTINUOUS
 10
73.0329104053
 20
24.8309352518
 11
73.2840954003
 21
25.0818967839
  0
LINE
  5
30B
100
AcDbEntity
  8
0
100
AcDbLine
 62
7
  6
CONTINUOUS
 10
108.9206696658
 20
316.3309352518
 11
111.8074210118
 21
311.3309352518
  0
LINE
  5
30C
100
AcDbEntity
  8
0
100
AcDbLine
 62
7
  6
CONTINUOUS
 10
195.0338207456
 20
295.9303556929
 11
195.0338207456
 21
294.8309352518
  0
LINE
  5
30D
100
AcDbEntity
  8
0
100
AcDbLine
 62
7
  6
CONTINUOUS
 10
195.0338207456
 20
45.7315148107
 11
195.0338207456
 21
46.8309352518
  0
LINE
  5
30E
100
AcDbEntity
  8
0
100
AcDbLine
 62
7
  6
CONTINUOUS
 10
195.7339220035
 20
319.830931452
 11
195.7339220035
 21
298.8309317351
  0
LINE
  5
30F
100
AcDbEntity
  8
0
100
AcDbLine
 62
7
  6
CONTINUOUS
 10
195.7339220035
 20
42.830933012
 11
195.7339220035
 21
24.8309352518
  0
LINE
  5
310
100
AcDbEntity
  8
0
100
AcDbLine
 62
7
  6
CONTINUOUS
 10
196.5339206445
 20
24.8309352518
 11
196.5339206445
 21
42.830933012
  0
LINE
  5
311
100
AcDbEntity
  8
0
100
AcDbLine
 62
7
  6
CONTINUOUS
 10
196.5339206445
 20
298.8309317351
 11
196.5339206445
 21
319.830931452
  0
LINE
  5
312
100
AcDbEntity
  8
0
100
AcDbLine
 62
7
  6
CONTINUOUS
 10
197.1597426879
 20
294.8309352518
 11
197.1597426879
 21
276.8309318543
  0
LINE
  5
313
100
AcDbEntity
  8
0
100
AcDbLine
 62
7
  6
CONTINUOUS
 10
197.4562287008
 20
64.8330400512
 11
197.4562287008
 21
46.8309352518
  0
LINE
  5
314
100
AcDbEntity
  8
0
100
AcDbLine
 62
7
  6
CONTINUOUS
 10
197.4965424303
 20
265.3248602062
 11
197.4965424303
 21
76.3044959497
  0
LINE
  5
315
100
AcDbEntity
  8
0
100
AcDbLine
 62
7
  6
CONTINUOUS
 10
197.7896703076
 20
276.8309318543
 11
197.7896703076
 21
276.7309352518
  0
LINE
  5
316
100
AcDbEntity
  8
0
100
AcDbLine
 62
7
  6
CONTINUOUS
 10
197.8052245748
 20
276.3309308411
 11
197.8052245748
 21
265.3309309007
  0
LINE
  5
317
100
AcDbEntity
  8
0
100
AcDbLine
 62
7
  6
CONTINUOUS
 10
197.8052245748
 20
76.2961289944
 11
197.8052245748
 21
65.330935371
  0
LINE
  5
318
100
AcDbEntity
  8
0
100
AcDbLine
 62
7
  6
CONTINUOUS
 10
197.9595776236
 20
46.8309352518
 11
197.9595776236
 21
64.8323868855
  0
LINE
  5
319
100
AcDbEntity
  8
0
100
AcDbLine
 62
7
  6
CONTINUOUS
 10
197.9595776236
 20
65.330935371
 11
197.9595776236
 21
276.3309308411
  0
LINE
  5
31A
100
AcDbEntity
  8
0
100
AcDbLine
 62
7
  6
CONTINUOUS
 10
197.9760634187
 20
64.8309269071
 11
197.9760634187
 21
65.330935371
  0
LINE
  5
31B
100
AcDbEntity
  8
0
100
AcDbLine
 62
7
  6
CONTINUOUS
 10
197.9760634187
 20
276.3309308411
 11
197.9760634187
 21
276.7309352518
  0
LINE
  5
31C
100
AcDbEntity
  8
0
100
AcDbLine
 62
7
  6
CONTINUOUS
 10
197.9816214047
 20
276.7309352518
 11
197.9816214047
 21
294.8309352518
  0
LINE
  5
31D
100
AcDbEntity
  8
0
100
AcDbLine
 62
7
  6
CONTINUOUS
 10
198.033918132
 20
319.830931452
 11
198.033918132
 21
24.8309352518
  0
LINE
  5
31E
100
AcDbEntity
  8
0
100
AcDbLine
 62
7
  6
CONTINUOUS
 10
199.0339183199
 20
205.8319479156
 11
199.0339183199
 21
203.789922588
  0
LINE
  5
31F
100
AcDbEntity
  8
0
100
AcDbLine
 62
7
  6
CONTINUOUS
 10
199.0339183199
 20
119.8319479156
 11
199.0339183199
 21
117.789922588
  0
LINE
  5
320
100
AcDbEntity
  8
0
100
AcDbLine
 62
7
  6
CONTINUOUS
 10
134.8158085776
 20
85.3569507626
 11
132.1288028091
 21
82.6699449941
  0
LINE
  5
321
100
AcDbEntity
  8
0
100
AcDbLine
 62
7
  6
CONTINUOUS
 10
77.5330014812
 20
24.8309352518
 11
79.5330018091
 21
26.8309393049
  0
LINE
  5
322
100
AcDbEntity
  8
0
100
AcDbLine
 62
7
  6
CONTINUOUS
 10
136.7138280622
 20
83.164919741
 11
139.4008338307
 21
85.8519255095
  0
LINE
  5
323
100
AcDbEntity
  8
0
100
AcDbLine
 62
7
  6
CONTINUOUS
 10
139.8958085776
 20
85.3569507626
 11
137.2088028091
 21
82.6699449941
  0
LINE
  5
324
100
AcDbEntity
  8
0
100
AcDbLine
 62
7
  6
CONTINUOUS
 10
144.2878280622
 20
83.164919741
 11
146.9748338307
 21
85.8519255095
  0
LINE
  5
325
100
AcDbEntity
  8
0
100
AcDbLine
 62
7
  6
CONTINUOUS
 10
147.4698085776
 20
85.3569507626
 11
144.7828028091
 21
82.6699449941
  0
LINE
  5
326
100
AcDbEntity
  8
0
100
AcDbLine
 62
7
  6
CONTINUOUS
 10
52.5339183199
 20
245.8309352517
 11
53.0339204061
 21
245.8309352517
  0
LINE
  5
327
100
AcDbEntity
  8
0
100
AcDbLine
 62
7
  6
CONTINUOUS
 10
53.0339204061
 20
246.8309352517
 11
52.5339183199
 21
246.8309352517
  0
LINE
  5
328
100
AcDbEntity
  8
0
100
AcDbLine
 62
7
  6
CONTINUOUS
 10
79.5330018091
 20
317.8318484769
 11
77.5339179027
 21
319.830931452
  0
LINE
  5
329
100
AcDbEntity
  8
0
100
AcDbLine
 62
7
  6
CONTINUOUS
 10
82.0320867288
 20
317.8309488193
 11
80.0320742191
 21
319.8309352518
  0
LINE
  5
32A
100
AcDbEntity
  8
0
100
AcDbLine
 62
7
  6
CONTINUOUS
 10
181.2356621313
 20
77.0664748035
 11
181.3156016163
 21
77.3201424732
  0
LINE
  5
32B
100
AcDbEntity
  8
0
100
AcDbLine
 62
7
  6
CONTINUOUS
 10
139.260415628
 20
33.3309352518
 11
142.1471669739
 21
38.3309352518
  0
LINE
  5
32C
100
AcDbEntity
  8
0
100
AcDbLine
 62
7
  6
CONTINUOUS
 10
149.3678280622
 20
83.164919741
 11
152.0548338307
 21
85.8519255095
  0
LINE
  5
32D
100
AcDbEntity
  8
0
100
AcDbLine
 62
7
  6
CONTINUOUS
 10
152.5498085776
 20
85.3569507626
 11
149.8628028091
 21
82.6699449941
  0
LINE
  5
32E
100
AcDbEntity
  8
0
100
AcDbLine
 62
7
  6
CONTINUOUS
 10
154.4478280622
 20
83.164919741
 11
157.1348338307
 21
85.8519255095
  0
LINE
  5
32F
100
AcDbEntity
  8
0
100
AcDbLine
 62
7
  6
CONTINUOUS
 10
157.6298085776
 20
85.3569507626
 11
154.9428028091
 21
82.6699449941
  0
LINE
  5
330
100
AcDbEntity
  8
0
100
AcDbLine
 62
7
  6
CONTINUOUS
 10
150.8074210118
 20
33.3309352518
 11
147.9206696658
 21
28.3309352518
  0
LINE
  5
331
100
AcDbEntity
  8
0
100
AcDbLine
 62
7
  6
CONTINUOUS
 10
190.5283382322
 20
265.3132276715
 11
197.4965424303
 21
265.3248602062
  0
LINE
  5
332
100
AcDbEntity
  8
0
100
AcDbLine
 62
7
  6
CONTINUOUS
 10
83.7463876289
 20
264.2540881759
 11
166.7225170619
 21
264.2540881759
  0
LINE
  5
333
100
AcDbEntity
  8
0
100
AcDbLine
 62
7
  6
CONTINUOUS
 10
197.8052245748
 20
265.3309309007
 11
53.2496686477
 21
265.3309309007
  0
LINE
  5
334
100
AcDbEntity
  8
0
100
AcDbLine
 62
7
  6
CONTINUOUS
 10
120.5339184316
 20
24.8309352518
 11
122.5339182938
 21
26.8309393049
  0
LINE
  5
335
100
AcDbEntity
  8
0
100
AcDbLine
 62
7
  6
CONTINUOUS
 10
53.1024030365
 20
276.3309308411
 11
197.9597984818
 21
276.3309308411
  0
LINE
  5
336
100
AcDbEntity
  8
0
100
AcDbLine
 62
7
  6
CONTINUOUS
 10
197.7896703076
 20
276.7309352518
 11
197.9760634187
 21
276.7309352518
  0
LINE
  5
337
100
AcDbEntity
  8
0
100
AcDbLine
 62
7
  6
CONTINUOUS
 10
197.7896703076
 20
276.8309318543
 11
53.0795733136
 21
276.8309318543
  0
LINE
  5
338
100
AcDbEntity
  8
0
100
AcDbLine
 62
7
  6
CONTINUOUS
 10
52.5339183199
 20
278.8309352517
 11
53.0339204061
 21
278.8309352517
  0
LINE
  5
339
100
AcDbEntity
  8
0
100
AcDbLine
 62
7
  6
CONTINUOUS
 10
53.0339204061
 20
279.8309352517
 11
52.5339183199
 21
279.8309352517
  0
LINE
  5
33A
100
AcDbEntity
  8
0
100
AcDbLine
 62
7
  6
CONTINUOUS
 10
157.5311668503
 20
24.8309352518
 11
159.5311671781
 21
26.8309393049
  0
LINE
  5
33B
100
AcDbEntity
  8
0
100
AcDbLine
 62
7
  6
CONTINUOUS
 10
53.0840050155
 20
294.8309352518
 11
62.1281899455
 21
294.8309352518
  0
LINE
  5
33C
100
AcDbEntity
  8
0
100
AcDbLine
 62
7
  6
CONTINUOUS
 10
188.9396466943
 20
294.8309352518
 11
198.0339162337
 21
294.8309352518
  0
LINE
  5
33D
100
AcDbEntity
  8
0
100
AcDbLine
 62
7
  6
CONTINUOUS
 10
56.0340158942
 20
295.9303556929
 11
62.1281899455
 21
295.9303556929
  0
LINE
  5
33E
100
AcDbEntity
  8
0
100
AcDbLine
 62
7
  6
CONTINUOUS
 10
188.9396466943
 20
295.9303556929
 11
195.0338207456
 21
295.9303556929
  0
LINE
  5
33F
100
AcDbEntity
  8
0
100
AcDbLine
 62
7
  6
CONTINUOUS
 10
58.0339670577
 20
297.9309352518
 11
62.0338695821
 21
297.9309352518
  0
LINE
  5
340
100
AcDbEntity
  8
0
100
AcDbLine
 62
7
  6
CONTINUOUS
 10
189.0339670577
 20
297.9309352518
 11
193.0338695821
 21
297.9309352518
  0
LINE
  5
341
100
AcDbEntity
  8
0
100
AcDbLine
 62
7
  6
CONTINUOUS
 10
53.0339204061
 20
298.8309317351
 11
198.0339163567
 21
298.8309317351
  0
LINE
  5
342
100
AcDbEntity
  8
0
100
AcDbLine
 62
7
  6
CONTINUOUS
 10
170.4611183199
 20
300.8309352518
 11
160.6067183199
 21
300.8309352518
  0
LINE
  5
343
100
AcDbEntity
  8
0
100
AcDbLine
 62
7
  6
CONTINUOUS
 10
130.4611183199
 20
300.8309352518
 11
120.6067183199
 21
300.8309352518
  0
LINE
  5
344
100
AcDbEntity
  8
0
100
AcDbLine
 62
7
  6
CONTINUOUS
 10
90.4611183199
 20
300.8309352518
 11
80.6067183199
 21
300.8309352518
  0
LINE
  5
345
100
AcDbEntity
  8
0
100
AcDbLine
 62
7
  6
CONTINUOUS
 10
159.5311671781
 20
317.8309320555
 11
157.5311668503
 21
319.830931452
  0
LINE
  5
346
100
AcDbEntity
  8
0
100
AcDbLine
 62
7
  6
CONTINUOUS
 10
162.0320886659
 20
317.8309488193
 11
160.0320761562
 21
319.8309352518
  0
LINE
  5
347
100
AcDbEntity
  8
0
100
AcDbLine
 62
7
  6
CONTINUOUS
 10
177.5330029714
 20
24.8309352518
 11
179.5329995739
 21
26.8309393049
  0
LINE
  5
348
100
AcDbEntity
  8
0
100
AcDbLine
 62
7
  6
CONTINUOUS
 10
108.9206696658
 20
306.3309352518
 11
103.1471669739
 21
306.3309352518
  0
LINE
  5
349
100
AcDbEntity
  8
0
100
AcDbLine
 62
7
  6
CONTINUOUS
 10
103.1471669739
 20
316.3309352518
 11
108.9206696658
 21
316.3309352518
  0
LINE
  5
34A
100
AcDbEntity
  8
0
100
AcDbLine
 62
7
  6
CONTINUOUS
 10
198.033918097
 20
317.9515467108
 11
196.5339206445
 21
317.9515467108
  0
LINE
  5
34B
100
AcDbEntity
  8
0
100
AcDbLine
 62
7
  6
CONTINUOUS
 10
54.5339159953
 20
317.9515467108
 11
53.0339204061
 21
317.9515467108
  0
LINE
  5
34C
100
AcDbEntity
  8
0
100
AcDbLine
 62
7
  6
CONTINUOUS
 10
53.0339204061
 20
319.830931452
 11
80.0320742191
 21
319.8309352518
  0
LINE
  5
34D
100
AcDbEntity
  8
0
100
AcDbLine
 62
7
  6
CONTINUOUS
 10
91.0357679341
 20
319.8309352518
 11
160.0320761562
 21
319.8309352518
  0
LINE
  5
34E
100
AcDbEntity
  8
0
100
AcDbLine
 62
7
  6
CONTINUOUS
 10
171.035766146
 20
319.8309352518
 11
198.033918132
 21
319.830931452
  0
ARC
  5
34F
100
AcDbEntity
  8
0
100
AcDbCircle
 62
7
  6
CONTINUOUS
 10
68.0339183199
 20
33.3309352518
 40
5.9999991208
100
AcDbArc
 50
234.9240798903
 51
304.9097127409
  0
ARC
  5
350
100
AcDbEntity
  8
0
100
AcDbCircle
 62
7
  6
CONTINUOUS
 10
68.0339183199
 20
33.3309352518
 40
4.9999970943
100
AcDbArc
 50
227.5895062282
 51
312.3694358908
  0
ARC
  5
351
100
AcDbEntity
  8
0
100
AcDbCircle
 62
7
  6
CONTINUOUS
 10
68.0339183199
 20
33.3309352518
 40
4.8999986846
100
AcDbArc
 50
222.3907918644
 51
317.5785672023
  0
ARC
  5
352
100
AcDbEntity
  8
0
100
AcDbCircle
 62
7
  6
CONTINUOUS
 10
68.0339183199
 20
33.3309352518
 40
4.3999986846
100
AcDbArc
 50
211.7867399845
 51
328.1576325498
  0
ARC
  5
353
100
AcDbEntity
  8
0
100
AcDbCircle
 62
7
  6
CONTINUOUS
 10
68.0330020915
 20
33.3309308363
 40
3.5018349744
100
AcDbArc
 50
0.0002321825
 51
180.0
  0
ARC
  5
354
100
AcDbEntity
  8
0
100
AcDbCircle
 62
7
  6
CONTINUOUS
 10
62.0338695821
 20
45.730886514
 40
1.9999512622
100
AcDbArc
 50
270.0
 51
273.0013287239
  0
ARC
  5
355
100
AcDbEntity
  8
0
100
AcDbCircle
 62
7
  6
CONTINUOUS
 10
58.0339670577
 20
45.730886514
 40
1.9999512622
100
AcDbArc
 50
179.9820001857
 51
270.0
  0
CIRCLE
  5
356
100
AcDbEntity
  8
0
100
AcDbCircle
 62
7
  6
CONTINUOUS
 10
60.0339183199
 20
70.3309352518
 40
3.9999024257
  0
CIRCLE
  5
357
100
AcDbEntity
  8
0
100
AcDbCircle
 62
7
  6
CONTINUOUS
 10
60.0339183199
 20
70.3309352518
 40
1.9999512622
  0
ARC
  5
358
100
AcDbEntity
  8
0
100
AcDbCircle
 62
7
  6
CONTINUOUS
 10
85.5339150948
 20
43.3309354479
 40
7.4999998038
100
AcDbArc
 50
297.8315735231
 51
305.195901595
  0
ARC
  5
359
100
AcDbEntity
  8
0
100
AcDbCircle
 62
7
  6
CONTINUOUS
 10
85.5339150948
 20
43.3309354479
 40
7.4999998038
100
AcDbArc
 50
234.7153513014
 51
242.1818667661
  0
ARC
  5
35A
100
AcDbEntity
  8
0
100
AcDbCircle
 62
7
  6
CONTINUOUS
 10
85.5330009299
 20
33.2176087245
 40
5.9999991208
100
AcDbArc
 50
0.0
 51
180.0
  0
CIRCLE
  5
35B
100
AcDbEntity
  8
0
100
AcDbCircle
 62
7
  6
CONTINUOUS
 10
85.5439183199
 20
56.4309352518
 40
5.9
  0
ARC
  5
35C
100
AcDbEntity
  8
0
100
AcDbCircle
 62
7
  6
CONTINUOUS
 10
85.5339152133
 20
33.3309346142
 40
3.5018334826
100
AcDbArc
 50
178.1454993239
 51
359.277414036
  0
CIRCLE
  5
35D
100
AcDbEntity
  8
0
100
AcDbCircle
 62
7
  6
CONTINUOUS
 10
90.0907183199
 20
84.2609352518
 40
2.0
  0
CIRCLE
  5
35E
100
AcDbEntity
  8
0
100
AcDbCircle
 62
7
  6
CONTINUOUS
 10
85.0107183199
 20
84.2609352518
 40
2.0
  0
CIRCLE
  5
35F
100
AcDbEntity
  8
0
100
AcDbCircle
 62
7
  6
CONTINUOUS
 10
79.9307183199
 20
84.2609352518
 40
2.0
  0
CIRCLE
  5
360
100
AcDbEntity
  8
0
100
AcDbCircle
 62
7
  6
CONTINUOUS
 10
74.8507183199
 20
84.2609352518
 40
2.0
  0
CIRCLE
  5
361
100
AcDbEntity
  8
0
100
AcDbCircle
 62
7
  6
CONTINUOUS
 10
73.5339183199
 20
118.8309352518
 40
2.7
  0
CIRCLE
  5
362
100
AcDbEntity
  8
0
100
AcDbCircle
 62
7
  6
CONTINUOUS
 10
110.4107183199
 20
84.2609352518
 40
2.0
  0
CIRCLE
  5
363
100
AcDbEntity
  8
0
100
AcDbCircle
 62
7
  6
CONTINUOUS
 10
105.3307183199
 20
84.2609352518
 40
2.0
  0
CIRCLE
  5
364
100
AcDbEntity
  8
0
100
AcDbCircle
 62
7
  6
CONTINUOUS
 10
100.2507183199
 20
84.2609352518
 40
2.0
  0
CIRCLE
  5
365
100
AcDbEntity
  8
0
100
AcDbCircle
 62
7
  6
CONTINUOUS
 10
95.1707183199
 20
84.2609352518
 40
2.0
  0
CIRCLE
  5
366
100
AcDbEntity
  8
0
100
AcDbCircle
 62
7
  6
CONTINUOUS
 10
123.0648183199
 20
84.2609352518
 40
2.0
  0
CIRCLE
  5
367
100
AcDbEntity
  8
0
100
AcDbCircle
 62
7
  6
CONTINUOUS
 10
117.9848183199
 20
84.2609352518
 40
2.0
  0
ARC
  5
368
100
AcDbEntity
  8
0
100
AcDbCircle
 62
7
  6
CONTINUOUS
 10
107.2139183199
 20
169.6309352518
 40
3.5000000521
100
AcDbArc
 50
114.6678689225
 51
245.3321310636
  0
ARC
  5
369
100
AcDbEntity
  8
0
100
AcDbCircle
 62
7
  6
CONTINUOUS
 10
-109.1551974042
 20
247.6517976363
 40
276.3768249875
100
AcDbArc
 50
341.5909840232
 51
3.4439002239
  0
ARC
  5
36A
100
AcDbEntity
  8
0
100
AcDbCircle
 62
7
  6
CONTINUOUS
 10
77.7877280163
 20
183.4442518237
 40
78.7463957897
100
AcDbArc
 50
319.1202190086
 51
342.9630340819
  0
CIRCLE
  5
36B
100
AcDbEntity
  8
0
100
AcDbCircle
 62
7
  6
CONTINUOUS
 10
69.5339183199
 20
255.3309352518
 40
4.0
  0
CIRCLE
  5
36C
100
AcDbEntity
  8
0
100
AcDbCircle
 62
7
  6
CONTINUOUS
 10
60.0339183199
 20
271.3309352518
 40
3.9999024257
  0
CIRCLE
  5
36D
100
AcDbEntity
  8
0
100
AcDbCircle
 62
7
  6
CONTINUOUS
 10
60.0339183199
 20
271.3309352518
 40
1.9999512622
  0
ARC
  5
36E
100
AcDbEntity
  8
0
100
AcDbCircle
 62
7
  6
CONTINUOUS
 10
68.0339191101
 20
299.3309326223
 40
7.4999987939
100
AcDbArc
 50
117.8181388733
 51
185.1087815358
  0
ARC
  5
36F
100
AcDbEntity
  8
0
100
AcDbCircle
 62
7
  6
CONTINUOUS
 10
68.0339191101
 20
299.3309326223
 40
7.4999987939
100
AcDbArc
 50
353.8364681148
 51
62.1818626793
  0
ARC
  5
370
100
AcDbEntity
  8
0
100
AcDbCircle
 62
7
  6
CONTINUOUS
 10
68.0339183199
 20
309.3409352518
 40
5.9999991208
100
AcDbArc
 50
225.7891740921
 51
314.0582296399
  0
ARC
  5
371
100
AcDbEntity
  8
0
100
AcDbCircle
 62
7
  6
CONTINUOUS
 10
68.0339183199
 20
309.3409352518
 40
4.9999970943
100
AcDbArc
 50
227.2230484389
 51
312.6537641053
  0
ARC
  5
372
100
AcDbEntity
  8
0
100
AcDbCircle
 62
7
  6
CONTINUOUS
 10
68.0339183199
 20
309.3409352518
 40
4.8999986846
100
AcDbArc
 50
223.9692540294
 51
316.0307584786
  0
ARC
  5
373
100
AcDbEntity
  8
0
100
AcDbCircle
 62
7
  6
CONTINUOUS
 10
68.0339183199
 20
309.3409352518
 40
4.3999986846
100
AcDbArc
 50
211.8716835901
 51
316.91450426
  0
ARC
  5
374
100
AcDbEntity
  8
0
100
AcDbCircle
 62
7
  6
CONTINUOUS
 10
68.0339183199
 20
309.3309316755
 40
3.5018341352
100
AcDbArc
 50
1.8544898876
 51
178.145510106
  0
ARC
  5
375
100
AcDbEntity
  8
0
100
AcDbCircle
 62
7
  6
CONTINUOUS
 10
58.0339670577
 20
295.9309839896
 40
1.9999512622
100
AcDbArc
 50
90.0
 51
180.0179998143
  0
ARC
  5
376
100
AcDbEntity
  8
0
100
AcDbCircle
 62
7
  6
CONTINUOUS
 10
62.0338695821
 20
295.9309839896
 40
1.9999512622
100
AcDbArc
 50
86.9986712761
 51
90.0
  0
CIRCLE
  5
377
100
AcDbEntity
  8
0
100
AcDbCircle
 62
7
  6
CONTINUOUS
 10
106.0339183199
 20
311.3309352518
 40
7.0
  0
ARC
  5
378
100
AcDbEntity
  8
0
100
AcDbCircle
 62
7
  6
CONTINUOUS
 10
85.5330006784
 20
311.4442548528
 40
5.9999993723
100
AcDbArc
 50
184.9064470017
 51
360.0
  0
CIRCLE
  5
379
100
AcDbEntity
  8
0
100
AcDbCircle
 62
7
  6
CONTINUOUS
 10
85.5439183199
 20
285.2109352518
 40
5.9
  0
CIRCLE
  5
37A
100
AcDbEntity
  8
0
100
AcDbCircle
 62
7
  6
CONTINUOUS
 10
106.0339183199
 20
311.3309352518
 40
5.0
  0
ARC
  5
37B
100
AcDbEntity
  8
0
100
AcDbCircle
 62
7
  6
CONTINUOUS
 10
85.533921399
 20
311.3309352554
 40
3.5018341592
100
AcDbArc
 50
180.0
 51
360.0
  0
CIRCLE
  5
37C
100
AcDbEntity
  8
0
100
AcDbCircle
 62
7
  6
CONTINUOUS
 10
106.0339183199
 20
311.3309352518
 40
3.0
  0
CIRCLE
  5
37D
100
AcDbEntity
  8
0
100
AcDbCircle
 62
7
  6
CONTINUOUS
 10
106.0339183199
 20
311.3309352518
 40
2.5
  0
CIRCLE
  5
37E
100
AcDbEntity
  8
0
100
AcDbCircle
 62
7
  6
CONTINUOUS
 10
125.5439183199
 20
56.4309352518
 40
5.9
  0
ARC
  5
37F
100
AcDbEntity
  8
0
100
AcDbCircle
 62
7
  6
CONTINUOUS
 10
125.5339183199
 20
31.0670006326
 40
3.9999990204
100
AcDbArc
 50
318.5903943661
 51
221.4096056339
  0
CIRCLE
  5
380
100
AcDbEntity
  8
0
100
AcDbCircle
 62
7
  6
CONTINUOUS
 10
138.3048183199
 20
84.2609352518
 40
2.0
  0
CIRCLE
  5
381
100
AcDbEntity
  8
0
100
AcDbCircle
 62
7
  6
CONTINUOUS
 10
133.2248183199
 20
84.2609352518
 40
2.0
  0
CIRCLE
  5
382
100
AcDbEntity
  8
0
100
AcDbCircle
 62
7
  6
CONTINUOUS
 10
128.1448183199
 20
84.2609352518
 40
2.0
  0
CIRCLE
  5
383
100
AcDbEntity
  8
0
100
AcDbCircle
 62
7
  6
CONTINUOUS
 10
145.0339183199
 20
33.3309352518
 40
7.0
  0
CIRCLE
  5
384
100
AcDbEntity
  8
0
100
AcDbCircle
 62
7
  6
CONTINUOUS
 10
145.0339183199
 20
33.3309352518
 40
5.0
  0
CIRCLE
  5
385
100
AcDbEntity
  8
0
100
AcDbCircle
 62
7
  6
CONTINUOUS
 10
145.0339183199
 20
33.3309352518
 40
3.0
  0
CIRCLE
  5
386
100
AcDbEntity
  8
0
100
AcDbCircle
 62
7
  6
CONTINUOUS
 10
145.0339183199
 20
33.3309352518
 40
2.5
  0
CIRCLE
  5
387
100
AcDbEntity
  8
0
100
AcDbCircle
 62
7
  6
CONTINUOUS
 10
156.0388183199
 20
84.2609352518
 40
2.38
  0
CIRCLE
  5
388
100
AcDbEntity
  8
0
100
AcDbCircle
 62
7
  6
CONTINUOUS
 10
150.9588183199
 20
84.2609352518
 40
2.38
  0
CIRCLE
  5
389
100
AcDbEntity
  8
0
100
AcDbCircle
 62
7
  6
CONTINUOUS
 10
145.8788183199
 20
84.2609352518
 40
2.38
  0
CIRCLE
  5
38A
100
AcDbEntity
  8
0
100
AcDbCircle
 62
7
  6
CONTINUOUS
 10
156.0388183199
 20
84.2609352518
 40
2.0
  0
CIRCLE
  5
38B
100
AcDbEntity
  8
0
100
AcDbCircle
 62
7
  6
CONTINUOUS
 10
150.9588183199
 20
84.2609352518
 40
2.0
  0
CIRCLE
  5
38C
100
AcDbEntity
  8
0
100
AcDbCircle
 62
7
  6
CONTINUOUS
 10
145.8788183199
 20
84.2609352518
 40
2.0
  0
ARC
  5
38D
100
AcDbEntity
  8
0
100
AcDbCircle
 62
7
  6
CONTINUOUS
 10
125.2344523454
 20
141.1853418721
 40
15.2418200914
100
AcDbArc
 50
217.4996671181
 51
322.5003328819
  0
ARC
  5
38E
100
AcDbEntity
  8
0
100
AcDbCircle
 62
7
  6
CONTINUOUS
 10
143.8539183199
 20
169.6309352518
 40
3.5000000521
100
AcDbArc
 50
304.6608720127
 51
55.4447781257
  0
ARC
  5
38F
100
AcDbEntity
  8
0
100
AcDbCircle
 62
7
  6
CONTINUOUS
 10
144.2431283208
 20
169.5725747918
 40
3.3458552985
100
AcDbArc
 50
61.4859298213
 51
96.6946223143
  0
ARC
  5
390
100
AcDbEntity
  8
0
100
AcDbCircle
 62
7
  6
CONTINUOUS
 10
144.2431333574
 20
169.6892792509
 40
3.3458385647
100
AcDbArc
 50
263.3052900654
 51
298.5141316478
  0
ARC
  5
391
100
AcDbEntity
  8
0
100
AcDbCircle
 62
7
  6
CONTINUOUS
 10
165.5339150948
 20
43.3309354479
 40
7.4999998038
100
AcDbArc
 50
297.8315735231
 51
304.9824820873
  0
ARC
  5
392
100
AcDbEntity
  8
0
100
AcDbCircle
 62
7
  6
CONTINUOUS
 10
165.5339150948
 20
43.3309354479
 40
7.4999998038
100
AcDbArc
 50
234.9032488975
 51
242.1818667661
  0
ARC
  5
393
100
AcDbEntity
  8
0
100
AcDbCircle
 62
7
  6
CONTINUOUS
 10
165.5311662685
 20
33.1706893301
 40
5.9999991513
100
AcDbArc
 50
0.0000822135
 51
180.0
  0
ARC
  5
394
100
AcDbEntity
  8
0
100
AcDbCircle
 62
7
  6
CONTINUOUS
 10
183.0339183199
 20
33.3309352518
 40
5.9999991208
100
AcDbArc
 50
234.9394316099
 51
304.894339254
  0
CIRCLE
  5
395
100
AcDbEntity
  8
0
100
AcDbCircle
 62
7
  6
CONTINUOUS
 10
165.5439183199
 20
56.4309352518
 40
5.9
  0
ARC
  5
396
100
AcDbEntity
  8
0
100
AcDbCircle
 62
7
  6
CONTINUOUS
 10
183.0339183199
 20
33.3309352518
 40
4.9999970943
100
AcDbArc
 50
227.6201177755
 51
312.3389776506
  0
ARC
  5
397
100
AcDbEntity
  8
0
100
AcDbCircle
 62
7
  6
CONTINUOUS
 10
183.0339183199
 20
33.3309352518
 40
4.8999986846
100
AcDbArc
 50
222.4214470828
 51
317.5478707776
  0
ARC
  5
398
100
AcDbEntity
  8
0
100
AcDbCircle
 62
7
  6
CONTINUOUS
 10
183.0339183199
 20
33.3309352518
 40
4.3999986846
100
AcDbArc
 50
211.8433223069
 51
328.1009876528
  0
CIRCLE
  5
399
100
AcDbEntity
  8
0
100
AcDbCircle
 62
7
  6
CONTINUOUS
 10
191.0339183199
 20
70.3309352518
 40
3.9999024257
  0
ARC
  5
39A
100
AcDbEntity
  8
0
100
AcDbCircle
 62
7
  6
CONTINUOUS
 10
165.5339152133
 20
33.3309346142
 40
3.5018334826
100
AcDbArc
 50
178.1454993239
 51
359.277414036
  0
ARC
  5
39B
100
AcDbEntity
  8
0
100
AcDbCircle
 62
7
  6
CONTINUOUS
 10
183.0330012523
 20
33.3309316756
 40
3.5
100
AcDbArc
 50
0.0
 51
180.0
  0
ARC
  5
39C
100
AcDbEntity
  8
0
100
AcDbCircle
 62
7
  6
CONTINUOUS
 10
193.0338695821
 20
45.730886514
 40
1.9999512622
100
AcDbArc
 50
270.0
 51
0.0179998143
  0
ARC
  5
39D
100
AcDbEntity
  8
0
100
AcDbCircle
 62
7
  6
CONTINUOUS
 10
189.0339670577
 20
45.730886514
 40
1.9999512622
100
AcDbArc
 50
266.9986712761
 51
270.0
  0
CIRCLE
  5
39E
100
AcDbEntity
  8
0
100
AcDbCircle
 62
7
  6
CONTINUOUS
 10
191.0339183199
 20
70.3309352518
 40
1.9999512622
  0
ARC
  5
39F
100
AcDbEntity
  8
0
100
AcDbCircle
 62
7
  6
CONTINUOUS
 10
195.5839206946
 20
119.8319415596
 40
3.4499976253
100
AcDbArc
 50
0.0001055578
 51
44.7532995464
  0
ARC
  5
3A0
100
AcDbEntity
  8
0
100
AcDbCircle
 62
7
  6
CONTINUOUS
 10
195.5839206946
 20
117.789928944
 40
3.4499976253
100
AcDbArc
 50
315.2467004536
 51
359.9998944422
  0
CIRCLE
  5
3A1
100
AcDbEntity
  8
0
100
AcDbCircle
 62
7
  6
CONTINUOUS
 10
177.5339183199
 20
118.8309352518
 40
2.7
  0
ARC
  5
3A2
100
AcDbEntity
  8
0
100
AcDbCircle
 62
7
  6
CONTINUOUS
 10
172.6811766745
 20
183.4442518237
 40
78.7463957897
100
AcDbArc
 50
197.0369659181
 51
220.8797809914
  0
ARC
  5
3A3
100
AcDbEntity
  8
0
100
AcDbCircle
 62
7
  6
CONTINUOUS
 10
195.5839206946
 20
205.8319415596
 40
3.4499976253
100
AcDbArc
 50
0.0001055578
 51
44.7532995464
  0
ARC
  5
3A4
100
AcDbEntity
  8
0
100
AcDbCircle
 62
7
  6
CONTINUOUS
 10
195.5839206946
 20
203.789928944
 40
3.4499976253
100
AcDbArc
 50
315.2467004536
 51
359.9998944422
  0
CIRCLE
  5
3A5
100
AcDbEntity
  8
0
100
AcDbCircle
 62
7
  6
CONTINUOUS
 10
125.5439183199
 20
285.2109352518
 40
5.9
  0
CIRCLE
  5
3A6
100
AcDbEntity
  8
0
100
AcDbCircle
 62
7
  6
CONTINUOUS
 10
181.5339183199
 20
255.3309352518
 40
4.0
  0
CIRCLE
  5
3A7
100
AcDbEntity
  8
0
100
AcDbCircle
 62
7
  6
CONTINUOUS
 10
191.0339183199
 20
271.3309352518
 40
3.9999024257
  0
CIRCLE
  5
3A8
100
AcDbEntity
  8
0
100
AcDbCircle
 62
7
  6
CONTINUOUS
 10
191.0339183199
 20
271.3309352518
 40
1.9999512622
  0
ARC
  5
3A9
100
AcDbEntity
  8
0
100
AcDbCircle
 62
7
  6
CONTINUOUS
 10
183.0339191101
 20
299.3309326223
 40
7.4999987939
100
AcDbArc
 50
117.8181388733
 51
186.167727853
  0
ARC
  5
3AA
100
AcDbEntity
  8
0
100
AcDbCircle
 62
7
  6
CONTINUOUS
 10
183.0339191101
 20
299.3309326223
 40
7.4999987939
100
AcDbArc
 50
353.8318253864
 51
62.1818626793
  0
ARC
  5
3AB
100
AcDbEntity
  8
0
100
AcDbCircle
 62
7
  6
CONTINUOUS
 10
165.5316263723
 20
311.4916048451
 40
6.0004592096
100
AcDbArc
 50
180.0000010235
 51
359.9958949691
  0
ARC
  5
3AC
100
AcDbEntity
  8
0
100
AcDbCircle
 62
7
  6
CONTINUOUS
 10
183.0339183199
 20
309.3409352518
 40
5.9999991208
100
AcDbArc
 50
225.7891740921
 51
314.0582296399
  0
CIRCLE
  5
3AD
100
AcDbEntity
  8
0
100
AcDbCircle
 62
7
  6
CONTINUOUS
 10
165.5439183199
 20
285.2109352518
 40
5.9
  0
ARC
  5
3AE
100
AcDbEntity
  8
0
100
AcDbCircle
 62
7
  6
CONTINUOUS
 10
183.0339183199
 20
309.3409352518
 40
4.9999970943
100
AcDbArc
 50
227.2230484389
 51
312.6537641053
  0
ARC
  5
3AF
100
AcDbEntity
  8
0
100
AcDbCircle
 62
7
  6
CONTINUOUS
 10
183.0339183199
 20
309.3409352518
 40
4.8999986846
100
AcDbArc
 50
223.9692540294
 51
316.0307584786
  0
ARC
  5
3B0
100
AcDbEntity
  8
0
100
AcDbCircle
 62
7
  6
CONTINUOUS
 10
183.0339183199
 20
309.3409352518
 40
4.3999986846
100
AcDbArc
 50
211.8716835901
 51
316.91450426
  0
ARC
  5
3B1
100
AcDbEntity
  8
0
100
AcDbCircle
 62
7
  6
CONTINUOUS
 10
183.0339183199
 20
309.3309316755
 40
3.5018341352
100
AcDbArc
 50
1.8544898876
 51
178.145510106
  0
ARC
  5
3B2
100
AcDbEntity
  8
0
100
AcDbCircle
 62
7
  6
CONTINUOUS
 10
165.5339221121
 20
311.3309345423
 40
3.5018334462
100
AcDbArc
 50
180.0000000011
 51
360.0
  0
ARC
  5
3B3
100
AcDbEntity
  8
0
100
AcDbCircle
 62
7
  6
CONTINUOUS
 10
189.0339670577
 20
295.9309839896
 40
1.9999512622
100
AcDbArc
 50
90.0
 51
93.0013287239
  0
ARC
  5
3B4
100
AcDbEntity
  8
0
100
AcDbCircle
 62
7
  6
CONTINUOUS
 10
193.0338695821
 20
295.9309839896
 40
1.9999512622
100
AcDbArc
 50
359.9820001857
 51
90.0
  0
ARC
  5
3B5
100
AcDbEntity
  8
0
100
AcDbCircle
 62
7
  6
CONTINUOUS
 10
359.624102095
 20
247.6517976363
 40
276.3768249875
100
AcDbArc
 50
176.5560997761
 51
198.4090159768
  0
SPLINE
  5
3B6
100
AcDbEntity
  8
0
100
AcDbSpline
 62
7
  6
CONTINUOUS
 70
0
 71
3
 72
15
 73
11
 74
0
 42
0.0000001
 43
0.0000001
 44
0.0000000001
 40
0.0
 40
0.0
 40
0.0
 40
0.0
 40
0.1250277733
 40
0.2500221413
 40
0.3750120746
 40
0.4999907515
 40
0.6249687981
 40
0.7499634778
 40
0.8749674815
 40
1.0
 40
1.0
 40
1.0
 40
1.0
 10
125.5339183198
 20
166.3455069344
 30
0.0
 10
125.9631272451
 20
166.346233066
 30
0.0
 10
126.8303408279
 20
166.516294288
 30
0.0
 10
127.9314301149
 20
167.2425569688
 30
0.0
 10
128.6741923544
 20
168.3353405108
 30
0.0
 10
128.9358235175
 20
169.6308604781
 30
0.0
 10
128.6742637789
 20
170.9264066035
 30
0.0
 10
127.9315629592
 20
172.019291432
 30
0.0
 10
126.8304168307
 20
172.7456273886
 30
0.0
 10
125.9631435349
 20
172.9156374101
 30
0.0
 10
125.5339183198
 20
172.9163635692
 30
0.0
  0
SPLINE
  5
3B7
100
AcDbEntity
  8
0
100
AcDbSpline
 62
7
  6
CONTINUOUS
 70
0
 71
3
 72
11
 73
7
 74
0
 42
0.0000001
 43
0.0000001
 44
0.0000000001
 40
0.0
 40
0.0
 40
0.0
 40
0.0
 40
0.2500631567
 40
0.500047948
 40
0.750008452
 40
1.0
 40
1.0
 40
1.0
 40
1.0
 10
125.5339183198
 20
172.9163635692
 30
0.0
 10
125.103762075
 20
172.9170913034
 30
0.0
 10
124.2340156552
 20
172.7493231366
 30
0.0
 10
123.1290409593
 20
172.0231579653
 30
0.0
 10
122.3828305232
 20
170.9307412952
 30
0.0
 10
122.2075682465
 20
170.0609689316
 30
0.0
 10
122.2075682465
 20
169.6309352518
 30
0.0
  0
SPLINE
  5
3B8
100
AcDbEntity
  8
0
100
AcDbSpline
 62
7
  6
CONTINUOUS
 70
0
 71
3
 72
11
 73
7
 74
0
 42
0.0000001
 43
0.0000001
 44
0.0000000001
 40
0.0
 40
0.0
 40
0.0
 40
0.0
 40
0.249992792
 40
0.4999474136
 40
0.7499366058
 40
1.0
 40
1.0
 40
1.0
 40
1.0
 10
122.2075682465
 20
169.6309352518
 30
0.0
 10
122.2075682465
 20
169.2008965067
 30
0.0
 10
122.3827962902
 20
168.3311185102
 30
0.0
 10
123.1290170186
 20
167.2386984894
 30
0.0
 10
124.2339889919
 20
166.5125051351
 30
0.0
 10
125.1037587401
 20
166.3447791946
 30
0.0
 10
125.5339183198
 20
166.3455069344
 30
0.0
  0
SPLINE
  5
3B9
100
AcDbEntity
  8
0
100
AcDbSpline
 62
7
  6
CONTINUOUS
 70
0
 71
3
 72
15
 73
11
 74
0
 42
0.0000001
 43
0.0000001
 44
0.0000000001
 40
0.0
 40
0.0
 40
0.0
 40
0.0
 40
0.125001782
 40
0.2499843408
 40
0.3749932796
 40
0.5000042911
 40
0.6250130506
 40
0.7500223354
 40
0.8750006437
 40
1.0
 40
1.0
 40
1.0
 40
1.0
 10
107.2148876886
 20
166.3044937935
 30
0.0
 10
107.6169832961
 20
166.3518896393
 30
0.0
 10
108.4112260892
 20
166.5941238079
 30
0.0
 10
109.3932881937
 20
167.3515053367
 30
0.0
 10
110.044109879
 20
168.4095323029
 30
0.0
 10
110.2714523223
 20
169.6309922231
 30
0.0
 10
110.0440995169
 20
170.8524198759
 30
0.0
 10
109.3933839463
 20
171.9105355533
 30
0.0
 10
108.4111257112
 20
172.6676137035
 30
0.0
 10
107.6169743508
 20
172.9099814668
 30
0.0
 10
107.2148865462
 20
172.9573763939
 30
0.0
  0
SPLINE
  5
3BA
100
AcDbEntity
  8
0
100
AcDbSpline
 62
7
  6
CONTINUOUS
 70
0
 71
3
 72
8
 73
4
 74
0
 42
0.0000001
 43
0.0000001
 44
0.0000000001
 40
0.0
 40
0.0
 40
0.0
 40
0.0
 40
1.0
 40
1.0
 40
1.0
 40
1.0
 10
107.2148865462
 20
172.9573763939
 30
0.0
 10
106.7286176942
 20
173.0146937067
 30
0.0
 10
106.2185354059
 20
172.9639991813
 30
0.0
 10
105.7532370183
 20
172.8115522026
 30
0.0
  0
SPLINE
  5
3BB
100
AcDbEntity
  8
0
100
AcDbSpline
 62
7
  6
CONTINUOUS
 70
0
 71
3
 72
8
 73
4
 74
0
 42
0.0000001
 43
0.0000001
 44
0.0000000001
 40
0.0
 40
0.0
 40
0.0
 40
0.0
 40
1.0
 40
1.0
 40
1.0
 40
1.0
 10
105.7532369683
 20
166.4503183129
 30
0.0
 10
106.2185356732
 20
166.2978709975
 30
0.0
 10
106.7286184325
 20
166.2471764372
 30
0.0
 10
107.2148876886
 20
166.3044937935
 30
0.0
  0
SPLINE
  5
3BC
100
AcDbEntity
  8
0
100
AcDbSpline
 62
7
  6
CONTINUOUS
 70
0
 71
3
 72
15
 73
11
 74
0
 42
0.0000001
 43
0.0000001
 44
0.0000000001
 40
0.0
 40
0.0
 40
0.0
 40
0.0
 40
0.125004399
 40
0.2499885392
 40
0.3749955962
 40
0.5000054721
 40
0.62501201
 40
0.7500203503
 40
0.8749983648
 40
1.0
 40
1.0
 40
1.0
 40
1.0
 10
143.8530768104
 20
172.8956166962
 30
0.0
 10
143.4582258385
 20
172.8493655218
 30
0.0
 10
142.6781607515
 20
172.6120705205
 30
0.0
 10
141.713607694
 20
171.8687563392
 30
0.0
 10
141.0740719793
 20
170.8302025153
 30
0.0
 10
140.8507433199
 20
169.6308580789
 30
0.0
 10
141.0740991089
 20
168.4315785697
 30
0.0
 10
141.7134068742
 20
167.392828785
 30
0.0
 10
142.6783324437
 20
166.6500616565
 30
0.0
 10
143.4582364742
 20
166.4125047162
 30
0.0
 10
143.8530787159
 20
166.3662545628
 30
0.0
  0
SPLINE
  5
3BD
100
AcDbEntity
  8
0
100
AcDbSpline
 62
7
  6
CONTINUOUS
 70
0
 71
3
 72
15
 73
11
 74
0
 42
0.0000001
 43
0.0000001
 44
0.0000000001
 40
0.0
 40
0.0
 40
0.0
 40
0.0
 40
0.1250277733
 40
0.2500221413
 40
0.3750120746
 40
0.4999907515
 40
0.6249687981
 40
0.7499634778
 40
0.8749674815
 40
1.0
 40
1.0
 40
1.0
 40
1.0
 10
125.5339183198
 20
145.3755069344
 30
0.0
 10
125.9631272451
 20
145.376233066
 30
0.0
 10
126.8303408279
 20
145.546294288
 30
0.0
 10
127.9314301149
 20
146.2725569688
 30
0.0
 10
128.6741923544
 20
147.3653405108
 30
0.0
 10
128.9358235175
 20
148.6608604781
 30
0.0
 10
128.6742637789
 20
149.9564066035
 30
0.0
 10
127.9315629592
 20
151.049291432
 30
0.0
 10
126.8304168307
 20
151.7756273886
 30
0.0
 10
125.9631435349
 20
151.9456374101
 30
0.0
 10
125.5339183198
 20
151.9463635692
 30
0.0
  0
SPLINE
  5
3BE
100
AcDbEntity
  8
0
100
AcDbSpline
 62
7
  6
CONTINUOUS
 70
0
 71
3
 72
11
 73
7
 74
0
 42
0.0000001
 43
0.0000001
 44
0.0000000001
 40
0.0
 40
0.0
 40
0.0
 40
0.0
 40
0.2500631567
 40
0.500047948
 40
0.750008452
 40
1.0
 40
1.0
 40
1.0
 40
1.0
 10
125.5339183198
 20
151.9463635692
 30
0.0
 10
125.103762075
 20
151.9470913034
 30
0.0
 10
124.2340156552
 20
151.7793231366
 30
0.0
 10
123.1290409593
 20
151.0531579653
 30
0.0
 10
122.3828305232
 20
149.9607412952
 30
0.0
 10
122.2075682465
 20
149.0909689316
 30
0.0
 10
122.2075682465
 20
148.6609352518
 30
0.0
  0
SPLINE
  5
3BF
100
AcDbEntity
  8
0
100
AcDbSpline
 62
7
  6
CONTINUOUS
 70
0
 71
3
 72
11
 73
7
 74
0
 42
0.0000001
 43
0.0000001
 44
0.0000000001
 40
0.0
 40
0.0
 40
0.0
 40
0.0
 40
0.249992792
 40
0.4999474136
 40
0.7499366058
 40
1.0
 40
1.0
 40
1.0
 40
1.0
 10
122.2075682465
 20
148.6609352518
 30
0.0
 10
122.2075682465
 20
148.2308965067
 30
0.0
 10
122.3827962902
 20
147.3611185102
 30
0.0
 10
123.1290170186
 20
146.2686984894
 30
0.0
 10
124.2339889919
 20
145.5425051351
 30
0.0
 10
125.1037587401
 20
145.3747791946
 30
0.0
 10
125.5339183198
 20
145.3755069344
 30
0.0
  0
SPLINE
  5
3C0
100
AcDbEntity
  8
0
100
AcDbSpline
 62
7
  6
CONTINUOUS
 70
0
 71
3
 72
9
 73
5
 74
0
 42
0.0000001
 43
0.0000001
 44
0.0000000001
 40
0.0
 40
0.0
 40
0.0
 40
0.0
 40
0.2142878311
 40
1.0
 40
1.0
 40
1.0
 40
1.0
 10
53.2496686477
 20
265.3309309007
 30
0.0
 10
53.2754040483
 20
265.3299131182
 30
0.0
 10
53.3955401202
 20
265.3261521782
 30
0.0
 10
53.5157462275
 20
265.3251557133
 30
0.0
 10
53.6101819025
 20
265.3250704468
 30
0.0
  0
SPLINE
  5
3C1
100
AcDbEntity
  8
0
100
AcDbSpline
 62
7
  6
CONTINUOUS
 70
0
 71
3
 72
8
 73
4
 74
0
 42
0.0000001
 43
0.0000001
 44
0.0000000001
 40
0.0
 40
0.0
 40
0.0
 40
0.0
 40
1.0
 40
1.0
 40
1.0
 40
1.0
 10
53.6101819025
 20
265.3250704468
 30
0.0
 10
55.9176921435
 20
265.3207464667
 30
0.0
 10
58.225203211
 20
265.3168435026
 30
0.0
 10
60.5327148696
 20
265.3133571754
 30
0.0
  0
SPLINE
  5
3C2
100
AcDbEntity
  8
0
100
AcDbSpline
 62
7
  6
CONTINUOUS
 70
0
 71
3
 72
14
 73
10
 74
0
 42
0.0000001
 43
0.0000001
 44
0.0000000001
 40
0.0
 40
0.0
 40
0.0
 40
0.0
 40
0.0256116252
 40
0.0836102547
 40
0.1737940415
 40
0.2943519672
 40
0.441913147
 40
0.6127562745
 40
1.0
 40
1.0
 40
1.0
 40
1.0
 10
60.823510146
 20
77.216587772
 30
0.0
 10
60.8268746724
 20
77.2231521503
 30
0.0
 10
60.8548637604
 20
77.2281326063
 30
0.0
 10
60.9003908965
 20
77.2380317857
 30
0.0
 10
60.9793913155
 20
77.2452801628
 30
0.0
 10
61.0814964924
 20
77.253113432
 30
0.0
 10
61.208060416
 20
77.2595053429
 30
0.0
 10
61.4110385229
 20
77.2668457478
 30
0.0
 10
61.5718195776
 20
77.2696354106
 30
0.0
 10
61.6833453876
 20
77.2705813699
 30
0.0
  0
SPLINE
  5
3C3
100
AcDbEntity
  8
0
100
AcDbSpline
 62
7
  6
CONTINUOUS
 70
0
 71
3
 72
14
 73
10
 74
0
 42
0.0000001
 43
0.0000001
 44
0.0000000001
 40
0.0
 40
0.0
 40
0.0
 40
0.0
 40
0.3866923884
 40
0.5579363091
 40
0.7066684824
 40
0.8282059768
 40
0.9189866126
 40
0.9762878048
 40
1.0
 40
1.0
 40
1.0
 40
1.0
 10
189.356163402
 20
77.2709313866
 30
0.0
 10
189.4707450423
 20
77.2702069979
 30
0.0
 10
189.6361540634
 20
77.2676874438
 30
0.0
 10
189.8452359077
 20
77.2605057696
 30
0.0
 10
189.9763801589
 20
77.2542028811
 30
0.0
 10
190.0818215635
 20
77.246333348
 30
0.0
 10
190.1644301461
 20
77.2390893733
 30
0.0
 10
190.2088249018
 20
77.2292183973
 30
0.0
 10
190.2388804152
 20
77.2240141057
 30
0.0
 10
190.240743451
 20
77.2172392471
 30
0.0
  0
SPLINE
  5
3C4
100
AcDbEntity
  8
0
100
AcDbSpline
 62
7
  6
CONTINUOUS
 70
0
 71
3
 72
8
 73
4
 74
0
 42
0.0000001
 43
0.0000001
 44
0.0000000001
 40
0.0
 40
0.0
 40
0.0
 40
0.0
 40
1.0
 40
1.0
 40
1.0
 40
1.0
 10
60.5327148696
 20
76.3203500412
 30
0.0
 10
58.2252028694
 20
76.3155449981
 30
0.0
 10
55.917691992
 20
76.3101657248
 30
0.0
 10
53.6101826847
 20
76.3042061869
 30
0.0
  0
SPLINE
  5
3C5
100
AcDbEntity
  8
0
100
AcDbSpline
 62
7
  6
CONTINUOUS
 70
0
 71
3
 72
9
 73
5
 74
0
 42
0.0000001
 43
0.0000001
 44
0.0000000001
 40
0.0
 40
0.0
 40
0.0
 40
0.0
 40
0.2755154994
 40
1.0
 40
1.0
 40
1.0
 40
1.0
 10
53.6101826847
 20
76.3042061869
 30
0.0
 10
53.5770635142
 20
76.3041649723
 30
0.0
 10
53.4568625484
 20
76.3035514597
 30
0.0
 10
53.3366284889
 20
76.3008689225
 30
0.0
 10
53.2496686638
 20
76.2961289944
 30
0.0
  0
ELLIPSE
  5
3C6
100
AcDbEntity
  8
0
100
AcDbEllipse
 62
7
  6
CONTINUOUS
 10
125.5357704258
 20
285.6967570711
 30
0.0
 11
551.7649945514
 21
-0.0
 31
0.0
 40
0.0396403543
 41
-1.4960415367
 42
-1.455404372
  0
ELLIPSE
  5
3C7
100
AcDbEntity
  8
0
100
AcDbEllipse
 62
7
  6
CONTINUOUS
 10
188.9094362729
 20
264.0109814661
 30
0.0
 11
1.0439742425
 21
-0.0
 31
0.0
 40
0.0396403543
 41
-1.4223809611
 42
-0.0584006987
  0
ELLIPSE
  5
3C8
100
AcDbEntity
  8
0
100
AcDbEllipse
 62
7
  6
CONTINUOUS
 10
197.4266492255
 20
265.3458119304
 30
0.0
 11
0.5331465339
 21
-0.0
 31
0.0
 40
0.0396403543
 41
-1.4393222143
 42
-0.7811880808
  0
ELLIPSE
  5
3C9
100
AcDbEntity
  8
0
100
AcDbEllipse
 62
7
  6
CONTINUOUS
 10
62.1424261455
 20
264.0104101228
 30
0.0
 11
1.0272741286
 21
0.0
 31
0.0
 40
0.0396403543
 41
-3.0962912925
 42
-1.7158633016
  0
ELLIPSE
  5
3CA
100
AcDbEntity
  8
0
100
AcDbEllipse
 62
7
  6
CONTINUOUS
 10
125.5357704258
 20
285.6967570711
 30
0.0
 11
551.7649945514
 21
-0.0
 31
0.0
 40
0.0396403543
 41
-1.6862134711
 42
-1.6466462253
  0
ELLIPSE
  5
3CB
100
AcDbEntity
  8
0
100
AcDbEllipse
 62
7
  6
CONTINUOUS
 10
188.9094362729
 20
92.7051139253
 30
0.0
 11
1.0439742425
 21
-0.0
 31
0.0
 40
0.0184537767
 41
0.0584006987
 42
1.4223809611
  0
ELLIPSE
  5
3CC
100
AcDbEntity
  8
0
100
AcDbEllipse
 62
7
  6
CONTINUOUS
 10
125.5357704258
 20
82.6097334303
 30
0.0
 11
551.7649945514
 21
-0.0
 31
0.0
 40
0.0184537767
 41
1.455404372
 42
1.6862134711
  0
ELLIPSE
  5
3CD
100
AcDbEntity
  8
0
100
AcDbEllipse
 62
7
  6
CONTINUOUS
 10
62.1424261455
 20
92.7053799027
 30
0.0
 11
1.0272741286
 21
-0.0
 31
0.0
 40
0.0184537767
 41
1.7158633016
 42
3.0962912925
  0
ELLIPSE
  5
3CE
100
AcDbEntity
  8
0
100
AcDbEllipse
 62
7
  6
CONTINUOUS
 10
197.4266492255
 20
76.2756191644
 30
0.0
 11
0.5331465339
 21
0.0
 31
0.0
 40
0.0546344535
 41
0.7811880808
 42
1.4393222143
  0
ENDSEC
  0
SECTION
  2
OBJECTS
  0
DICTIONARY
  5
C
100
AcDbDictionary
280
0
281
1
  3
ACAD_GROUP
350
D
  3
ACAD_MLINESTYLE
350
17
  3
ACAD_LAYOUT
350
1A
  3
ACAD_PLOTSETTINGS
350
19
  3
ACAD_PLOTSTYLENAME
350
E
  0
DICTIONARY
  5
D
102
{ACAD_REACTORS
330
C
102
}
100
AcDbDictionary
280
0
281
1
  0
ACDBDICTIONARYWDFLT
  5
E
102
{ACAD_REACTORS
330
C
102
}
100
AcDbDictionary
281
1
  3
Normal
350
F
100
AcDbDictionaryWithDefault
340
F
  0
DICTIONARY
  5
17
102
{ACAD_REACTORS
330
C
102
}
100
AcDbDictionary
280
0
281
1
  3
Standard
350
18
  0
DICTIONARY
  5
19
102
{ACAD_REACTORS
330
C
102
}
100
AcDbDictionary
281
1
  0
DICTIONARY
  5
1A
102
{ACAD_REACTORS
330
C
102
}
100
AcDbDictionary
281
1
  3
Model
350
3CF
  3
Layout1
350
3D0
  0
ACDBPLACEHOLDER
  5
F
102
{ACAD_REACTORS
330
E
102
}
  0
MLINESTYLE
  5
18
102
{ACAD_REACTORS
330
17
102
}
100
AcDbMlineStyle
  2
STANDARD
 70
0
  3

 62
256
 51
90.0
 52
90.0
 71
2
 49
0.5
 62
256
  6
BYLAYER
 49
-0.5
 62
256
  6
BYLAYER
  0
LAYOUT
  5
3CF
102
{ACAD_REACTORS
330
1A
102
}
100
AcDbPlotSettings
  1

  2
none_device
  4

  6

 40
0.0
 41
0.0
 42
0.0
 43
0.0
 44
210.0
 45
297.0
 46
0.0
 47
0.0
 48
0.0
 49
0.0
140
0.0
141
0.0
142
1.0
143
1.0
 70
1024
 72
1
 73
0
 74
0
  7

 75
0
147
1.0
148
0.0
149
0.0
100
AcDbLayout
  1
Model
 70
0
 71
0
 10
0.0
 20
0.0
 11
210.0
 21
297.0
 12
0.0
 22
0.0
 32
0.0
 14
0.0
 24
0.0
 34
0.0
 15
0.0
 25
0.0
 35
0.0
146
0.0
 13
0.0
 23
0.0
 33
0.0
 16
1.0
 26
0.0
 36
0.0
 17
0.0
 27
1.0
 37
0.0
 76
0
330
210
345
0
346
0
  0
LAYOUT
  5
3D0
102
{ACAD_REACTORS
330
1A
102
}
100
AcDbPlotSettings
  1

  2
none_device
  4

  6

 40
0.0
 41
0.0
 42
0.0
 43
0.0
 44
210.0
 45
297.0
 46
0.0
 47
0.0
 48
0.0
 49
0.0
140
0.0
141
0.0
142
1.0
143
1.0
 70
0
 72
1
 73
0
 74
0
  7

 75
0
147
1.0
148
0.0
149
0.0
100
AcDbLayout
  1
Layout1
 70
0
 71
1
 10
0.0
 20
0.0
 11
210.0
 21
297.0
 12
0.0
 22
0.0
 32
0.0
 14
0.0
 24
0.0
 34
0.0
 15
0.0
 25
0.0
 35
0.0
146
0.0
 13
0.0
 23
0.0
 33
0.0
 16
1.0
 26
0.0
 36
0.0
 17
0.0
 27
1.0
 37
0.0
 76
0
330
211
345
0
346
0
  0
ENDSEC
  0
EOF
