999
DXF file: C:\Users\sesa63760\Dev\_Creo\CAD\MCADUE0003167_3D-CAD\drw0001_3.dxf
999
Pro/ENGINEER 2019471 by Parametric Technology Corporation
  0
SECTION
  2
HEADER
  9
$ACADVER
  1
AC1024
  9
$DWGCODEPAGE
  3
ANSI_1252
  9
$EXTMAX
 10
1011.2503591716
 20
1430.1969365427
 30
0.0
  9
$EXTMIN
 10
0.0
 20
0.0
 30
0.0
  9
$LIMMIN
 10
0.0
 20
0.0
  9
$LIMMAX
 10
1011.2503591716
 20
1430.1969365427
  9
$VIEWCTR
 10
505.6251795858
 20
715.0984682713
  9
$VIEWSIZE
 40
1430.1969365427
  9
$CLAYER
  8
0
  9
$LTSCALE
 40
93.2276521598
  9
$CELTYPE
  6
BYLAYER
  9
$DIMSCALE
 40
1.0
  9
$DIMASZ
 40
12.038694752
  9
$DIMEXO
 40
1.0
  9
$DIMDLI
 40
64.4118324013
  9
$DIMEXE
 40
1.0
  9
$DIMCEN
 40
15.2554339898
  9
$DIMLFAC
 40
1.0
  9
$DIMBLK
  1
_FILLED
  9
$DIMALT
 70
0
  9
$DIMALTF
 40
0.0393700787
  9
$DIMTXT
 40
16.8541726529
  9
$DIMTOL
 70
1
  9
$DIMLIM
 70
0
  9
$DIMTFAC
 40
1.0
  9
$DIMTP
 40
0.01
  9
$DIMTM
 40
0.01
  9
$DIMGAP
 40
0.625
  9
$DIMDSEP
 70
46
  9
$AUNITS
 70
0
  9
$PDMODE
 70
3
  9
$PDSIZE
 40
0.3125
  9
$HANDSEED
  5
50D
  9
$TILEMODE
 70
1
  9
$MEASUREMENT
 70
1
  9
$INSUNITS
 70
4
  0
ENDSEC
  0
SECTION
  2
CLASSES
  0
CLASS
  1
ACDBDICTIONARYWDFLT
  2
AcDbDictionaryWithDefault
  3
AutoCAD 2000
 90
0
 91
1
280
0
281
0
  0
CLASS
  1
ACDBPLACEHOLDER
  2
AcDbPlaceHolder
  3
AutoCAD 2000
 90
0
 91
1
280
0
281
0
  0
CLASS
  1
LAYOUT
  2
AcDbLayout
  3
AutoCAD 2000
 90
0
 91
0
280
0
281
0
  0
ENDSEC
  0
SECTION
  2
TABLES
  0
TABLE
  2
VPORT
  5
8
100
AcDbSymbolTable
 70
2
  0
VPORT
  5
1F4
100
AcDbSymbolTableRecord
100
AcDbViewportTableRecord
  2
*ACTIVE
 70
0
 10
0.0
 20
0.0
 11
1.0
 21
1.0
 12
505.6251795858
 22
715.0984682713
 13
0.0
 23
0.0
 14
1.0
 24
1.0
 15
0.0
 25
0.0
 16
0.0
 26
0.0
 36
1.0
 17
0.0
 27
0.0
 37
0.0
 40
1430.1969365427
 41
0.7070707071
 42
50.0
 43
0.0
 44
0.0
 50
0.0
 51
0.0
 71
0
 72
100
 73
1
 74
1
 75
0
 76
0
 77
0
 78
0
  0
ENDTAB
  0
TABLE
  2
LTYPE
  5
5
100
AcDbSymbolTable
 70
6
  0
LTYPE
  5
14
100
AcDbSymbolTableRecord
100
AcDbLinetypeTableRecord
  2
BYBLOCK
 70
0
  3

 72
65
 73
0
 40
0.0
  0
LTYPE
  5
15
100
AcDbSymbolTableRecord
100
AcDbLinetypeTableRecord
  2
BYLAYER
 70
0
  3

 72
65
 73
0
 40
0.0
  0
LTYPE
  5
16
100
AcDbSymbolTableRecord
100
AcDbLinetypeTableRecord
  2
CONTINUOUS
 70
64
  3
Solid line
 72
65
 73
0
 40
0.0
  0
LTYPE
  5
1F5
100
AcDbSymbolTableRecord
100
AcDbLinetypeTableRecord
  2
CENTER
 70
64
  3
____ _ ____ _ ____ _ ____ _ ____ _ ____ _ ____
 72
65
 73
4
 40
0.6
 49
0.375
 74
0
 49
-0.075
 74
0
 49
0.075
 74
0
 49
-0.075
 74
0
  0
LTYPE
  5
1F6
100
AcDbSymbolTableRecord
100
AcDbLinetypeTableRecord
  2
HIDDEN
 70
64
  3
- - - - - - - - - - - - - - - - - - - -
 72
65
 73
2
 40
0.2
 49
0.1
 74
0
 49
-0.1
 74
0
  0
LTYPE
  5
1F7
100
AcDbSymbolTableRecord
100
AcDbLinetypeTableRecord
  2
PHANTOM
 70
64
  3
_____ _ _ _____ _ _ _____ _ _ _____
 72
65
 73
6
 40
0.8
 49
0.45
 74
0
 49
-0.05
 74
0
 49
0.1
 74
0
 49
-0.05
 74
0
 49
0.1
 74
0
 49
-0.05
 74
0
  0
LTYPE
  5
1F8
100
AcDbSymbolTableRecord
100
AcDbLinetypeTableRecord
  2
DOT
 70
64
  3
. . . . . . . . . . . . . . . . . . . .
 72
65
 73
2
 40
0.2
 49
0.1
 74
0
 49
-0.1
 74
0
  0
LTYPE
  5
1F9
100
AcDbSymbolTableRecord
100
AcDbLinetypeTableRecord
  2
DASHED
 70
64
  3
- - - - - - - - - - - - - - - - - - - -
 72
65
 73
2
 40
0.2
 49
0.1
 74
0
 49
-0.1
 74
0
  0
ENDTAB
  0
TABLE
  2
LAYER
  5
2
100
AcDbSymbolTable
 70
36
  0
LAYER
  5
10
100
AcDbSymbolTableRecord
100
AcDbLayerTableRecord
  2
0
 70
0
 62
7
  6
CONTINUOUS
370
-3
390
F
  0
LAYER
  5
1FA
100
AcDbSymbolTableRecord
100
AcDbLayerTableRecord
  2
DEFAULT_1
 70
0
 62
7
  6
CENTER
370
-3
390
F
  0
LAYER
  5
1FB
100
AcDbSymbolTableRecord
100
AcDbLayerTableRecord
  2
DEFAULT_2
 70
0
 62
8
  6
HIDDEN
370
-3
390
F
  0
LAYER
  5
1FC
100
AcDbSymbolTableRecord
100
AcDbLayerTableRecord
  2
DEFAULT_3
 70
0
 62
7
  6
PHANTOM
370
-3
390
F
  0
LAYER
  5
1FD
100
AcDbSymbolTableRecord
100
AcDbLayerTableRecord
  2
00_COMPONENTS
 70
0
 62
7
  6
CONTINUOUS
370
-3
390
F
  0
LAYER
  5
1FE
100
AcDbSymbolTableRecord
100
AcDbLayerTableRecord
  2
01_1_DEFAULT_DATUMS
 70
0
 62
7
  6
CONTINUOUS
370
-3
390
F
  0
LAYER
  5
1FF
100
AcDbSymbolTableRecord
100
AcDbLayerTableRecord
  2
01_PLANES
 70
0
 62
7
  6
CONTINUOUS
370
-3
390
F
  0
LAYER
  5
200
100
AcDbSymbolTableRecord
100
AcDbLayerTableRecord
  2
02_COORD_SYS
 70
0
 62
7
  6
CONTINUOUS
370
-3
390
F
  0
LAYER
  5
201
100
AcDbSymbolTableRecord
100
AcDbLayerTableRecord
  2
03_AXES
 70
0
 62
7
  6
CONTINUOUS
370
-3
390
F
  0
LAYER
  5
202
100
AcDbSymbolTableRecord
100
AcDbLayerTableRecord
  2
04_POINTS
 70
0
 62
7
  6
CONTINUOUS
370
-3
390
F
  0
LAYER
  5
203
100
AcDbSymbolTableRecord
100
AcDbLayerTableRecord
  2
05_CURVES
 70
0
 62
7
  6
CONTINUOUS
370
-3
390
F
  0
LAYER
  5
204
100
AcDbSymbolTableRecord
100
AcDbLayerTableRecord
  2
06_SURFS
 70
0
 62
7
  6
CONTINUOUS
370
-3
390
F
  0
LAYER
  5
205
100
AcDbSymbolTableRecord
100
AcDbLayerTableRecord
  2
07_COSMETICS
 70
0
 62
7
  6
CONTINUOUS
370
-3
390
F
  0
LAYER
  5
206
100
AcDbSymbolTableRecord
100
AcDbLayerTableRecord
  2
10_NOTES
 70
0
 62
7
  6
CONTINUOUS
370
-3
390
F
  0
LAYER
  5
207
100
AcDbSymbolTableRecord
100
AcDbLayerTableRecord
  2
11_NOTES_PUB
 70
0
 62
7
  6
CONTINUOUS
370
-3
390
F
  0
LAYER
  5
208
100
AcDbSymbolTableRecord
100
AcDbLayerTableRecord
  2
13_REF_GTOL
 70
0
 62
7
  6
CONTINUOUS
370
-3
390
F
  0
LAYER
  5
209
100
AcDbSymbolTableRecord
100
AcDbLayerTableRecord
  2
16_MISC
 70
0
 62
7
  6
CONTINUOUS
370
-3
390
F
  0
LAYER
  5
20A
100
AcDbSymbolTableRecord
100
AcDbLayerTableRecord
  2
17_NO_PRINT
 70
0
 62
7
  6
CONTINUOUS
370
-3
390
F
  0
LAYER
  5
20B
100
AcDbSymbolTableRecord
100
AcDbLayerTableRecord
  2
18_DATUM_CAMS_JOINTS
 70
0
 62
7
  6
CONTINUOUS
370
-3
390
F
  0
LAYER
  5
20C
100
AcDbSymbolTableRecord
100
AcDbLayerTableRecord
  2
19_DATUM_FUNCTIONAL
 70
0
 62
7
  6
CONTINUOUS
370
-3
390
F
  0
LAYER
  5
20D
100
AcDbSymbolTableRecord
100
AcDbLayerTableRecord
  2
20_DATUM_KINEMATIC_SCHEME
 70
0
 62
7
  6
CONTINUOUS
370
-3
390
F
  0
ENDTAB
  0
TABLE
  2
STYLE
  5
3
100
AcDbSymbolTable
 70
1
  0
STYLE
  5
11
100
AcDbSymbolTableRecord
100
AcDbTextStyleTableRecord
  2
STANDARD
 70
0
 40
0.0
 41
0.8
 50
0.0
 71
0
 42
0.2
  3
txt
  4

  0
STYLE
  5
20E
100
AcDbSymbolTableRecord
100
AcDbTextStyleTableRecord
  2
TEXTSTYLE_1
 70
0
 40
0.0
 41
0.8
 50
0.0
 71
0
 42
0.2
  3
gdt
  4

  0
ENDTAB
  0
TABLE
  2
VIEW
  5
6
100
AcDbSymbolTable
 70
0
  0
ENDTAB
  0
TABLE
  2
UCS
  5
7
100
AcDbSymbolTable
 70
0
  0
ENDTAB
  0
TABLE
  2
APPID
  5
9
100
AcDbSymbolTable
 70
1
  0
APPID
  5
20F
100
AcDbSymbolTableRecord
100
AcDbRegAppTableRecord
  2
ACAD
 70
0
  0
ENDTAB
  0
TABLE
  2
BLOCK_RECORD
  5
1
100
AcDbSymbolTable
 70
0
  0
BLOCK_RECORD
  5
210
100
AcDbSymbolTableRecord
100
AcDbBlockTableRecord
  2
*Model_Space
  0
BLOCK_RECORD
  5
211
100
AcDbSymbolTableRecord
100
AcDbBlockTableRecord
  2
*Paper_Space
  0
BLOCK_RECORD
  5
212
100
AcDbSymbolTableRecord
100
AcDbBlockTableRecord
  2
_FILLED
  0
ENDTAB
  0
TABLE
  2
DIMSTYLE
  5
A
100
AcDbSymbolTable
 70
1
100
AcDbDimStyleTable
 71
0
  0
DIMSTYLE
105
213
100
AcDbSymbolTableRecord
100
AcDbDimStyleTableRecord
  2
STANDARD
 70
0
  3

  4

 40
1.0
 41
12.038694752
 42
1.0
 43
0.38
 44
1.0
 45
0.0
 46
0.0
 47
0.01
 48
0.01
140
16.8541726529
141
0.09
142
0.0
143
25.4
144
1.0
145
0.0
146
1.0
147
0.625
 71
1
 72
0
 73
0
 74
0
 75
0
 76
0
 77
1
 78
8
 79
2
170
0
171
1
172
0
173
0
174
0
175
0
176
0
177
0
178
0
270
2
179
2
271
2
272
2
273
2
274
2
275
0
280
0
281
0
282
0
283
1
284
8
285
0
286
0
287
3
288
0
340
11
278
46
341
212
342
212
343
212
344
212
  0
ENDTAB
  0
ENDSEC
  0
SECTION
  2
BLOCKS
  0
BLOCK
  5
20
100
AcDbEntity
  8
0
100
AcDbBlockBegin
  2
*Model_Space
 70
0
 10
0.0
 20
0.0
 30
0.0
  3
*Model_Space
  1

  0
ENDBLK
  5
21
100
AcDbEntity
  8
0
100
AcDbBlockEnd
  0
BLOCK
  5
1C
100
AcDbEntity
  8
0
100
AcDbBlockBegin
  2
*Paper_Space
 70
0
 10
0.0
 20
0.0
 30
0.0
  3
*Paper_Space
  1

  0
ENDBLK
  5
1D
100
AcDbEntity
  8
0
100
AcDbBlockEnd
  0
BLOCK
  5
214
100
AcDbEntity
  8
0
100
AcDbBlockBegin
  2
_FILLED
 70
64
 10
0.0
 20
0.0
  3
_FILLED
  1

  0
SOLID
  5
215
100
AcDbEntity
  8
0
  6
BYBLOCK
 62
0
100
AcDbTrace
 10
0.0
 20
0.0
 11
-1.0
 21
0.25
 12
-1.0
 22
-0.25
 13
-1.0
 23
-0.25
  0
ENDBLK
  5
216
100
AcDbEntity
  8
0
  6
BYBLOCK
 62
0
100
AcDbBlockEnd
  0
ENDSEC
  0
SECTION
  2
ENTITIES
  0
LINE
  5
217
100
AcDbEntity
  8
0
100
AcDbLine
 62
7
  6
CONTINUOUS
 10
119.6295559534
 20
576.0995623632
 11
119.6295559534
 21
655.4595623632
  0
LINE
  5
218
100
AcDbEntity
  8
0
100
AcDbLine
 62
7
  6
CONTINUOUS
 10
119.6295559534
 20
781.7395623632
 11
119.6295559534
 21
861.0995623632
  0
LINE
  5
219
100
AcDbEntity
  8
0
100
AcDbLine
 62
7
  6
CONTINUOUS
 10
119.9295559534
 20
861.3741449983
 11
119.9295559534
 21
861.0995623632
  0
LINE
  5
21A
100
AcDbEntity
  8
0
100
AcDbLine
 62
7
  6
CONTINUOUS
 10
119.9295559534
 20
575.8249797282
 11
119.9295559534
 21
576.0995623632
  0
LINE
  5
21B
100
AcDbEntity
  8
0
100
AcDbLine
 62
7
  6
CONTINUOUS
 10
122.1295559534
 20
601.0995623632
 11
122.1295559534
 21
618.0995623632
  0
LINE
  5
21C
100
AcDbEntity
  8
0
100
AcDbLine
 62
7
  6
CONTINUOUS
 10
122.1295559534
 20
636.0995623632
 11
122.1295559534
 21
651.5995623632
  0
LINE
  5
21D
100
AcDbEntity
  8
0
100
AcDbLine
 62
7
  6
CONTINUOUS
 10
122.1295559534
 20
785.5995623632
 11
122.1295559534
 21
801.0995623632
  0
LINE
  5
21E
100
AcDbEntity
  8
0
100
AcDbLine
 62
7
  6
CONTINUOUS
 10
122.1295559534
 20
819.0995623632
 11
122.1295559534
 21
836.0995623632
  0
LINE
  5
21F
100
AcDbEntity
  8
0
100
AcDbLine
 62
7
  6
CONTINUOUS
 10
124.1295559534
 20
576.0995623632
 11
124.1295559534
 21
656.0995623632
  0
LINE
  5
220
100
AcDbEntity
  8
0
100
AcDbLine
 62
7
  6
CONTINUOUS
 10
124.1295559534
 20
781.0995623632
 11
124.1295559534
 21
861.0995623632
  0
LINE
  5
221
100
AcDbEntity
  8
0
100
AcDbLine
 62
7
  6
CONTINUOUS
 10
125.4295559534
 20
574.0995623632
 11
125.4295559534
 21
573.6096003128
  0
LINE
  5
222
100
AcDbEntity
  8
0
100
AcDbLine
 62
7
  6
CONTINUOUS
 10
125.4295559534
 20
863.0995623632
 11
125.4295559534
 21
863.5895244137
  0
LINE
  5
223
100
AcDbEntity
  8
0
100
AcDbLine
 62
7
  6
CONTINUOUS
 10
126.7295559534
 20
574.0995623632
 11
126.7295559534
 21
573.5995623632
  0
LINE
  5
224
100
AcDbEntity
  8
0
100
AcDbLine
 62
7
  6
CONTINUOUS
 10
126.7295559534
 20
863.0995623632
 11
126.7295559534
 21
863.5995623632
  0
LINE
  5
225
100
AcDbEntity
  8
0
100
AcDbLine
 62
7
  6
CONTINUOUS
 10
126.7655949227
 20
576.0995623632
 11
126.7655949227
 21
583.0995623632
  0
LINE
  5
226
100
AcDbEntity
  8
0
100
AcDbLine
 62
7
  6
CONTINUOUS
 10
126.7655949227
 20
854.0995623632
 11
126.7655949227
 21
861.0995623632
  0
LINE
  5
227
100
AcDbEntity
  8
0
100
AcDbLine
 62
7
  6
CONTINUOUS
 10
128.0295559534
 20
574.0995623632
 11
128.0295559534
 21
573.5995623632
  0
LINE
  5
228
100
AcDbEntity
  8
0
100
AcDbLine
 62
7
  6
CONTINUOUS
 10
128.0295559534
 20
863.0995623632
 11
128.0295559534
 21
863.5995623632
  0
LINE
  5
229
100
AcDbEntity
  8
0
100
AcDbLine
 62
7
  6
CONTINUOUS
 10
129.3295559534
 20
574.0995623632
 11
129.3295559534
 21
573.5995623632
  0
LINE
  5
22A
100
AcDbEntity
  8
0
100
AcDbLine
 62
7
  6
CONTINUOUS
 10
129.3295559534
 20
863.0995623632
 11
129.3295559534
 21
863.5995623632
  0
LINE
  5
22B
100
AcDbEntity
  8
0
100
AcDbLine
 62
7
  6
CONTINUOUS
 10
129.9475754381
 20
576.0995623632
 11
129.9475754381
 21
580.0995623632
  0
LINE
  5
22C
100
AcDbEntity
  8
0
100
AcDbLine
 62
7
  6
CONTINUOUS
 10
129.9475754381
 20
857.0995623632
 11
129.9475754381
 21
861.0995623632
  0
LINE
  5
22D
100
AcDbEntity
  8
0
100
AcDbLine
 62
7
  6
CONTINUOUS
 10
130.0295559534
 20
630.6995623632
 11
130.0295559534
 21
639.4995623632
  0
LINE
  5
22E
100
AcDbEntity
  8
0
100
AcDbLine
 62
7
  6
CONTINUOUS
 10
130.0295559534
 20
797.6995623632
 11
130.0295559534
 21
806.4995623632
  0
LINE
  5
22F
100
AcDbEntity
  8
0
100
AcDbLine
 62
7
  6
CONTINUOUS
 10
130.6295559534
 20
574.0995623632
 11
130.6295559534
 21
573.5995623632
  0
LINE
  5
230
100
AcDbEntity
  8
0
100
AcDbLine
 62
7
  6
CONTINUOUS
 10
130.6295559534
 20
863.0995623632
 11
130.6295559534
 21
863.5995623632
  0
LINE
  5
231
100
AcDbEntity
  8
0
100
AcDbLine
 62
7
  6
CONTINUOUS
 10
131.9295559534
 20
574.0995623632
 11
131.9295559534
 21
573.5995623632
  0
LINE
  5
232
100
AcDbEntity
  8
0
100
AcDbLine
 62
7
  6
CONTINUOUS
 10
131.9295559534
 20
863.0995623632
 11
131.9295559534
 21
863.5995623632
  0
LINE
  5
233
100
AcDbEntity
  8
0
100
AcDbLine
 62
7
  6
CONTINUOUS
 10
132.0437695158
 20
861.0995623632
 11
132.0437695158
 21
857.0995623632
  0
LINE
  5
234
100
AcDbEntity
  8
0
100
AcDbLine
 62
7
  6
CONTINUOUS
 10
132.0437695158
 20
580.0995623632
 11
132.0437695158
 21
576.0995623632
  0
LINE
  5
235
100
AcDbEntity
  8
0
100
AcDbLine
 62
7
  6
CONTINUOUS
 10
133.2295559534
 20
574.0995623632
 11
133.2295559534
 21
573.5995623632
  0
LINE
  5
236
100
AcDbEntity
  8
0
100
AcDbLine
 62
7
  6
CONTINUOUS
 10
133.2295559534
 20
863.0995623632
 11
133.2295559534
 21
863.5995623632
  0
LINE
  5
237
100
AcDbEntity
  8
0
100
AcDbLine
 62
7
  6
CONTINUOUS
 10
133.4579830782
 20
576.0995623632
 11
133.4579830782
 21
580.0995623632
  0
LINE
  5
238
100
AcDbEntity
  8
0
100
AcDbLine
 62
7
  6
CONTINUOUS
 10
133.4579830782
 20
857.0995623632
 11
133.4579830782
 21
861.0995623632
  0
LINE
  5
239
100
AcDbEntity
  8
0
100
AcDbLine
 62
7
  6
CONTINUOUS
 10
134.5295559534
 20
574.0995623632
 11
134.5295559534
 21
573.5995623632
  0
LINE
  5
23A
100
AcDbEntity
  8
0
100
AcDbLine
 62
7
  6
CONTINUOUS
 10
134.5295559534
 20
863.0995623632
 11
134.5295559534
 21
863.5995623632
  0
LINE
  5
23B
100
AcDbEntity
  8
0
100
AcDbLine
 62
7
  6
CONTINUOUS
 10
135.6295559534
 20
620.0995623632
 11
135.6295559534
 21
603.5995623632
  0
LINE
  5
23C
100
AcDbEntity
  8
0
100
AcDbLine
 62
7
  6
CONTINUOUS
 10
135.6295559534
 20
580.0995623632
 11
135.6295559534
 21
583.0995623632
  0
LINE
  5
23D
100
AcDbEntity
  8
0
100
AcDbLine
 62
7
  6
CONTINUOUS
 10
135.6295559534
 20
817.0995623632
 11
135.6295559534
 21
833.5995623632
  0
LINE
  5
23E
100
AcDbEntity
  8
0
100
AcDbLine
 62
7
  6
CONTINUOUS
 10
135.6295559534
 20
854.0995623632
 11
135.6295559534
 21
857.0995623632
  0
LINE
  5
23F
100
AcDbEntity
  8
0
100
AcDbLine
 62
7
  6
CONTINUOUS
 10
135.8295559534
 20
574.0995623632
 11
135.8295559534
 21
573.5995623632
  0
LINE
  5
240
100
AcDbEntity
  8
0
100
AcDbLine
 62
7
  6
CONTINUOUS
 10
135.8295559534
 20
863.0995623632
 11
135.8295559534
 21
863.5995623632
  0
LINE
  5
241
100
AcDbEntity
  8
0
100
AcDbLine
 62
7
  6
CONTINUOUS
 10
137.1295559534
 20
574.0995623632
 11
137.1295559534
 21
573.5995623632
  0
LINE
  5
242
100
AcDbEntity
  8
0
100
AcDbLine
 62
7
  6
CONTINUOUS
 10
137.1295559534
 20
863.0995623632
 11
137.1295559534
 21
863.5995623632
  0
LINE
  5
243
100
AcDbEntity
  8
0
100
AcDbLine
 62
7
  6
CONTINUOUS
 10
138.4295559534
 20
574.0995623632
 11
138.4295559534
 21
573.5995623632
  0
LINE
  5
244
100
AcDbEntity
  8
0
100
AcDbLine
 62
7
  6
CONTINUOUS
 10
138.4295559534
 20
863.0995623632
 11
138.4295559534
 21
863.5995623632
  0
LINE
  5
245
100
AcDbEntity
  8
0
100
AcDbLine
 62
7
  6
CONTINUOUS
 10
139.2295559534
 20
806.4995623632
 11
139.2295559534
 21
797.6995623632
  0
LINE
  5
246
100
AcDbEntity
  8
0
100
AcDbLine
 62
7
  6
CONTINUOUS
 10
139.2295559534
 20
639.4995623632
 11
139.2295559534
 21
630.6995623632
  0
LINE
  5
247
100
AcDbEntity
  8
0
100
AcDbLine
 62
7
  6
CONTINUOUS
 10
139.6295559534
 20
833.5995623632
 11
139.6295559534
 21
817.0995623632
  0
LINE
  5
248
100
AcDbEntity
  8
0
100
AcDbLine
 62
7
  6
CONTINUOUS
 10
139.6295559534
 20
603.5995623632
 11
139.6295559534
 21
620.0995623632
  0
LINE
  5
249
100
AcDbEntity
  8
0
100
AcDbLine
 62
7
  6
CONTINUOUS
 10
139.7295559534
 20
574.0995623632
 11
139.7295559534
 21
573.5995623632
  0
LINE
  5
24A
100
AcDbEntity
  8
0
100
AcDbLine
 62
7
  6
CONTINUOUS
 10
139.7295559534
 20
863.0995623632
 11
139.7295559534
 21
863.5995623632
  0
LINE
  5
24B
100
AcDbEntity
  8
0
100
AcDbLine
 62
7
  6
CONTINUOUS
 10
139.8011288287
 20
861.0995623632
 11
139.8011288287
 21
857.0995623632
  0
LINE
  5
24C
100
AcDbEntity
  8
0
100
AcDbLine
 62
7
  6
CONTINUOUS
 10
139.8011288287
 20
580.0995623632
 11
139.8011288287
 21
576.0995623632
  0
LINE
  5
24D
100
AcDbEntity
  8
0
100
AcDbLine
 62
7
  6
CONTINUOUS
 10
141.0295559534
 20
574.0995623632
 11
141.0295559534
 21
573.5995623632
  0
LINE
  5
24E
100
AcDbEntity
  8
0
100
AcDbLine
 62
7
  6
CONTINUOUS
 10
141.0295559534
 20
863.0995623632
 11
141.0295559534
 21
863.5995623632
  0
LINE
  5
24F
100
AcDbEntity
  8
0
100
AcDbLine
 62
7
  6
CONTINUOUS
 10
141.215342391
 20
576.0995623632
 11
141.215342391
 21
580.0995623632
  0
LINE
  5
250
100
AcDbEntity
  8
0
100
AcDbLine
 62
7
  6
CONTINUOUS
 10
141.215342391
 20
857.0995623632
 11
141.215342391
 21
861.0995623632
  0
LINE
  5
251
100
AcDbEntity
  8
0
100
AcDbLine
 62
7
  6
CONTINUOUS
 10
142.3295559534
 20
574.0995623632
 11
142.3295559534
 21
573.5995623632
  0
LINE
  5
252
100
AcDbEntity
  8
0
100
AcDbLine
 62
7
  6
CONTINUOUS
 10
142.3295559534
 20
863.0995623632
 11
142.3295559534
 21
863.5995623632
  0
LINE
  5
253
100
AcDbEntity
  8
0
100
AcDbLine
 62
7
  6
CONTINUOUS
 10
143.3115364687
 20
861.0995623632
 11
143.3115364687
 21
857.0995623632
  0
LINE
  5
254
100
AcDbEntity
  8
0
100
AcDbLine
 62
7
  6
CONTINUOUS
 10
143.3115364687
 20
580.0995623632
 11
143.3115364687
 21
576.0995623632
  0
LINE
  5
255
100
AcDbEntity
  8
0
100
AcDbLine
 62
7
  6
CONTINUOUS
 10
143.6295559534
 20
574.0995623632
 11
143.6295559534
 21
573.5995623632
  0
LINE
  5
256
100
AcDbEntity
  8
0
100
AcDbLine
 62
7
  6
CONTINUOUS
 10
143.6295559534
 20
863.0995623632
 11
143.6295559534
 21
863.5995623632
  0
LINE
  5
257
100
AcDbEntity
  8
0
100
AcDbLine
 62
7
  6
CONTINUOUS
 10
144.6295559534
 20
580.0995623632
 11
144.6295559534
 21
580.2995623632
  0
LINE
  5
258
100
AcDbEntity
  8
0
100
AcDbLine
 62
7
  6
CONTINUOUS
 10
144.6295559534
 20
656.1995623632
 11
144.6295559534
 21
666.0995623632
  0
LINE
  5
259
100
AcDbEntity
  8
0
100
AcDbLine
 62
7
  6
CONTINUOUS
 10
144.6295559534
 20
771.0995623632
 11
144.6295559534
 21
780.9995623632
  0
LINE
  5
25A
100
AcDbEntity
  8
0
100
AcDbLine
 62
7
  6
CONTINUOUS
 10
144.6295559534
 20
856.8995623632
 11
144.6295559534
 21
857.0995623632
  0
LINE
  5
25B
100
AcDbEntity
  8
0
100
AcDbLine
 62
7
  6
CONTINUOUS
 10
144.9295559534
 20
574.0995623632
 11
144.9295559534
 21
573.5995623632
  0
LINE
  5
25C
100
AcDbEntity
  8
0
100
AcDbLine
 62
7
  6
CONTINUOUS
 10
144.9295559534
 20
863.0995623632
 11
144.9295559534
 21
863.5995623632
  0
LINE
  5
25D
100
AcDbEntity
  8
0
100
AcDbLine
 62
7
  6
CONTINUOUS
 10
146.2295559534
 20
574.0995623632
 11
146.2295559534
 21
573.5995623632
  0
LINE
  5
25E
100
AcDbEntity
  8
0
100
AcDbLine
 62
7
  6
CONTINUOUS
 10
146.2295559534
 20
863.0995623632
 11
146.2295559534
 21
863.5995623632
  0
LINE
  5
25F
100
AcDbEntity
  8
0
100
AcDbLine
 62
7
  6
CONTINUOUS
 10
146.4935169841
 20
576.0995623632
 11
146.4935169841
 21
583.0995623632
  0
LINE
  5
260
100
AcDbEntity
  8
0
100
AcDbLine
 62
7
  6
CONTINUOUS
 10
146.4935169841
 20
854.0995623632
 11
146.4935169841
 21
861.0995623632
  0
LINE
  5
261
100
AcDbEntity
  8
0
100
AcDbLine
 62
7
  6
CONTINUOUS
 10
147.1295559534
 20
845.0995623632
 11
147.1295559534
 21
841.0995623632
  0
LINE
  5
262
100
AcDbEntity
  8
0
100
AcDbLine
 62
7
  6
CONTINUOUS
 10
147.1295559534
 20
801.0995623632
 11
147.1295559534
 21
797.0995623632
  0
LINE
  5
263
100
AcDbEntity
  8
0
100
AcDbLine
 62
7
  6
CONTINUOUS
 10
147.1295559534
 20
592.0995623632
 11
147.1295559534
 21
596.0995623632
  0
LINE
  5
264
100
AcDbEntity
  8
0
100
AcDbLine
 62
7
  6
CONTINUOUS
 10
147.1295559534
 20
636.0995623632
 11
147.1295559534
 21
640.0995623632
  0
LINE
  5
265
100
AcDbEntity
  8
0
100
AcDbLine
 62
7
  6
CONTINUOUS
 10
147.1295559534
 20
656.1995623632
 11
147.1295559534
 21
666.0995623632
  0
LINE
  5
266
100
AcDbEntity
  8
0
100
AcDbLine
 62
7
  6
CONTINUOUS
 10
147.1295559534
 20
771.0995623632
 11
147.1295559534
 21
780.9995623632
  0
LINE
  5
267
100
AcDbEntity
  8
0
100
AcDbLine
 62
7
  6
CONTINUOUS
 10
147.5295559534
 20
574.0995623632
 11
147.5295559534
 21
573.5995623632
  0
LINE
  5
268
100
AcDbEntity
  8
0
100
AcDbLine
 62
7
  6
CONTINUOUS
 10
147.5295559534
 20
863.0995623632
 11
147.5295559534
 21
863.5995623632
  0
LINE
  5
269
100
AcDbEntity
  8
0
100
AcDbLine
 62
7
  6
CONTINUOUS
 10
148.8295559534
 20
574.0995623632
 11
148.8295559534
 21
573.5995623632
  0
LINE
  5
26A
100
AcDbEntity
  8
0
100
AcDbLine
 62
7
  6
CONTINUOUS
 10
148.8295559534
 20
863.0995623632
 11
148.8295559534
 21
863.5995623632
  0
LINE
  5
26B
100
AcDbEntity
  8
0
100
AcDbLine
 62
7
  6
CONTINUOUS
 10
150.1295559534
 20
574.0995623632
 11
150.1295559534
 21
573.5995623632
  0
LINE
  5
26C
100
AcDbEntity
  8
0
100
AcDbLine
 62
7
  6
CONTINUOUS
 10
150.1295559534
 20
863.0995623632
 11
150.1295559534
 21
863.5995623632
  0
LINE
  5
26D
100
AcDbEntity
  8
0
100
AcDbLine
 62
7
  6
CONTINUOUS
 10
151.4295559534
 20
574.0995623632
 11
151.4295559534
 21
573.5995623632
  0
LINE
  5
26E
100
AcDbEntity
  8
0
100
AcDbLine
 62
7
  6
CONTINUOUS
 10
151.4295559534
 20
863.0995623632
 11
151.4295559534
 21
863.5995623632
  0
LINE
  5
26F
100
AcDbEntity
  8
0
100
AcDbLine
 62
7
  6
CONTINUOUS
 10
152.7295559534
 20
574.0995623632
 11
152.7295559534
 21
573.5995623632
  0
LINE
  5
270
100
AcDbEntity
  8
0
100
AcDbLine
 62
7
  6
CONTINUOUS
 10
152.7295559534
 20
863.0995623632
 11
152.7295559534
 21
863.5995623632
  0
LINE
  5
271
100
AcDbEntity
  8
0
100
AcDbLine
 62
7
  6
CONTINUOUS
 10
154.0295559534
 20
574.0995623632
 11
154.0295559534
 21
573.5995623632
  0
LINE
  5
272
100
AcDbEntity
  8
0
100
AcDbLine
 62
7
  6
CONTINUOUS
 10
154.0295559534
 20
863.0995623632
 11
154.0295559534
 21
863.5995623632
  0
LINE
  5
273
100
AcDbEntity
  8
0
100
AcDbLine
 62
7
  6
CONTINUOUS
 10
155.3295559534
 20
574.0995623632
 11
155.3295559534
 21
573.5995623632
  0
LINE
  5
274
100
AcDbEntity
  8
0
100
AcDbLine
 62
7
  6
CONTINUOUS
 10
155.3295559534
 20
863.0995623632
 11
155.3295559534
 21
863.5995623632
  0
LINE
  5
275
100
AcDbEntity
  8
0
100
AcDbLine
 62
7
  6
CONTINUOUS
 10
156.6295559534
 20
574.0995623632
 11
156.6295559534
 21
573.5995623632
  0
LINE
  5
276
100
AcDbEntity
  8
0
100
AcDbLine
 62
7
  6
CONTINUOUS
 10
156.6295559534
 20
863.0995623632
 11
156.6295559534
 21
863.5995623632
  0
LINE
  5
277
100
AcDbEntity
  8
0
100
AcDbLine
 62
7
  6
CONTINUOUS
 10
157.9295559534
 20
574.0995623632
 11
157.9295559534
 21
573.5995623632
  0
LINE
  5
278
100
AcDbEntity
  8
0
100
AcDbLine
 62
7
  6
CONTINUOUS
 10
157.9295559534
 20
863.0995623632
 11
157.9295559534
 21
863.5995623632
  0
LINE
  5
279
100
AcDbEntity
  8
0
100
AcDbLine
 62
7
  6
CONTINUOUS
 10
159.2295559534
 20
574.0995623632
 11
159.2295559534
 21
573.5995623632
  0
LINE
  5
27A
100
AcDbEntity
  8
0
100
AcDbLine
 62
7
  6
CONTINUOUS
 10
159.2295559534
 20
863.0995623632
 11
159.2295559534
 21
863.5995623632
  0
LINE
  5
27B
100
AcDbEntity
  8
0
100
AcDbLine
 62
7
  6
CONTINUOUS
 10
160.5295559534
 20
574.0995623632
 11
160.5295559534
 21
573.5995623632
  0
LINE
  5
27C
100
AcDbEntity
  8
0
100
AcDbLine
 62
7
  6
CONTINUOUS
 10
160.5295559534
 20
863.0995623632
 11
160.5295559534
 21
863.5995623632
  0
LINE
  5
27D
100
AcDbEntity
  8
0
100
AcDbLine
 62
7
  6
CONTINUOUS
 10
161.7655949227
 20
576.0995623632
 11
161.7655949227
 21
583.0995623632
  0
LINE
  5
27E
100
AcDbEntity
  8
0
100
AcDbLine
 62
7
  6
CONTINUOUS
 10
161.7655949227
 20
854.0995623632
 11
161.7655949227
 21
861.0995623632
  0
LINE
  5
27F
100
AcDbEntity
  8
0
100
AcDbLine
 62
7
  6
CONTINUOUS
 10
161.8295559534
 20
574.0995623632
 11
161.8295559534
 21
573.5995623632
  0
LINE
  5
280
100
AcDbEntity
  8
0
100
AcDbLine
 62
7
  6
CONTINUOUS
 10
161.8295559534
 20
863.0995623632
 11
161.8295559534
 21
863.5995623632
  0
LINE
  5
281
100
AcDbEntity
  8
0
100
AcDbLine
 62
7
  6
CONTINUOUS
 10
163.1295559534
 20
574.0995623632
 11
163.1295559534
 21
573.5995623632
  0
LINE
  5
282
100
AcDbEntity
  8
0
100
AcDbLine
 62
7
  6
CONTINUOUS
 10
163.1295559534
 20
863.0995623632
 11
163.1295559534
 21
863.5995623632
  0
LINE
  5
283
100
AcDbEntity
  8
0
100
AcDbLine
 62
7
  6
CONTINUOUS
 10
163.6295559534
 20
640.0995623632
 11
163.6295559534
 21
636.0995623632
  0
LINE
  5
284
100
AcDbEntity
  8
0
100
AcDbLine
 62
7
  6
CONTINUOUS
 10
163.6295559534
 20
596.0995623632
 11
163.6295559534
 21
592.0995623632
  0
LINE
  5
285
100
AcDbEntity
  8
0
100
AcDbLine
 62
7
  6
CONTINUOUS
 10
163.6295559534
 20
797.0995623632
 11
163.6295559534
 21
801.0995623632
  0
LINE
  5
286
100
AcDbEntity
  8
0
100
AcDbLine
 62
7
  6
CONTINUOUS
 10
163.6295559534
 20
841.0995623632
 11
163.6295559534
 21
845.0995623632
  0
LINE
  5
287
100
AcDbEntity
  8
0
100
AcDbLine
 62
7
  6
CONTINUOUS
 10
164.6295559534
 20
787.5995623632
 11
164.6295559534
 21
781.0995623632
  0
LINE
  5
288
100
AcDbEntity
  8
0
100
AcDbLine
 62
7
  6
CONTINUOUS
 10
164.6295559534
 20
649.5995623632
 11
164.6295559534
 21
656.0995623632
  0
LINE
  5
289
100
AcDbEntity
  8
0
100
AcDbLine
 62
7
  6
CONTINUOUS
 10
164.9475754381
 20
576.0995623632
 11
164.9475754381
 21
580.0995623632
  0
LINE
  5
28A
100
AcDbEntity
  8
0
100
AcDbLine
 62
7
  6
CONTINUOUS
 10
164.9475754381
 20
857.0995623632
 11
164.9475754381
 21
861.0995623632
  0
LINE
  5
28B
100
AcDbEntity
  8
0
100
AcDbLine
 62
7
  6
CONTINUOUS
 10
165.6295559534
 20
783.5995623632
 11
165.6295559534
 21
781.0995623632
  0
LINE
  5
28C
100
AcDbEntity
  8
0
100
AcDbLine
 62
7
  6
CONTINUOUS
 10
165.6295559534
 20
653.5995623632
 11
165.6295559534
 21
656.0995623632
  0
LINE
  5
28D
100
AcDbEntity
  8
0
100
AcDbLine
 62
7
  6
CONTINUOUS
 10
167.0437695158
 20
861.0995623632
 11
167.0437695158
 21
857.0995623632
  0
LINE
  5
28E
100
AcDbEntity
  8
0
100
AcDbLine
 62
7
  6
CONTINUOUS
 10
167.0437695158
 20
580.0995623632
 11
167.0437695158
 21
576.0995623632
  0
LINE
  5
28F
100
AcDbEntity
  8
0
100
AcDbLine
 62
7
  6
CONTINUOUS
 10
168.4579830782
 20
576.0995623632
 11
168.4579830782
 21
580.0995623632
  0
LINE
  5
290
100
AcDbEntity
  8
0
100
AcDbLine
 62
7
  6
CONTINUOUS
 10
168.4579830782
 20
857.0995623632
 11
168.4579830782
 21
861.0995623632
  0
LINE
  5
291
100
AcDbEntity
  8
0
100
AcDbLine
 62
7
  6
CONTINUOUS
 10
169.6295559534
 20
649.5995623632
 11
169.6295559534
 21
677.0995623632
  0
LINE
  5
292
100
AcDbEntity
  8
0
100
AcDbLine
 62
7
  6
CONTINUOUS
 10
169.6295559534
 20
760.0995623632
 11
169.6295559534
 21
787.5995623632
  0
LINE
  5
293
100
AcDbEntity
  8
0
100
AcDbLine
 62
7
  6
CONTINUOUS
 10
170.6295559534
 20
580.0995623632
 11
170.6295559534
 21
583.0995623632
  0
LINE
  5
294
100
AcDbEntity
  8
0
100
AcDbLine
 62
7
  6
CONTINUOUS
 10
170.6295559534
 20
854.0995623632
 11
170.6295559534
 21
857.0995623632
  0
LINE
  5
295
100
AcDbEntity
  8
0
100
AcDbLine
 62
7
  6
CONTINUOUS
 10
174.8011288287
 20
861.0995623632
 11
174.8011288287
 21
857.0995623632
  0
LINE
  5
296
100
AcDbEntity
  8
0
100
AcDbLine
 62
7
  6
CONTINUOUS
 10
174.8011288287
 20
580.0995623632
 11
174.8011288287
 21
576.0995623632
  0
LINE
  5
297
100
AcDbEntity
  8
0
100
AcDbLine
 62
7
  6
CONTINUOUS
 10
176.215342391
 20
576.0995623632
 11
176.215342391
 21
580.0995623632
  0
LINE
  5
298
100
AcDbEntity
  8
0
100
AcDbLine
 62
7
  6
CONTINUOUS
 10
176.215342391
 20
857.0995623632
 11
176.215342391
 21
861.0995623632
  0
LINE
  5
299
100
AcDbEntity
  8
0
100
AcDbLine
 62
7
  6
CONTINUOUS
 10
178.3115364687
 20
861.0995623632
 11
178.3115364687
 21
857.0995623632
  0
LINE
  5
29A
100
AcDbEntity
  8
0
100
AcDbLine
 62
7
  6
CONTINUOUS
 10
178.3115364687
 20
580.0995623632
 11
178.3115364687
 21
576.0995623632
  0
LINE
  5
29B
100
AcDbEntity
  8
0
100
AcDbLine
 62
7
  6
CONTINUOUS
 10
179.6295559534
 20
620.0995623632
 11
179.6295559534
 21
603.5995623632
  0
LINE
  5
29C
100
AcDbEntity
  8
0
100
AcDbLine
 62
7
  6
CONTINUOUS
 10
179.6295559534
 20
580.0995623632
 11
179.6295559534
 21
580.2995623632
  0
LINE
  5
29D
100
AcDbEntity
  8
0
100
AcDbLine
 62
7
  6
CONTINUOUS
 10
179.6295559534
 20
817.0995623632
 11
179.6295559534
 21
833.5995623632
  0
LINE
  5
29E
100
AcDbEntity
  8
0
100
AcDbLine
 62
7
  6
CONTINUOUS
 10
179.6295559534
 20
856.8995623632
 11
179.6295559534
 21
857.0995623632
  0
LINE
  5
29F
100
AcDbEntity
  8
0
100
AcDbLine
 62
7
  6
CONTINUOUS
 10
181.4935169841
 20
576.0995623632
 11
181.4935169841
 21
583.0995623632
  0
LINE
  5
2A0
100
AcDbEntity
  8
0
100
AcDbLine
 62
7
  6
CONTINUOUS
 10
181.4935169841
 20
854.0995623632
 11
181.4935169841
 21
861.0995623632
  0
LINE
  5
2A1
100
AcDbEntity
  8
0
100
AcDbLine
 62
7
  6
CONTINUOUS
 10
183.6295559534
 20
833.5995623632
 11
183.6295559534
 21
817.0995623632
  0
LINE
  5
2A2
100
AcDbEntity
  8
0
100
AcDbLine
 62
7
  6
CONTINUOUS
 10
183.6295559534
 20
603.5995623632
 11
183.6295559534
 21
620.0995623632
  0
LINE
  5
2A3
100
AcDbEntity
  8
0
100
AcDbLine
 62
7
  6
CONTINUOUS
 10
191.1295559534
 20
787.5995623632
 11
191.1295559534
 21
760.0995623632
  0
LINE
  5
2A4
100
AcDbEntity
  8
0
100
AcDbLine
 62
7
  6
CONTINUOUS
 10
191.1295559534
 20
677.0995623632
 11
191.1295559534
 21
649.5995623632
  0
LINE
  5
2A5
100
AcDbEntity
  8
0
100
AcDbLine
 62
7
  6
CONTINUOUS
 10
195.1295559534
 20
656.0995623632
 11
195.1295559534
 21
653.5995623632
  0
LINE
  5
2A6
100
AcDbEntity
  8
0
100
AcDbLine
 62
7
  6
CONTINUOUS
 10
195.1295559679
 20
647.886797374
 11
195.1295559534
 21
576.0995623632
  0
LINE
  5
2A7
100
AcDbEntity
  8
0
100
AcDbLine
 62
7
  6
CONTINUOUS
 10
195.1295559395
 20
789.3123273623
 11
195.1295559396
 21
789.5995623632
  0
LINE
  5
2A8
100
AcDbEntity
  8
0
100
AcDbLine
 62
7
  6
CONTINUOUS
 10
197.1295559534
 20
785.5995623632
 11
197.1295559534
 21
861.0995623632
  0
LINE
  5
2A9
100
AcDbEntity
  8
0
100
AcDbLine
 62
7
  6
CONTINUOUS
 10
199.3295559534
 20
861.3741449983
 11
199.3295559534
 21
861.0995623632
  0
LINE
  5
2AA
100
AcDbEntity
  8
0
100
AcDbLine
 62
7
  6
CONTINUOUS
 10
199.3295559534
 20
575.8249797282
 11
199.3295559534
 21
576.0995623632
  0
LINE
  5
2AB
100
AcDbEntity
  8
0
100
AcDbLine
 62
7
  6
CONTINUOUS
 10
199.6295559534
 20
576.0995623632
 11
199.6295559534
 21
578.2972004358
  0
LINE
  5
2AC
100
AcDbEntity
  8
0
100
AcDbLine
 62
7
  6
CONTINUOUS
 10
199.6295559534
 20
579.0995623632
 11
199.6295559534
 21
651.5995623632
  0
LINE
  5
2AD
100
AcDbEntity
  8
0
100
AcDbLine
 62
7
  6
CONTINUOUS
 10
199.6295559534
 20
785.5995623632
 11
199.6295559534
 21
861.0995623632
  0
LINE
  5
2AE
100
AcDbEntity
  8
0
100
AcDbLine
 62
7
  6
CONTINUOUS
 10
200.2295559534
 20
579.0995623632
 11
200.2295559534
 21
596.0995623632
  0
LINE
  5
2AF
100
AcDbEntity
  8
0
100
AcDbLine
 62
7
  6
CONTINUOUS
 10
200.2295559534
 20
841.0995623632
 11
200.2295559534
 21
858.0995623632
  0
LINE
  5
2B0
100
AcDbEntity
  8
0
100
AcDbLine
 62
7
  6
CONTINUOUS
 10
201.1295559534
 20
841.0995623632
 11
201.1295559534
 21
836.0995623632
  0
LINE
  5
2B1
100
AcDbEntity
  8
0
100
AcDbLine
 62
7
  6
CONTINUOUS
 10
201.1295559534
 20
596.0995623632
 11
201.1295559534
 21
601.0995623632
  0
LINE
  5
2B2
100
AcDbEntity
  8
0
100
AcDbLine
 62
7
  6
CONTINUOUS
 10
206.6295559534
 20
836.0995623632
 11
206.6295559534
 21
833.5995623632
  0
LINE
  5
2B3
100
AcDbEntity
  8
0
100
AcDbLine
 62
7
  6
CONTINUOUS
 10
206.6295559534
 20
603.5995623632
 11
206.6295559534
 21
601.0995623632
  0
LINE
  5
2B4
100
AcDbEntity
  8
0
100
AcDbLine
 62
7
  6
CONTINUOUS
 10
209.6295559534
 20
601.0995623632
 11
209.6295559534
 21
603.5995623632
  0
LINE
  5
2B5
100
AcDbEntity
  8
0
100
AcDbLine
 62
7
  6
CONTINUOUS
 10
209.6295559534
 20
833.5995623632
 11
209.6295559534
 21
836.0995623632
  0
LINE
  5
2B6
100
AcDbEntity
  8
0
100
AcDbLine
 62
7
  6
CONTINUOUS
 10
201.9029286683
 20
576.2873075143
 11
201.8790658114
 21
576.1949514518
  0
LINE
  5
2B7
100
AcDbEntity
  8
0
100
AcDbLine
 62
7
  6
CONTINUOUS
 10
201.8790658114
 20
861.0041732747
 11
201.9029286683
 21
860.9118172121
  0
LINE
  5
2B8
100
AcDbEntity
  8
0
100
AcDbLine
 62
7
  6
CONTINUOUS
 10
139.1295559534
 20
856.8995623632
 11
135.6295559534
 21
855.8995623632
  0
LINE
  5
2B9
100
AcDbEntity
  8
0
100
AcDbLine
 62
7
  6
CONTINUOUS
 10
174.1295559534
 20
856.8995623632
 11
170.6295559534
 21
855.8995623632
  0
LINE
  5
2BA
100
AcDbEntity
  8
0
100
AcDbLine
 62
7
  6
CONTINUOUS
 10
135.6295559534
 20
581.2995623632
 11
139.1295559534
 21
580.2995623632
  0
LINE
  5
2BB
100
AcDbEntity
  8
0
100
AcDbLine
 62
7
  6
CONTINUOUS
 10
170.6295559534
 20
581.2995623632
 11
174.1295559534
 21
580.2995623632
  0
LINE
  5
2BC
100
AcDbEntity
  8
0
100
AcDbLine
 62
7
  6
CONTINUOUS
 10
126.7295559534
 20
573.5995623632
 11
128.0295559534
 21
573.5995623632
  0
LINE
  5
2BD
100
AcDbEntity
  8
0
100
AcDbLine
 62
7
  6
CONTINUOUS
 10
129.3295559534
 20
573.5995623632
 11
130.6295559534
 21
573.5995623632
  0
LINE
  5
2BE
100
AcDbEntity
  8
0
100
AcDbLine
 62
7
  6
CONTINUOUS
 10
131.9295559534
 20
573.5995623632
 11
133.2295559534
 21
573.5995623632
  0
LINE
  5
2BF
100
AcDbEntity
  8
0
100
AcDbLine
 62
7
  6
CONTINUOUS
 10
134.5295559534
 20
573.5995623632
 11
135.8295559534
 21
573.5995623632
  0
LINE
  5
2C0
100
AcDbEntity
  8
0
100
AcDbLine
 62
7
  6
CONTINUOUS
 10
137.1295559534
 20
573.5995623632
 11
138.4295559534
 21
573.5995623632
  0
LINE
  5
2C1
100
AcDbEntity
  8
0
100
AcDbLine
 62
7
  6
CONTINUOUS
 10
139.7295559534
 20
573.5995623632
 11
141.0295559534
 21
573.5995623632
  0
LINE
  5
2C2
100
AcDbEntity
  8
0
100
AcDbLine
 62
7
  6
CONTINUOUS
 10
142.3295559534
 20
573.5995623632
 11
143.6295559534
 21
573.5995623632
  0
LINE
  5
2C3
100
AcDbEntity
  8
0
100
AcDbLine
 62
7
  6
CONTINUOUS
 10
144.9295559534
 20
573.5995623632
 11
146.2295559534
 21
573.5995623632
  0
LINE
  5
2C4
100
AcDbEntity
  8
0
100
AcDbLine
 62
7
  6
CONTINUOUS
 10
147.5295559534
 20
573.5995623632
 11
148.8295559534
 21
573.5995623632
  0
LINE
  5
2C5
100
AcDbEntity
  8
0
100
AcDbLine
 62
7
  6
CONTINUOUS
 10
150.1295559534
 20
573.5995623632
 11
151.4295559534
 21
573.5995623632
  0
LINE
  5
2C6
100
AcDbEntity
  8
0
100
AcDbLine
 62
7
  6
CONTINUOUS
 10
152.7295559534
 20
573.5995623632
 11
154.0295559534
 21
573.5995623632
  0
LINE
  5
2C7
100
AcDbEntity
  8
0
100
AcDbLine
 62
7
  6
CONTINUOUS
 10
155.3295559534
 20
573.5995623632
 11
156.6295559534
 21
573.5995623632
  0
LINE
  5
2C8
100
AcDbEntity
  8
0
100
AcDbLine
 62
7
  6
CONTINUOUS
 10
157.9295559534
 20
573.5995623632
 11
159.2295559534
 21
573.5995623632
  0
LINE
  5
2C9
100
AcDbEntity
  8
0
100
AcDbLine
 62
7
  6
CONTINUOUS
 10
160.5295559534
 20
573.5995623632
 11
161.8295559534
 21
573.5995623632
  0
LINE
  5
2CA
100
AcDbEntity
  8
0
100
AcDbLine
 62
7
  6
CONTINUOUS
 10
163.1295559534
 20
573.5995623632
 11
193.4046061544
 21
573.5995623632
  0
LINE
  5
2CB
100
AcDbEntity
  8
0
100
AcDbLine
 62
7
  6
CONTINUOUS
 10
845.8545057524
 20
573.5995623632
 11
876.1295559534
 21
573.5995623632
  0
LINE
  5
2CC
100
AcDbEntity
  8
0
100
AcDbLine
 62
7
  6
CONTINUOUS
 10
877.4295559534
 20
573.5995623632
 11
878.7295559534
 21
573.5995623632
  0
LINE
  5
2CD
100
AcDbEntity
  8
0
100
AcDbLine
 62
7
  6
CONTINUOUS
 10
880.0295559534
 20
573.5995623632
 11
881.3295559534
 21
573.5995623632
  0
LINE
  5
2CE
100
AcDbEntity
  8
0
100
AcDbLine
 62
7
  6
CONTINUOUS
 10
882.6295559534
 20
573.5995623632
 11
883.9295559534
 21
573.5995623632
  0
LINE
  5
2CF
100
AcDbEntity
  8
0
100
AcDbLine
 62
7
  6
CONTINUOUS
 10
885.2295559534
 20
573.5995623632
 11
886.5295559534
 21
573.5995623632
  0
LINE
  5
2D0
100
AcDbEntity
  8
0
100
AcDbLine
 62
7
  6
CONTINUOUS
 10
887.8295559534
 20
573.5995623632
 11
889.1295559534
 21
573.5995623632
  0
LINE
  5
2D1
100
AcDbEntity
  8
0
100
AcDbLine
 62
7
  6
CONTINUOUS
 10
890.4295559534
 20
573.5995623632
 11
891.7295559534
 21
573.5995623632
  0
LINE
  5
2D2
100
AcDbEntity
  8
0
100
AcDbLine
 62
7
  6
CONTINUOUS
 10
893.0295559534
 20
573.5995623632
 11
894.3295559534
 21
573.5995623632
  0
LINE
  5
2D3
100
AcDbEntity
  8
0
100
AcDbLine
 62
7
  6
CONTINUOUS
 10
895.6295559534
 20
573.5995623632
 11
896.9295559534
 21
573.5995623632
  0
LINE
  5
2D4
100
AcDbEntity
  8
0
100
AcDbLine
 62
7
  6
CONTINUOUS
 10
898.2295559534
 20
573.5995623632
 11
899.5295559534
 21
573.5995623632
  0
LINE
  5
2D5
100
AcDbEntity
  8
0
100
AcDbLine
 62
7
  6
CONTINUOUS
 10
900.8295559534
 20
573.5995623632
 11
902.1295559534
 21
573.5995623632
  0
LINE
  5
2D6
100
AcDbEntity
  8
0
100
AcDbLine
 62
7
  6
CONTINUOUS
 10
903.4295559534
 20
573.5995623632
 11
904.7295559534
 21
573.5995623632
  0
LINE
  5
2D7
100
AcDbEntity
  8
0
100
AcDbLine
 62
7
  6
CONTINUOUS
 10
906.0295559534
 20
573.5995623632
 11
907.3295559534
 21
573.5995623632
  0
LINE
  5
2D8
100
AcDbEntity
  8
0
100
AcDbLine
 62
7
  6
CONTINUOUS
 10
908.6295559534
 20
573.5995623632
 11
909.9295559534
 21
573.5995623632
  0
LINE
  5
2D9
100
AcDbEntity
  8
0
100
AcDbLine
 62
7
  6
CONTINUOUS
 10
911.2295559534
 20
573.5995623632
 11
912.5295559534
 21
573.5995623632
  0
LINE
  5
2DA
100
AcDbEntity
  8
0
100
AcDbLine
 62
7
  6
CONTINUOUS
 10
163.1295559534
 20
574.0995623632
 11
161.8295559534
 21
574.0995623632
  0
LINE
  5
2DB
100
AcDbEntity
  8
0
100
AcDbLine
 62
7
  6
CONTINUOUS
 10
160.5295559534
 20
574.0995623632
 11
159.2295559534
 21
574.0995623632
  0
LINE
  5
2DC
100
AcDbEntity
  8
0
100
AcDbLine
 62
7
  6
CONTINUOUS
 10
157.9295559534
 20
574.0995623632
 11
156.6295559534
 21
574.0995623632
  0
LINE
  5
2DD
100
AcDbEntity
  8
0
100
AcDbLine
 62
7
  6
CONTINUOUS
 10
155.3295559534
 20
574.0995623632
 11
154.0295559534
 21
574.0995623632
  0
LINE
  5
2DE
100
AcDbEntity
  8
0
100
AcDbLine
 62
7
  6
CONTINUOUS
 10
152.7295559534
 20
574.0995623632
 11
151.4295559534
 21
574.0995623632
  0
LINE
  5
2DF
100
AcDbEntity
  8
0
100
AcDbLine
 62
7
  6
CONTINUOUS
 10
150.1295559534
 20
574.0995623632
 11
148.8295559534
 21
574.0995623632
  0
LINE
  5
2E0
100
AcDbEntity
  8
0
100
AcDbLine
 62
7
  6
CONTINUOUS
 10
147.5295559534
 20
574.0995623632
 11
146.2295559534
 21
574.0995623632
  0
LINE
  5
2E1
100
AcDbEntity
  8
0
100
AcDbLine
 62
7
  6
CONTINUOUS
 10
144.9295559534
 20
574.0995623632
 11
143.6295559534
 21
574.0995623632
  0
LINE
  5
2E2
100
AcDbEntity
  8
0
100
AcDbLine
 62
7
  6
CONTINUOUS
 10
142.3295559534
 20
574.0995623632
 11
141.0295559534
 21
574.0995623632
  0
LINE
  5
2E3
100
AcDbEntity
  8
0
100
AcDbLine
 62
7
  6
CONTINUOUS
 10
139.7295559534
 20
574.0995623632
 11
138.4295559534
 21
574.0995623632
  0
LINE
  5
2E4
100
AcDbEntity
  8
0
100
AcDbLine
 62
7
  6
CONTINUOUS
 10
137.1295559534
 20
574.0995623632
 11
135.8295559534
 21
574.0995623632
  0
LINE
  5
2E5
100
AcDbEntity
  8
0
100
AcDbLine
 62
7
  6
CONTINUOUS
 10
134.5295559534
 20
574.0995623632
 11
133.2295559534
 21
574.0995623632
  0
LINE
  5
2E6
100
AcDbEntity
  8
0
100
AcDbLine
 62
7
  6
CONTINUOUS
 10
131.9295559534
 20
574.0995623632
 11
130.6295559534
 21
574.0995623632
  0
LINE
  5
2E7
100
AcDbEntity
  8
0
100
AcDbLine
 62
7
  6
CONTINUOUS
 10
129.3295559534
 20
574.0995623632
 11
128.0295559534
 21
574.0995623632
  0
LINE
  5
2E8
100
AcDbEntity
  8
0
100
AcDbLine
 62
7
  6
CONTINUOUS
 10
126.7295559534
 20
574.0995623632
 11
125.4295559534
 21
574.0995623632
  0
LINE
  5
2E9
100
AcDbEntity
  8
0
100
AcDbLine
 62
7
  6
CONTINUOUS
 10
876.1295559534
 20
574.0995623632
 11
877.4295559534
 21
574.0995623632
  0
LINE
  5
2EA
100
AcDbEntity
  8
0
100
AcDbLine
 62
7
  6
CONTINUOUS
 10
878.7295559534
 20
574.0995623632
 11
880.0295559534
 21
574.0995623632
  0
LINE
  5
2EB
100
AcDbEntity
  8
0
100
AcDbLine
 62
7
  6
CONTINUOUS
 10
881.3295559534
 20
574.0995623632
 11
882.6295559534
 21
574.0995623632
  0
LINE
  5
2EC
100
AcDbEntity
  8
0
100
AcDbLine
 62
7
  6
CONTINUOUS
 10
883.9295559534
 20
574.0995623632
 11
885.2295559534
 21
574.0995623632
  0
LINE
  5
2ED
100
AcDbEntity
  8
0
100
AcDbLine
 62
7
  6
CONTINUOUS
 10
886.5295559534
 20
574.0995623632
 11
887.8295559534
 21
574.0995623632
  0
LINE
  5
2EE
100
AcDbEntity
  8
0
100
AcDbLine
 62
7
  6
CONTINUOUS
 10
889.1295559534
 20
574.0995623632
 11
890.4295559534
 21
574.0995623632
  0
LINE
  5
2EF
100
AcDbEntity
  8
0
100
AcDbLine
 62
7
  6
CONTINUOUS
 10
891.7295559534
 20
574.0995623632
 11
893.0295559534
 21
574.0995623632
  0
LINE
  5
2F0
100
AcDbEntity
  8
0
100
AcDbLine
 62
7
  6
CONTINUOUS
 10
894.3295559534
 20
574.0995623632
 11
895.6295559534
 21
574.0995623632
  0
LINE
  5
2F1
100
AcDbEntity
  8
0
100
AcDbLine
 62
7
  6
CONTINUOUS
 10
896.9295559534
 20
574.0995623632
 11
898.2295559534
 21
574.0995623632
  0
LINE
  5
2F2
100
AcDbEntity
  8
0
100
AcDbLine
 62
7
  6
CONTINUOUS
 10
899.5295559534
 20
574.0995623632
 11
900.8295559534
 21
574.0995623632
  0
LINE
  5
2F3
100
AcDbEntity
  8
0
100
AcDbLine
 62
7
  6
CONTINUOUS
 10
902.1295559534
 20
574.0995623632
 11
903.4295559534
 21
574.0995623632
  0
LINE
  5
2F4
100
AcDbEntity
  8
0
100
AcDbLine
 62
7
  6
CONTINUOUS
 10
904.7295559534
 20
574.0995623632
 11
906.0295559534
 21
574.0995623632
  0
LINE
  5
2F5
100
AcDbEntity
  8
0
100
AcDbLine
 62
7
  6
CONTINUOUS
 10
907.3295559534
 20
574.0995623632
 11
908.6295559534
 21
574.0995623632
  0
LINE
  5
2F6
100
AcDbEntity
  8
0
100
AcDbLine
 62
7
  6
CONTINUOUS
 10
909.9295559534
 20
574.0995623632
 11
911.2295559534
 21
574.0995623632
  0
LINE
  5
2F7
100
AcDbEntity
  8
0
100
AcDbLine
 62
7
  6
CONTINUOUS
 10
912.5295559534
 20
574.0995623632
 11
913.8295559534
 21
574.0995623632
  0
LINE
  5
2F8
100
AcDbEntity
  8
0
100
AcDbLine
 62
7
  6
CONTINUOUS
 10
119.6295559534
 20
576.0995623632
 11
199.6295559534
 21
576.0995623632
  0
LINE
  5
2F9
100
AcDbEntity
  8
0
100
AcDbLine
 62
7
  6
CONTINUOUS
 10
202.6295559534
 20
576.0995623632
 11
836.6295559534
 21
576.0995623632
  0
LINE
  5
2FA
100
AcDbEntity
  8
0
100
AcDbLine
 62
7
  6
CONTINUOUS
 10
839.6295559534
 20
576.0995623632
 11
919.6295559534
 21
576.0995623632
  0
LINE
  5
2FB
100
AcDbEntity
  8
0
100
AcDbLine
 62
7
  6
CONTINUOUS
 10
839.0295559534
 20
579.0995623632
 11
200.2295559534
 21
579.0995623632
  0
LINE
  5
2FC
100
AcDbEntity
  8
0
100
AcDbLine
 62
7
  6
CONTINUOUS
 10
126.7655949227
 20
580.0995623632
 11
146.4935169841
 21
580.0995623632
  0
LINE
  5
2FD
100
AcDbEntity
  8
0
100
AcDbLine
 62
7
  6
CONTINUOUS
 10
161.7655949227
 20
580.0995623632
 11
181.4935169841
 21
580.0995623632
  0
LINE
  5
2FE
100
AcDbEntity
  8
0
100
AcDbLine
 62
7
  6
CONTINUOUS
 10
857.7655949227
 20
580.0995623632
 11
877.4935169841
 21
580.0995623632
  0
LINE
  5
2FF
100
AcDbEntity
  8
0
100
AcDbLine
 62
7
  6
CONTINUOUS
 10
892.7655949227
 20
580.0995623632
 11
912.4935169841
 21
580.0995623632
  0
LINE
  5
300
100
AcDbEntity
  8
0
100
AcDbLine
 62
7
  6
CONTINUOUS
 10
139.1295559534
 20
580.2995623632
 11
144.6295559534
 21
580.2995623632
  0
LINE
  5
301
100
AcDbEntity
  8
0
100
AcDbLine
 62
7
  6
CONTINUOUS
 10
174.1295559534
 20
580.2995623632
 11
179.6295559534
 21
580.2995623632
  0
LINE
  5
302
100
AcDbEntity
  8
0
100
AcDbLine
 62
7
  6
CONTINUOUS
 10
859.6295559534
 20
580.2995623632
 11
865.1295559534
 21
580.2995623632
  0
LINE
  5
303
100
AcDbEntity
  8
0
100
AcDbLine
 62
7
  6
CONTINUOUS
 10
894.6295559534
 20
580.2995623632
 11
900.1295559534
 21
580.2995623632
  0
LINE
  5
304
100
AcDbEntity
  8
0
100
AcDbLine
 62
7
  6
CONTINUOUS
 10
842.1295559534
 20
583.0995623632
 11
839.6295559534
 21
583.0995623632
  0
LINE
  5
305
100
AcDbEntity
  8
0
100
AcDbLine
 62
7
  6
CONTINUOUS
 10
126.7655949227
 20
583.0995623632
 11
146.4935169841
 21
583.0995623632
  0
LINE
  5
306
100
AcDbEntity
  8
0
100
AcDbLine
 62
7
  6
CONTINUOUS
 10
161.7655949227
 20
583.0995623632
 11
181.4935169841
 21
583.0995623632
  0
LINE
  5
307
100
AcDbEntity
  8
0
100
AcDbLine
 62
7
  6
CONTINUOUS
 10
857.7655949227
 20
583.0995623632
 11
877.4935169841
 21
583.0995623632
  0
LINE
  5
308
100
AcDbEntity
  8
0
100
AcDbLine
 62
7
  6
CONTINUOUS
 10
892.7655949227
 20
583.0995623632
 11
912.4935169841
 21
583.0995623632
  0
LINE
  5
309
100
AcDbEntity
  8
0
100
AcDbLine
 62
7
  6
CONTINUOUS
 10
842.1295559534
 20
588.0995623632
 11
839.6295559534
 21
588.0995623632
  0
LINE
  5
30A
100
AcDbEntity
  8
0
100
AcDbLine
 62
7
  6
CONTINUOUS
 10
839.6295559534
 20
592.0995623632
 11
839.0295559534
 21
592.0995623632
  0
LINE
  5
30B
100
AcDbEntity
  8
0
100
AcDbLine
 62
7
  6
CONTINUOUS
 10
163.6295559534
 20
592.0995623632
 11
147.1295559534
 21
592.0995623632
  0
LINE
  5
30C
100
AcDbEntity
  8
0
100
AcDbLine
 62
7
  6
CONTINUOUS
 10
199.6295559534
 20
592.0995623632
 11
200.2295559534
 21
592.0995623632
  0
LINE
  5
30D
100
AcDbEntity
  8
0
100
AcDbLine
 62
7
  6
CONTINUOUS
 10
875.6295559534
 20
592.0995623632
 11
892.1295559534
 21
592.0995623632
  0
LINE
  5
30E
100
AcDbEntity
  8
0
100
AcDbLine
 62
7
  6
CONTINUOUS
 10
200.2295559534
 20
593.0995623632
 11
839.0295559534
 21
593.0995623632
  0
LINE
  5
30F
100
AcDbEntity
  8
0
100
AcDbLine
 62
7
  6
CONTINUOUS
 10
839.6295559534
 20
594.0995623632
 11
839.0295559534
 21
594.0995623632
  0
LINE
  5
310
100
AcDbEntity
  8
0
100
AcDbLine
 62
7
  6
CONTINUOUS
 10
199.6295559534
 20
594.0995623632
 11
200.2295559534
 21
594.0995623632
  0
LINE
  5
311
100
AcDbEntity
  8
0
100
AcDbLine
 62
7
  6
CONTINUOUS
 10
892.1295559534
 20
596.0995623632
 11
875.6295559534
 21
596.0995623632
  0
LINE
  5
312
100
AcDbEntity
  8
0
100
AcDbLine
 62
7
  6
CONTINUOUS
 10
839.0295559534
 20
596.0995623632
 11
200.2295559534
 21
596.0995623632
  0
LINE
  5
313
100
AcDbEntity
  8
0
100
AcDbLine
 62
7
  6
CONTINUOUS
 10
147.1295559534
 20
596.0995623632
 11
163.6295559534
 21
596.0995623632
  0
LINE
  5
314
100
AcDbEntity
  8
0
100
AcDbLine
 62
7
  6
CONTINUOUS
 10
839.6295559534
 20
597.5995623632
 11
838.1295559534
 21
597.5995623632
  0
LINE
  5
315
100
AcDbEntity
  8
0
100
AcDbLine
 62
7
  6
CONTINUOUS
 10
199.6295559534
 20
597.5995623632
 11
201.1295559534
 21
597.5995623632
  0
LINE
  5
316
100
AcDbEntity
  8
0
100
AcDbLine
 62
7
  6
CONTINUOUS
 10
839.6295559534
 20
598.5995623632
 11
838.1295559534
 21
598.5995623632
  0
LINE
  5
317
100
AcDbEntity
  8
0
100
AcDbLine
 62
7
  6
CONTINUOUS
 10
199.6295559534
 20
598.5995623632
 11
201.1295559534
 21
598.5995623632
  0
LINE
  5
318
100
AcDbEntity
  8
0
100
AcDbLine
 62
7
  6
CONTINUOUS
 10
839.6295559534
 20
600.0995623632
 11
838.1295559534
 21
600.0995623632
  0
LINE
  5
319
100
AcDbEntity
  8
0
100
AcDbLine
 62
7
  6
CONTINUOUS
 10
199.6295559534
 20
600.0995623632
 11
201.1295559534
 21
600.0995623632
  0
LINE
  5
31A
100
AcDbEntity
  8
0
100
AcDbLine
 62
7
  6
CONTINUOUS
 10
839.6295559534
 20
601.0995623632
 11
829.6295559534
 21
601.0995623632
  0
LINE
  5
31B
100
AcDbEntity
  8
0
100
AcDbLine
 62
7
  6
CONTINUOUS
 10
119.6295559534
 20
601.0995623632
 11
124.1295559534
 21
601.0995623632
  0
LINE
  5
31C
100
AcDbEntity
  8
0
100
AcDbLine
 62
7
  6
CONTINUOUS
 10
199.6295559534
 20
601.0995623632
 11
209.6295559534
 21
601.0995623632
  0
LINE
  5
31D
100
AcDbEntity
  8
0
100
AcDbLine
 62
7
  6
CONTINUOUS
 10
915.1295559534
 20
601.0995623632
 11
919.6295559534
 21
601.0995623632
  0
LINE
  5
31E
100
AcDbEntity
  8
0
100
AcDbLine
 62
7
  6
CONTINUOUS
 10
903.6295559534
 20
603.5995623632
 11
899.6295559534
 21
603.5995623632
  0
LINE
  5
31F
100
AcDbEntity
  8
0
100
AcDbLine
 62
7
  6
CONTINUOUS
 10
859.6295559534
 20
603.5995623632
 11
855.6295559534
 21
603.5995623632
  0
LINE
  5
320
100
AcDbEntity
  8
0
100
AcDbLine
 62
7
  6
CONTINUOUS
 10
135.6295559534
 20
603.5995623632
 11
139.6295559534
 21
603.5995623632
  0
LINE
  5
321
100
AcDbEntity
  8
0
100
AcDbLine
 62
7
  6
CONTINUOUS
 10
179.6295559534
 20
603.5995623632
 11
183.6295559534
 21
603.5995623632
  0
LINE
  5
322
100
AcDbEntity
  8
0
100
AcDbLine
 62
7
  6
CONTINUOUS
 10
199.7295559534
 20
603.5995623632
 11
209.6295559534
 21
603.5995623632
  0
LINE
  5
323
100
AcDbEntity
  8
0
100
AcDbLine
 62
7
  6
CONTINUOUS
 10
829.6295559534
 20
603.5995623632
 11
839.5295559534
 21
603.5995623632
  0
LINE
  5
324
100
AcDbEntity
  8
0
100
AcDbLine
 62
7
  6
CONTINUOUS
 10
919.6295559534
 20
618.0995623632
 11
915.1295559534
 21
618.0995623632
  0
LINE
  5
325
100
AcDbEntity
  8
0
100
AcDbLine
 62
7
  6
CONTINUOUS
 10
124.1295559534
 20
618.0995623632
 11
119.6295559534
 21
618.0995623632
  0
LINE
  5
326
100
AcDbEntity
  8
0
100
AcDbLine
 62
7
  6
CONTINUOUS
 10
183.6295559534
 20
620.0995623632
 11
179.6295559534
 21
620.0995623632
  0
LINE
  5
327
100
AcDbEntity
  8
0
100
AcDbLine
 62
7
  6
CONTINUOUS
 10
139.6295559534
 20
620.0995623632
 11
135.6295559534
 21
620.0995623632
  0
LINE
  5
328
100
AcDbEntity
  8
0
100
AcDbLine
 62
7
  6
CONTINUOUS
 10
855.6295559534
 20
620.0995623632
 11
859.6295559534
 21
620.0995623632
  0
LINE
  5
329
100
AcDbEntity
  8
0
100
AcDbLine
 62
7
  6
CONTINUOUS
 10
899.6295559534
 20
620.0995623632
 11
903.6295559534
 21
620.0995623632
  0
LINE
  5
32A
100
AcDbEntity
  8
0
100
AcDbLine
 62
7
  6
CONTINUOUS
 10
839.6295559534
 20
626.0995623632
 11
842.1295559534
 21
626.0995623632
  0
LINE
  5
32B
100
AcDbEntity
  8
0
100
AcDbLine
 62
7
  6
CONTINUOUS
 10
909.0295559534
 20
630.4995623632
 11
900.2295559534
 21
630.4995623632
  0
LINE
  5
32C
100
AcDbEntity
  8
0
100
AcDbLine
 62
7
  6
CONTINUOUS
 10
139.0295559534
 20
630.4995623632
 11
130.2295559534
 21
630.4995623632
  0
LINE
  5
32D
100
AcDbEntity
  8
0
100
AcDbLine
 62
7
  6
CONTINUOUS
 10
842.1295559534
 20
631.0995623632
 11
839.6295559534
 21
631.0995623632
  0
LINE
  5
32E
100
AcDbEntity
  8
0
100
AcDbLine
 62
7
  6
CONTINUOUS
 10
163.6295559534
 20
636.0995623632
 11
147.1295559534
 21
636.0995623632
  0
LINE
  5
32F
100
AcDbEntity
  8
0
100
AcDbLine
 62
7
  6
CONTINUOUS
 10
119.6295559534
 20
636.0995623632
 11
124.1295559534
 21
636.0995623632
  0
LINE
  5
330
100
AcDbEntity
  8
0
100
AcDbLine
 62
7
  6
CONTINUOUS
 10
875.6295559534
 20
636.0995623632
 11
892.1295559534
 21
636.0995623632
  0
LINE
  5
331
100
AcDbEntity
  8
0
100
AcDbLine
 62
7
  6
CONTINUOUS
 10
915.1295559534
 20
636.0995623632
 11
919.6295559534
 21
636.0995623632
  0
LINE
  5
332
100
AcDbEntity
  8
0
100
AcDbLine
 62
7
  6
CONTINUOUS
 10
130.2295559534
 20
639.6995623632
 11
139.0295559534
 21
639.6995623632
  0
LINE
  5
333
100
AcDbEntity
  8
0
100
AcDbLine
 62
7
  6
CONTINUOUS
 10
900.2295559534
 20
639.6995623632
 11
909.0295559534
 21
639.6995623632
  0
LINE
  5
334
100
AcDbEntity
  8
0
100
AcDbLine
 62
7
  6
CONTINUOUS
 10
892.1295559534
 20
640.0995623632
 11
875.6295559534
 21
640.0995623632
  0
LINE
  5
335
100
AcDbEntity
  8
0
100
AcDbLine
 62
7
  6
CONTINUOUS
 10
147.1295559534
 20
640.0995623632
 11
163.6295559534
 21
640.0995623632
  0
LINE
  5
336
100
AcDbEntity
  8
0
100
AcDbLine
 62
7
  6
CONTINUOUS
 10
846.1295559534
 20
647.5995623632
 11
842.1295559534
 21
647.5995623632
  0
LINE
  5
337
100
AcDbEntity
  8
0
100
AcDbLine
 62
7
  6
CONTINUOUS
 10
842.1295559534
 20
651.5995623632
 11
839.6295559534
 21
651.5995623632
  0
LINE
  5
338
100
AcDbEntity
  8
0
100
AcDbLine
 62
7
  6
CONTINUOUS
 10
124.1295559534
 20
651.5995623632
 11
164.6295559534
 21
651.5995623632
  0
LINE
  5
339
100
AcDbEntity
  8
0
100
AcDbLine
 62
7
  6
CONTINUOUS
 10
197.1295559534
 20
651.5995623632
 11
199.6295559534
 21
651.5995623632
  0
LINE
  5
33A
100
AcDbEntity
  8
0
100
AcDbLine
 62
7
  6
CONTINUOUS
 10
874.6295559534
 20
651.5995623632
 11
915.1295559534
 21
651.5995623632
  0
LINE
  5
33B
100
AcDbEntity
  8
0
100
AcDbLine
 62
7
  6
CONTINUOUS
 10
165.6295559534
 20
653.5995623632
 11
169.6295559534
 21
653.5995623632
  0
LINE
  5
33C
100
AcDbEntity
  8
0
100
AcDbLine
 62
7
  6
CONTINUOUS
 10
191.1295559534
 20
653.5995623632
 11
195.1295559534
 21
653.5995623632
  0
LINE
  5
33D
100
AcDbEntity
  8
0
100
AcDbLine
 62
7
  6
CONTINUOUS
 10
844.1295559534
 20
653.5995623632
 11
848.1295559534
 21
653.5995623632
  0
LINE
  5
33E
100
AcDbEntity
  8
0
100
AcDbLine
 62
7
  6
CONTINUOUS
 10
869.6295559534
 20
653.5995623632
 11
873.6295559534
 21
653.5995623632
  0
LINE
  5
33F
100
AcDbEntity
  8
0
100
AcDbLine
 62
7
  6
CONTINUOUS
 10
121.8415196068
 20
655.4595623632
 11
119.6295559534
 21
655.4595623632
  0
LINE
  5
340
100
AcDbEntity
  8
0
100
AcDbLine
 62
7
  6
CONTINUOUS
 10
917.4176417987
 20
655.4595623632
 11
919.6295559534
 21
655.4595623632
  0
LINE
  5
341
100
AcDbEntity
  8
0
100
AcDbLine
 62
7
  6
CONTINUOUS
 10
915.1295559534
 20
656.0995623632
 11
874.6295559534
 21
656.0995623632
  0
LINE
  5
342
100
AcDbEntity
  8
0
100
AcDbLine
 62
7
  6
CONTINUOUS
 10
164.6295559534
 20
656.0995623632
 11
124.1295559534
 21
656.0995623632
  0
LINE
  5
343
100
AcDbEntity
  8
0
100
AcDbLine
 62
7
  6
CONTINUOUS
 10
165.6295559534
 20
656.0995623632
 11
169.6295559534
 21
656.0995623632
  0
LINE
  5
344
100
AcDbEntity
  8
0
100
AcDbLine
 62
7
  6
CONTINUOUS
 10
191.1295559534
 20
656.0995623632
 11
195.1295559534
 21
656.0995623632
  0
LINE
  5
345
100
AcDbEntity
  8
0
100
AcDbLine
 62
7
  6
CONTINUOUS
 10
844.1295559534
 20
656.0995623632
 11
848.1295559534
 21
656.0995623632
  0
LINE
  5
346
100
AcDbEntity
  8
0
100
AcDbLine
 62
7
  6
CONTINUOUS
 10
869.6295559534
 20
656.0995623632
 11
873.6295559534
 21
656.0995623632
  0
LINE
  5
347
100
AcDbEntity
  8
0
100
AcDbLine
 62
7
  6
CONTINUOUS
 10
144.6295559534
 20
663.0995623632
 11
147.1295559534
 21
663.0995623632
  0
LINE
  5
348
100
AcDbEntity
  8
0
100
AcDbLine
 62
7
  6
CONTINUOUS
 10
892.1295559534
 20
663.0995623632
 11
894.6295559534
 21
663.0995623632
  0
LINE
  5
349
100
AcDbEntity
  8
0
100
AcDbLine
 62
7
  6
CONTINUOUS
 10
183.3795559534
 20
663.3495623632
 11
177.3795559534
 21
663.3495623632
  0
LINE
  5
34A
100
AcDbEntity
  8
0
100
AcDbLine
 62
7
  6
CONTINUOUS
 10
855.8795559534
 20
663.3495623632
 11
861.8795559534
 21
663.3495623632
  0
LINE
  5
34B
100
AcDbEntity
  8
0
100
AcDbLine
 62
7
  6
CONTINUOUS
 10
199.738844045
 20
578.2972004358
 11
200.5552418999
 21
578.5238043234
  0
LINE
  5
34C
100
AcDbEntity
  8
0
100
AcDbLine
 62
7
  6
CONTINUOUS
 10
894.6295559534
 20
666.0995623632
 11
892.1295559534
 21
666.0995623632
  0
LINE
  5
34D
100
AcDbEntity
  8
0
100
AcDbLine
 62
7
  6
CONTINUOUS
 10
147.1295559534
 20
666.0995623632
 11
144.6295559534
 21
666.0995623632
  0
LINE
  5
34E
100
AcDbEntity
  8
0
100
AcDbLine
 62
7
  6
CONTINUOUS
 10
861.8795559534
 20
672.8495623632
 11
855.8795559534
 21
672.8495623632
  0
LINE
  5
34F
100
AcDbEntity
  8
0
100
AcDbLine
 62
7
  6
CONTINUOUS
 10
177.3795559534
 20
672.8495623632
 11
183.3795559534
 21
672.8495623632
  0
LINE
  5
350
100
AcDbEntity
  8
0
100
AcDbLine
 62
7
  6
CONTINUOUS
 10
866.6295559534
 20
680.0995623632
 11
851.1295559534
 21
680.0995623632
  0
LINE
  5
351
100
AcDbEntity
  8
0
100
AcDbLine
 62
7
  6
CONTINUOUS
 10
188.1295559534
 20
680.0995623632
 11
172.6295559534
 21
680.0995623632
  0
LINE
  5
352
100
AcDbEntity
  8
0
100
AcDbLine
 62
7
  6
CONTINUOUS
 10
838.7038492877
 20
578.5238100744
 11
839.5202678618
 21
578.2972004358
  0
LINE
  5
353
100
AcDbEntity
  8
0
100
AcDbLine
 62
7
  6
CONTINUOUS
 10
839.5202678618
 20
858.9019242906
 11
838.7038700069
 21
858.675320403
  0
LINE
  5
354
100
AcDbEntity
  8
0
100
AcDbLine
 62
7
  6
CONTINUOUS
 10
172.6295559534
 20
757.0995623632
 11
188.1295559534
 21
757.0995623632
  0
LINE
  5
355
100
AcDbEntity
  8
0
100
AcDbLine
 62
7
  6
CONTINUOUS
 10
851.1295559534
 20
757.0995623632
 11
866.6295559534
 21
757.0995623632
  0
LINE
  5
356
100
AcDbEntity
  8
0
100
AcDbLine
 62
7
  6
CONTINUOUS
 10
861.8795559534
 20
764.3495623632
 11
855.8795559534
 21
764.3495623632
  0
LINE
  5
357
100
AcDbEntity
  8
0
100
AcDbLine
 62
7
  6
CONTINUOUS
 10
177.3795559534
 20
764.3495623632
 11
183.3795559534
 21
764.3495623632
  0
LINE
  5
358
100
AcDbEntity
  8
0
100
AcDbLine
 62
7
  6
CONTINUOUS
 10
144.6295559534
 20
771.0995623632
 11
147.1295559534
 21
771.0995623632
  0
LINE
  5
359
100
AcDbEntity
  8
0
100
AcDbLine
 62
7
  6
CONTINUOUS
 10
892.1295559534
 20
771.0995623632
 11
894.6295559534
 21
771.0995623632
  0
LINE
  5
35A
100
AcDbEntity
  8
0
100
AcDbLine
 62
7
  6
CONTINUOUS
 10
183.3795559534
 20
773.8495623632
 11
177.3795559534
 21
773.8495623632
  0
LINE
  5
35B
100
AcDbEntity
  8
0
100
AcDbLine
 62
7
  6
CONTINUOUS
 10
855.8795559534
 20
773.8495623632
 11
861.8795559534
 21
773.8495623632
  0
LINE
  5
35C
100
AcDbEntity
  8
0
100
AcDbLine
 62
7
  6
CONTINUOUS
 10
894.6295559534
 20
774.0995623632
 11
892.1295559534
 21
774.0995623632
  0
LINE
  5
35D
100
AcDbEntity
  8
0
100
AcDbLine
 62
7
  6
CONTINUOUS
 10
147.1295559534
 20
774.0995623632
 11
144.6295559534
 21
774.0995623632
  0
LINE
  5
35E
100
AcDbEntity
  8
0
100
AcDbLine
 62
7
  6
CONTINUOUS
 10
200.5552626191
 20
858.6753146521
 11
199.738844045
 21
858.9019242906
  0
LINE
  5
35F
100
AcDbEntity
  8
0
100
AcDbLine
 62
7
  6
CONTINUOUS
 10
873.6295559534
 20
781.0995623632
 11
869.6295559534
 21
781.0995623632
  0
LINE
  5
360
100
AcDbEntity
  8
0
100
AcDbLine
 62
7
  6
CONTINUOUS
 10
848.1295559534
 20
781.0995623632
 11
844.1295559534
 21
781.0995623632
  0
LINE
  5
361
100
AcDbEntity
  8
0
100
AcDbLine
 62
7
  6
CONTINUOUS
 10
195.1295559534
 20
781.0995623632
 11
191.1295559534
 21
781.0995623632
  0
LINE
  5
362
100
AcDbEntity
  8
0
100
AcDbLine
 62
7
  6
CONTINUOUS
 10
169.6295559534
 20
781.0995623632
 11
165.6295559534
 21
781.0995623632
  0
LINE
  5
363
100
AcDbEntity
  8
0
100
AcDbLine
 62
7
  6
CONTINUOUS
 10
124.1295559534
 20
781.0995623632
 11
164.6295559534
 21
781.0995623632
  0
LINE
  5
364
100
AcDbEntity
  8
0
100
AcDbLine
 62
7
  6
CONTINUOUS
 10
874.6295559534
 20
781.0995623632
 11
915.1295559534
 21
781.0995623632
  0
LINE
  5
365
100
AcDbEntity
  8
0
100
AcDbLine
 62
7
  6
CONTINUOUS
 10
121.8414701081
 20
781.7395623632
 11
119.6295559534
 21
781.7395623632
  0
LINE
  5
366
100
AcDbEntity
  8
0
100
AcDbLine
 62
7
  6
CONTINUOUS
 10
917.4175923001
 20
781.7395623632
 11
919.6295559534
 21
781.7395623632
  0
LINE
  5
367
100
AcDbEntity
  8
0
100
AcDbLine
 62
7
  6
CONTINUOUS
 10
873.6295559534
 20
783.5995623632
 11
869.6295559534
 21
783.5995623632
  0
LINE
  5
368
100
AcDbEntity
  8
0
100
AcDbLine
 62
7
  6
CONTINUOUS
 10
848.1295559534
 20
783.5995623632
 11
844.1295559534
 21
783.5995623632
  0
LINE
  5
369
100
AcDbEntity
  8
0
100
AcDbLine
 62
7
  6
CONTINUOUS
 10
195.1295559534
 20
783.5995623632
 11
191.1295559534
 21
783.5995623632
  0
LINE
  5
36A
100
AcDbEntity
  8
0
100
AcDbLine
 62
7
  6
CONTINUOUS
 10
169.6295559534
 20
783.5995623632
 11
165.6295559534
 21
783.5995623632
  0
LINE
  5
36B
100
AcDbEntity
  8
0
100
AcDbLine
 62
7
  6
CONTINUOUS
 10
915.1295559534
 20
785.5995623632
 11
874.6295559534
 21
785.5995623632
  0
LINE
  5
36C
100
AcDbEntity
  8
0
100
AcDbLine
 62
7
  6
CONTINUOUS
 10
842.1295559534
 20
785.5995623632
 11
839.6295559534
 21
785.5995623632
  0
LINE
  5
36D
100
AcDbEntity
  8
0
100
AcDbLine
 62
7
  6
CONTINUOUS
 10
164.6295559534
 20
785.5995623632
 11
124.1295559534
 21
785.5995623632
  0
LINE
  5
36E
100
AcDbEntity
  8
0
100
AcDbLine
 62
7
  6
CONTINUOUS
 10
197.1295559534
 20
785.5995623632
 11
199.6295559534
 21
785.5995623632
  0
LINE
  5
36F
100
AcDbEntity
  8
0
100
AcDbLine
 62
7
  6
CONTINUOUS
 10
193.1295559534
 20
789.5995623632
 11
197.1295559534
 21
789.5995623632
  0
LINE
  5
370
100
AcDbEntity
  8
0
100
AcDbLine
 62
7
  6
CONTINUOUS
 10
892.1295559534
 20
797.0995623632
 11
875.6295559534
 21
797.0995623632
  0
LINE
  5
371
100
AcDbEntity
  8
0
100
AcDbLine
 62
7
  6
CONTINUOUS
 10
147.1295559534
 20
797.0995623632
 11
163.6295559534
 21
797.0995623632
  0
LINE
  5
372
100
AcDbEntity
  8
0
100
AcDbLine
 62
7
  6
CONTINUOUS
 10
909.0295559534
 20
797.4995623632
 11
900.2295559534
 21
797.4995623632
  0
LINE
  5
373
100
AcDbEntity
  8
0
100
AcDbLine
 62
7
  6
CONTINUOUS
 10
139.0295559534
 20
797.4995623632
 11
130.2295559534
 21
797.4995623632
  0
LINE
  5
374
100
AcDbEntity
  8
0
100
AcDbLine
 62
7
  6
CONTINUOUS
 10
919.6295559534
 20
801.0995623632
 11
915.1295559534
 21
801.0995623632
  0
LINE
  5
375
100
AcDbEntity
  8
0
100
AcDbLine
 62
7
  6
CONTINUOUS
 10
163.6295559534
 20
801.0995623632
 11
147.1295559534
 21
801.0995623632
  0
LINE
  5
376
100
AcDbEntity
  8
0
100
AcDbLine
 62
7
  6
CONTINUOUS
 10
124.1295559534
 20
801.0995623632
 11
119.6295559534
 21
801.0995623632
  0
LINE
  5
377
100
AcDbEntity
  8
0
100
AcDbLine
 62
7
  6
CONTINUOUS
 10
875.6295559534
 20
801.0995623632
 11
892.1295559534
 21
801.0995623632
  0
LINE
  5
378
100
AcDbEntity
  8
0
100
AcDbLine
 62
7
  6
CONTINUOUS
 10
197.1295559534
 20
806.0995623632
 11
199.6295559534
 21
806.0995623632
  0
LINE
  5
379
100
AcDbEntity
  8
0
100
AcDbLine
 62
7
  6
CONTINUOUS
 10
130.2295559534
 20
806.6995623632
 11
139.0295559534
 21
806.6995623632
  0
LINE
  5
37A
100
AcDbEntity
  8
0
100
AcDbLine
 62
7
  6
CONTINUOUS
 10
900.2295559534
 20
806.6995623632
 11
909.0295559534
 21
806.6995623632
  0
LINE
  5
37B
100
AcDbEntity
  8
0
100
AcDbLine
 62
7
  6
CONTINUOUS
 10
199.6295559534
 20
811.0995623632
 11
197.1295559534
 21
811.0995623632
  0
LINE
  5
37C
100
AcDbEntity
  8
0
100
AcDbLine
 62
7
  6
CONTINUOUS
 10
183.6295559534
 20
817.0995623632
 11
179.6295559534
 21
817.0995623632
  0
LINE
  5
37D
100
AcDbEntity
  8
0
100
AcDbLine
 62
7
  6
CONTINUOUS
 10
139.6295559534
 20
817.0995623632
 11
135.6295559534
 21
817.0995623632
  0
LINE
  5
37E
100
AcDbEntity
  8
0
100
AcDbLine
 62
7
  6
CONTINUOUS
 10
855.6295559534
 20
817.0995623632
 11
859.6295559534
 21
817.0995623632
  0
LINE
  5
37F
100
AcDbEntity
  8
0
100
AcDbLine
 62
7
  6
CONTINUOUS
 10
899.6295559534
 20
817.0995623632
 11
903.6295559534
 21
817.0995623632
  0
LINE
  5
380
100
AcDbEntity
  8
0
100
AcDbLine
 62
7
  6
CONTINUOUS
 10
119.6295559534
 20
819.0995623632
 11
124.1295559534
 21
819.0995623632
  0
LINE
  5
381
100
AcDbEntity
  8
0
100
AcDbLine
 62
7
  6
CONTINUOUS
 10
915.1295559534
 20
819.0995623632
 11
919.6295559534
 21
819.0995623632
  0
LINE
  5
382
100
AcDbEntity
  8
0
100
AcDbLine
 62
7
  6
CONTINUOUS
 10
903.6295559534
 20
833.5995623632
 11
899.6295559534
 21
833.5995623632
  0
LINE
  5
383
100
AcDbEntity
  8
0
100
AcDbLine
 62
7
  6
CONTINUOUS
 10
859.6295559534
 20
833.5995623632
 11
855.6295559534
 21
833.5995623632
  0
LINE
  5
384
100
AcDbEntity
  8
0
100
AcDbLine
 62
7
  6
CONTINUOUS
 10
135.6295559534
 20
833.5995623632
 11
139.6295559534
 21
833.5995623632
  0
LINE
  5
385
100
AcDbEntity
  8
0
100
AcDbLine
 62
7
  6
CONTINUOUS
 10
179.6295559534
 20
833.5995623632
 11
183.6295559534
 21
833.5995623632
  0
LINE
  5
386
100
AcDbEntity
  8
0
100
AcDbLine
 62
7
  6
CONTINUOUS
 10
199.7295559534
 20
833.5995623632
 11
209.6295559534
 21
833.5995623632
  0
LINE
  5
387
100
AcDbEntity
  8
0
100
AcDbLine
 62
7
  6
CONTINUOUS
 10
829.6295559534
 20
833.5995623632
 11
839.5295559534
 21
833.5995623632
  0
LINE
  5
388
100
AcDbEntity
  8
0
100
AcDbLine
 62
7
  6
CONTINUOUS
 10
919.6295559534
 20
836.0995623632
 11
915.1295559534
 21
836.0995623632
  0
LINE
  5
389
100
AcDbEntity
  8
0
100
AcDbLine
 62
7
  6
CONTINUOUS
 10
124.1295559534
 20
836.0995623632
 11
119.6295559534
 21
836.0995623632
  0
LINE
  5
38A
100
AcDbEntity
  8
0
100
AcDbLine
 62
7
  6
CONTINUOUS
 10
199.6295559534
 20
836.0995623632
 11
209.6295559534
 21
836.0995623632
  0
LINE
  5
38B
100
AcDbEntity
  8
0
100
AcDbLine
 62
7
  6
CONTINUOUS
 10
829.6295559534
 20
836.0995623632
 11
839.6295559534
 21
836.0995623632
  0
LINE
  5
38C
100
AcDbEntity
  8
0
100
AcDbLine
 62
7
  6
CONTINUOUS
 10
839.6295559534
 20
837.0995623632
 11
838.1295559534
 21
837.0995623632
  0
LINE
  5
38D
100
AcDbEntity
  8
0
100
AcDbLine
 62
7
  6
CONTINUOUS
 10
199.6295559534
 20
837.0995623632
 11
201.1295559534
 21
837.0995623632
  0
LINE
  5
38E
100
AcDbEntity
  8
0
100
AcDbLine
 62
7
  6
CONTINUOUS
 10
839.6295559534
 20
838.5995623632
 11
838.1295559534
 21
838.5995623632
  0
LINE
  5
38F
100
AcDbEntity
  8
0
100
AcDbLine
 62
7
  6
CONTINUOUS
 10
199.6295559534
 20
838.5995623632
 11
201.1295559534
 21
838.5995623632
  0
LINE
  5
390
100
AcDbEntity
  8
0
100
AcDbLine
 62
7
  6
CONTINUOUS
 10
839.6295559534
 20
839.5995623632
 11
838.1295559534
 21
839.5995623632
  0
LINE
  5
391
100
AcDbEntity
  8
0
100
AcDbLine
 62
7
  6
CONTINUOUS
 10
199.6295559534
 20
839.5995623632
 11
201.1295559534
 21
839.5995623632
  0
LINE
  5
392
100
AcDbEntity
  8
0
100
AcDbLine
 62
7
  6
CONTINUOUS
 10
892.1295559534
 20
841.0995623632
 11
875.6295559534
 21
841.0995623632
  0
LINE
  5
393
100
AcDbEntity
  8
0
100
AcDbLine
 62
7
  6
CONTINUOUS
 10
147.1295559534
 20
841.0995623632
 11
163.6295559534
 21
841.0995623632
  0
LINE
  5
394
100
AcDbEntity
  8
0
100
AcDbLine
 62
7
  6
CONTINUOUS
 10
200.2295559534
 20
841.0995623632
 11
839.0295559534
 21
841.0995623632
  0
LINE
  5
395
100
AcDbEntity
  8
0
100
AcDbLine
 62
7
  6
CONTINUOUS
 10
839.6295559534
 20
843.0995623632
 11
839.0295559534
 21
843.0995623632
  0
LINE
  5
396
100
AcDbEntity
  8
0
100
AcDbLine
 62
7
  6
CONTINUOUS
 10
199.6295559534
 20
843.0995623632
 11
200.2295559534
 21
843.0995623632
  0
LINE
  5
397
100
AcDbEntity
  8
0
100
AcDbLine
 62
7
  6
CONTINUOUS
 10
839.0295559534
 20
844.0995623632
 11
200.2295559534
 21
844.0995623632
  0
LINE
  5
398
100
AcDbEntity
  8
0
100
AcDbLine
 62
7
  6
CONTINUOUS
 10
839.6295559534
 20
845.0995623632
 11
839.0295559534
 21
845.0995623632
  0
LINE
  5
399
100
AcDbEntity
  8
0
100
AcDbLine
 62
7
  6
CONTINUOUS
 10
163.6295559534
 20
845.0995623632
 11
147.1295559534
 21
845.0995623632
  0
LINE
  5
39A
100
AcDbEntity
  8
0
100
AcDbLine
 62
7
  6
CONTINUOUS
 10
199.6295559534
 20
845.0995623632
 11
200.2295559534
 21
845.0995623632
  0
LINE
  5
39B
100
AcDbEntity
  8
0
100
AcDbLine
 62
7
  6
CONTINUOUS
 10
875.6295559534
 20
845.0995623632
 11
892.1295559534
 21
845.0995623632
  0
LINE
  5
39C
100
AcDbEntity
  8
0
100
AcDbLine
 62
7
  6
CONTINUOUS
 10
197.1295559534
 20
849.0995623632
 11
199.6295559534
 21
849.0995623632
  0
LINE
  5
39D
100
AcDbEntity
  8
0
100
AcDbLine
 62
7
  6
CONTINUOUS
 10
912.4935169841
 20
854.0995623632
 11
892.7655949227
 21
854.0995623632
  0
LINE
  5
39E
100
AcDbEntity
  8
0
100
AcDbLine
 62
7
  6
CONTINUOUS
 10
877.4935169841
 20
854.0995623632
 11
857.7655949227
 21
854.0995623632
  0
LINE
  5
39F
100
AcDbEntity
  8
0
100
AcDbLine
 62
7
  6
CONTINUOUS
 10
181.4935169841
 20
854.0995623632
 11
161.7655949227
 21
854.0995623632
  0
LINE
  5
3A0
100
AcDbEntity
  8
0
100
AcDbLine
 62
7
  6
CONTINUOUS
 10
146.4935169841
 20
854.0995623632
 11
126.7655949227
 21
854.0995623632
  0
LINE
  5
3A1
100
AcDbEntity
  8
0
100
AcDbLine
 62
7
  6
CONTINUOUS
 10
197.1295559534
 20
854.0995623632
 11
199.6295559534
 21
854.0995623632
  0
LINE
  5
3A2
100
AcDbEntity
  8
0
100
AcDbLine
 62
7
  6
CONTINUOUS
 10
900.1295559534
 20
856.8995623632
 11
894.6295559534
 21
856.8995623632
  0
LINE
  5
3A3
100
AcDbEntity
  8
0
100
AcDbLine
 62
7
  6
CONTINUOUS
 10
865.1295559534
 20
856.8995623632
 11
859.6295559534
 21
856.8995623632
  0
LINE
  5
3A4
100
AcDbEntity
  8
0
100
AcDbLine
 62
7
  6
CONTINUOUS
 10
179.6295559534
 20
856.8995623632
 11
174.1295559534
 21
856.8995623632
  0
LINE
  5
3A5
100
AcDbEntity
  8
0
100
AcDbLine
 62
7
  6
CONTINUOUS
 10
144.6295559534
 20
856.8995623632
 11
139.1295559534
 21
856.8995623632
  0
LINE
  5
3A6
100
AcDbEntity
  8
0
100
AcDbLine
 62
7
  6
CONTINUOUS
 10
912.4935169841
 20
857.0995623632
 11
892.7655949227
 21
857.0995623632
  0
LINE
  5
3A7
100
AcDbEntity
  8
0
100
AcDbLine
 62
7
  6
CONTINUOUS
 10
877.4935169841
 20
857.0995623632
 11
857.7655949227
 21
857.0995623632
  0
LINE
  5
3A8
100
AcDbEntity
  8
0
100
AcDbLine
 62
7
  6
CONTINUOUS
 10
126.7655949227
 20
857.0995623632
 11
146.4935169841
 21
857.0995623632
  0
LINE
  5
3A9
100
AcDbEntity
  8
0
100
AcDbLine
 62
7
  6
CONTINUOUS
 10
161.7655949227
 20
857.0995623632
 11
181.4935169841
 21
857.0995623632
  0
LINE
  5
3AA
100
AcDbEntity
  8
0
100
AcDbLine
 62
7
  6
CONTINUOUS
 10
200.2295559534
 20
858.0995623632
 11
839.0295559534
 21
858.0995623632
  0
LINE
  5
3AB
100
AcDbEntity
  8
0
100
AcDbLine
 62
7
  6
CONTINUOUS
 10
836.6295559534
 20
861.0995623632
 11
202.6295559534
 21
861.0995623632
  0
LINE
  5
3AC
100
AcDbEntity
  8
0
100
AcDbLine
 62
7
  6
CONTINUOUS
 10
119.6295559534
 20
861.0995623632
 11
199.6295559534
 21
861.0995623632
  0
LINE
  5
3AD
100
AcDbEntity
  8
0
100
AcDbLine
 62
7
  6
CONTINUOUS
 10
839.6295559534
 20
861.0995623632
 11
919.6295559534
 21
861.0995623632
  0
LINE
  5
3AE
100
AcDbEntity
  8
0
100
AcDbLine
 62
7
  6
CONTINUOUS
 10
163.1295559534
 20
863.0995623632
 11
161.8295559534
 21
863.0995623632
  0
LINE
  5
3AF
100
AcDbEntity
  8
0
100
AcDbLine
 62
7
  6
CONTINUOUS
 10
160.5295559534
 20
863.0995623632
 11
159.2295559534
 21
863.0995623632
  0
LINE
  5
3B0
100
AcDbEntity
  8
0
100
AcDbLine
 62
7
  6
CONTINUOUS
 10
157.9295559534
 20
863.0995623632
 11
156.6295559534
 21
863.0995623632
  0
LINE
  5
3B1
100
AcDbEntity
  8
0
100
AcDbLine
 62
7
  6
CONTINUOUS
 10
155.3295559534
 20
863.0995623632
 11
154.0295559534
 21
863.0995623632
  0
LINE
  5
3B2
100
AcDbEntity
  8
0
100
AcDbLine
 62
7
  6
CONTINUOUS
 10
152.7295559534
 20
863.0995623632
 11
151.4295559534
 21
863.0995623632
  0
LINE
  5
3B3
100
AcDbEntity
  8
0
100
AcDbLine
 62
7
  6
CONTINUOUS
 10
150.1295559534
 20
863.0995623632
 11
148.8295559534
 21
863.0995623632
  0
LINE
  5
3B4
100
AcDbEntity
  8
0
100
AcDbLine
 62
7
  6
CONTINUOUS
 10
147.5295559534
 20
863.0995623632
 11
146.2295559534
 21
863.0995623632
  0
LINE
  5
3B5
100
AcDbEntity
  8
0
100
AcDbLine
 62
7
  6
CONTINUOUS
 10
144.9295559534
 20
863.0995623632
 11
143.6295559534
 21
863.0995623632
  0
LINE
  5
3B6
100
AcDbEntity
  8
0
100
AcDbLine
 62
7
  6
CONTINUOUS
 10
142.3295559534
 20
863.0995623632
 11
141.0295559534
 21
863.0995623632
  0
LINE
  5
3B7
100
AcDbEntity
  8
0
100
AcDbLine
 62
7
  6
CONTINUOUS
 10
139.7295559534
 20
863.0995623632
 11
138.4295559534
 21
863.0995623632
  0
LINE
  5
3B8
100
AcDbEntity
  8
0
100
AcDbLine
 62
7
  6
CONTINUOUS
 10
137.1295559534
 20
863.0995623632
 11
135.8295559534
 21
863.0995623632
  0
LINE
  5
3B9
100
AcDbEntity
  8
0
100
AcDbLine
 62
7
  6
CONTINUOUS
 10
134.5295559534
 20
863.0995623632
 11
133.2295559534
 21
863.0995623632
  0
LINE
  5
3BA
100
AcDbEntity
  8
0
100
AcDbLine
 62
7
  6
CONTINUOUS
 10
131.9295559534
 20
863.0995623632
 11
130.6295559534
 21
863.0995623632
  0
LINE
  5
3BB
100
AcDbEntity
  8
0
100
AcDbLine
 62
7
  6
CONTINUOUS
 10
129.3295559534
 20
863.0995623632
 11
128.0295559534
 21
863.0995623632
  0
LINE
  5
3BC
100
AcDbEntity
  8
0
100
AcDbLine
 62
7
  6
CONTINUOUS
 10
126.7295559534
 20
863.0995623632
 11
125.4295559534
 21
863.0995623632
  0
LINE
  5
3BD
100
AcDbEntity
  8
0
100
AcDbLine
 62
7
  6
CONTINUOUS
 10
876.1295559534
 20
863.0995623632
 11
877.4295559534
 21
863.0995623632
  0
LINE
  5
3BE
100
AcDbEntity
  8
0
100
AcDbLine
 62
7
  6
CONTINUOUS
 10
878.7295559534
 20
863.0995623632
 11
880.0295559534
 21
863.0995623632
  0
LINE
  5
3BF
100
AcDbEntity
  8
0
100
AcDbLine
 62
7
  6
CONTINUOUS
 10
881.3295559534
 20
863.0995623632
 11
882.6295559534
 21
863.0995623632
  0
LINE
  5
3C0
100
AcDbEntity
  8
0
100
AcDbLine
 62
7
  6
CONTINUOUS
 10
883.9295559534
 20
863.0995623632
 11
885.2295559534
 21
863.0995623632
  0
LINE
  5
3C1
100
AcDbEntity
  8
0
100
AcDbLine
 62
7
  6
CONTINUOUS
 10
886.5295559534
 20
863.0995623632
 11
887.8295559534
 21
863.0995623632
  0
LINE
  5
3C2
100
AcDbEntity
  8
0
100
AcDbLine
 62
7
  6
CONTINUOUS
 10
889.1295559534
 20
863.0995623632
 11
890.4295559534
 21
863.0995623632
  0
LINE
  5
3C3
100
AcDbEntity
  8
0
100
AcDbLine
 62
7
  6
CONTINUOUS
 10
891.7295559534
 20
863.0995623632
 11
893.0295559534
 21
863.0995623632
  0
LINE
  5
3C4
100
AcDbEntity
  8
0
100
AcDbLine
 62
7
  6
CONTINUOUS
 10
894.3295559534
 20
863.0995623632
 11
895.6295559534
 21
863.0995623632
  0
LINE
  5
3C5
100
AcDbEntity
  8
0
100
AcDbLine
 62
7
  6
CONTINUOUS
 10
896.9295559534
 20
863.0995623632
 11
898.2295559534
 21
863.0995623632
  0
LINE
  5
3C6
100
AcDbEntity
  8
0
100
AcDbLine
 62
7
  6
CONTINUOUS
 10
899.5295559534
 20
863.0995623632
 11
900.8295559534
 21
863.0995623632
  0
LINE
  5
3C7
100
AcDbEntity
  8
0
100
AcDbLine
 62
7
  6
CONTINUOUS
 10
902.1295559534
 20
863.0995623632
 11
903.4295559534
 21
863.0995623632
  0
LINE
  5
3C8
100
AcDbEntity
  8
0
100
AcDbLine
 62
7
  6
CONTINUOUS
 10
904.7295559534
 20
863.0995623632
 11
906.0295559534
 21
863.0995623632
  0
LINE
  5
3C9
100
AcDbEntity
  8
0
100
AcDbLine
 62
7
  6
CONTINUOUS
 10
907.3295559534
 20
863.0995623632
 11
908.6295559534
 21
863.0995623632
  0
LINE
  5
3CA
100
AcDbEntity
  8
0
100
AcDbLine
 62
7
  6
CONTINUOUS
 10
909.9295559534
 20
863.0995623632
 11
911.2295559534
 21
863.0995623632
  0
LINE
  5
3CB
100
AcDbEntity
  8
0
100
AcDbLine
 62
7
  6
CONTINUOUS
 10
912.5295559534
 20
863.0995623632
 11
913.8295559534
 21
863.0995623632
  0
LINE
  5
3CC
100
AcDbEntity
  8
0
100
AcDbLine
 62
7
  6
CONTINUOUS
 10
912.5295559534
 20
863.5995623632
 11
911.2295559534
 21
863.5995623632
  0
LINE
  5
3CD
100
AcDbEntity
  8
0
100
AcDbLine
 62
7
  6
CONTINUOUS
 10
909.9295559534
 20
863.5995623632
 11
908.6295559534
 21
863.5995623632
  0
LINE
  5
3CE
100
AcDbEntity
  8
0
100
AcDbLine
 62
7
  6
CONTINUOUS
 10
907.3295559534
 20
863.5995623632
 11
906.0295559534
 21
863.5995623632
  0
LINE
  5
3CF
100
AcDbEntity
  8
0
100
AcDbLine
 62
7
  6
CONTINUOUS
 10
904.7295559534
 20
863.5995623632
 11
903.4295559534
 21
863.5995623632
  0
LINE
  5
3D0
100
AcDbEntity
  8
0
100
AcDbLine
 62
7
  6
CONTINUOUS
 10
902.1295559534
 20
863.5995623632
 11
900.8295559534
 21
863.5995623632
  0
LINE
  5
3D1
100
AcDbEntity
  8
0
100
AcDbLine
 62
7
  6
CONTINUOUS
 10
899.5295559534
 20
863.5995623632
 11
898.2295559534
 21
863.5995623632
  0
LINE
  5
3D2
100
AcDbEntity
  8
0
100
AcDbLine
 62
7
  6
CONTINUOUS
 10
896.9295559534
 20
863.5995623632
 11
895.6295559534
 21
863.5995623632
  0
LINE
  5
3D3
100
AcDbEntity
  8
0
100
AcDbLine
 62
7
  6
CONTINUOUS
 10
894.3295559534
 20
863.5995623632
 11
893.0295559534
 21
863.5995623632
  0
LINE
  5
3D4
100
AcDbEntity
  8
0
100
AcDbLine
 62
7
  6
CONTINUOUS
 10
891.7295559534
 20
863.5995623632
 11
890.4295559534
 21
863.5995623632
  0
LINE
  5
3D5
100
AcDbEntity
  8
0
100
AcDbLine
 62
7
  6
CONTINUOUS
 10
889.1295559534
 20
863.5995623632
 11
887.8295559534
 21
863.5995623632
  0
LINE
  5
3D6
100
AcDbEntity
  8
0
100
AcDbLine
 62
7
  6
CONTINUOUS
 10
886.5295559534
 20
863.5995623632
 11
885.2295559534
 21
863.5995623632
  0
LINE
  5
3D7
100
AcDbEntity
  8
0
100
AcDbLine
 62
7
  6
CONTINUOUS
 10
883.9295559534
 20
863.5995623632
 11
882.6295559534
 21
863.5995623632
  0
LINE
  5
3D8
100
AcDbEntity
  8
0
100
AcDbLine
 62
7
  6
CONTINUOUS
 10
881.3295559534
 20
863.5995623632
 11
880.0295559534
 21
863.5995623632
  0
LINE
  5
3D9
100
AcDbEntity
  8
0
100
AcDbLine
 62
7
  6
CONTINUOUS
 10
878.7295559534
 20
863.5995623632
 11
877.4295559534
 21
863.5995623632
  0
LINE
  5
3DA
100
AcDbEntity
  8
0
100
AcDbLine
 62
7
  6
CONTINUOUS
 10
876.1295559534
 20
863.5995623632
 11
845.8545057524
 21
863.5995623632
  0
LINE
  5
3DB
100
AcDbEntity
  8
0
100
AcDbLine
 62
7
  6
CONTINUOUS
 10
193.4046061544
 20
863.5995623632
 11
163.1295559534
 21
863.5995623632
  0
LINE
  5
3DC
100
AcDbEntity
  8
0
100
AcDbLine
 62
7
  6
CONTINUOUS
 10
161.8295559534
 20
863.5995623632
 11
160.5295559534
 21
863.5995623632
  0
LINE
  5
3DD
100
AcDbEntity
  8
0
100
AcDbLine
 62
7
  6
CONTINUOUS
 10
159.2295559534
 20
863.5995623632
 11
157.9295559534
 21
863.5995623632
  0
LINE
  5
3DE
100
AcDbEntity
  8
0
100
AcDbLine
 62
7
  6
CONTINUOUS
 10
156.6295559534
 20
863.5995623632
 11
155.3295559534
 21
863.5995623632
  0
LINE
  5
3DF
100
AcDbEntity
  8
0
100
AcDbLine
 62
7
  6
CONTINUOUS
 10
154.0295559534
 20
863.5995623632
 11
152.7295559534
 21
863.5995623632
  0
LINE
  5
3E0
100
AcDbEntity
  8
0
100
AcDbLine
 62
7
  6
CONTINUOUS
 10
151.4295559534
 20
863.5995623632
 11
150.1295559534
 21
863.5995623632
  0
LINE
  5
3E1
100
AcDbEntity
  8
0
100
AcDbLine
 62
7
  6
CONTINUOUS
 10
148.8295559534
 20
863.5995623632
 11
147.5295559534
 21
863.5995623632
  0
LINE
  5
3E2
100
AcDbEntity
  8
0
100
AcDbLine
 62
7
  6
CONTINUOUS
 10
146.2295559534
 20
863.5995623632
 11
144.9295559534
 21
863.5995623632
  0
LINE
  5
3E3
100
AcDbEntity
  8
0
100
AcDbLine
 62
7
  6
CONTINUOUS
 10
143.6295559534
 20
863.5995623632
 11
142.3295559534
 21
863.5995623632
  0
LINE
  5
3E4
100
AcDbEntity
  8
0
100
AcDbLine
 62
7
  6
CONTINUOUS
 10
141.0295559534
 20
863.5995623632
 11
139.7295559534
 21
863.5995623632
  0
LINE
  5
3E5
100
AcDbEntity
  8
0
100
AcDbLine
 62
7
  6
CONTINUOUS
 10
138.4295559534
 20
863.5995623632
 11
137.1295559534
 21
863.5995623632
  0
LINE
  5
3E6
100
AcDbEntity
  8
0
100
AcDbLine
 62
7
  6
CONTINUOUS
 10
135.8295559534
 20
863.5995623632
 11
134.5295559534
 21
863.5995623632
  0
LINE
  5
3E7
100
AcDbEntity
  8
0
100
AcDbLine
 62
7
  6
CONTINUOUS
 10
133.2295559534
 20
863.5995623632
 11
131.9295559534
 21
863.5995623632
  0
LINE
  5
3E8
100
AcDbEntity
  8
0
100
AcDbLine
 62
7
  6
CONTINUOUS
 10
130.6295559534
 20
863.5995623632
 11
129.3295559534
 21
863.5995623632
  0
LINE
  5
3E9
100
AcDbEntity
  8
0
100
AcDbLine
 62
7
  6
CONTINUOUS
 10
128.0295559534
 20
863.5995623632
 11
126.7295559534
 21
863.5995623632
  0
LINE
  5
3EA
100
AcDbEntity
  8
0
100
AcDbLine
 62
7
  6
CONTINUOUS
 10
865.1295559534
 20
580.2995623632
 11
868.6295559534
 21
581.2995623632
  0
LINE
  5
3EB
100
AcDbEntity
  8
0
100
AcDbLine
 62
7
  6
CONTINUOUS
 10
868.6295559534
 20
855.8995623632
 11
865.1295559534
 21
856.8995623632
  0
LINE
  5
3EC
100
AcDbEntity
  8
0
100
AcDbLine
 62
7
  6
CONTINUOUS
 10
900.1295559534
 20
580.2995623632
 11
903.6295559534
 21
581.2995623632
  0
LINE
  5
3ED
100
AcDbEntity
  8
0
100
AcDbLine
 62
7
  6
CONTINUOUS
 10
903.6295559534
 20
855.8995623632
 11
900.1295559534
 21
856.8995623632
  0
LINE
  5
3EE
100
AcDbEntity
  8
0
100
AcDbLine
 62
7
  6
CONTINUOUS
 10
837.3561832386
 20
860.9118172121
 11
837.3800460954
 21
861.0041732747
  0
LINE
  5
3EF
100
AcDbEntity
  8
0
100
AcDbLine
 62
7
  6
CONTINUOUS
 10
837.3800460954
 20
576.1949514518
 11
837.3561832386
 21
576.2873075143
  0
LINE
  5
3F0
100
AcDbEntity
  8
0
100
AcDbLine
 62
7
  6
CONTINUOUS
 10
829.6295559534
 20
836.0995623632
 11
829.6295559534
 21
833.5995623632
  0
LINE
  5
3F1
100
AcDbEntity
  8
0
100
AcDbLine
 62
7
  6
CONTINUOUS
 10
829.6295559534
 20
603.5995623632
 11
829.6295559534
 21
601.0995623632
  0
LINE
  5
3F2
100
AcDbEntity
  8
0
100
AcDbLine
 62
7
  6
CONTINUOUS
 10
832.6295559534
 20
601.0995623632
 11
832.6295559534
 21
603.5995623632
  0
LINE
  5
3F3
100
AcDbEntity
  8
0
100
AcDbLine
 62
7
  6
CONTINUOUS
 10
832.6295559534
 20
833.5995623632
 11
832.6295559534
 21
836.0995623632
  0
LINE
  5
3F4
100
AcDbEntity
  8
0
100
AcDbLine
 62
7
  6
CONTINUOUS
 10
838.1295559534
 20
596.0995623632
 11
838.1295559534
 21
601.0995623632
  0
LINE
  5
3F5
100
AcDbEntity
  8
0
100
AcDbLine
 62
7
  6
CONTINUOUS
 10
838.1295559534
 20
836.0995623632
 11
838.1295559534
 21
841.0995623632
  0
LINE
  5
3F6
100
AcDbEntity
  8
0
100
AcDbLine
 62
7
  6
CONTINUOUS
 10
839.0295559534
 20
579.0995623632
 11
839.0295559534
 21
596.0995623632
  0
LINE
  5
3F7
100
AcDbEntity
  8
0
100
AcDbLine
 62
7
  6
CONTINUOUS
 10
839.0295559534
 20
841.0995623632
 11
839.0295559534
 21
858.0995623632
  0
LINE
  5
3F8
100
AcDbEntity
  8
0
100
AcDbLine
 62
7
  6
CONTINUOUS
 10
839.6295559534
 20
861.0995623632
 11
839.6295559534
 21
858.9019242906
  0
LINE
  5
3F9
100
AcDbEntity
  8
0
100
AcDbLine
 62
7
  6
CONTINUOUS
 10
839.6295559534
 20
576.0995623632
 11
839.6295559534
 21
651.5995623632
  0
LINE
  5
3FA
100
AcDbEntity
  8
0
100
AcDbLine
 62
7
  6
CONTINUOUS
 10
839.6295559534
 20
785.5995623632
 11
839.6295559534
 21
858.0995623632
  0
LINE
  5
3FB
100
AcDbEntity
  8
0
100
AcDbLine
 62
7
  6
CONTINUOUS
 10
839.9295559534
 20
861.3741449983
 11
839.9295559534
 21
861.0995623632
  0
LINE
  5
3FC
100
AcDbEntity
  8
0
100
AcDbLine
 62
7
  6
CONTINUOUS
 10
839.9295559534
 20
575.8249797282
 11
839.9295559534
 21
576.0995623632
  0
LINE
  5
3FD
100
AcDbEntity
  8
0
100
AcDbLine
 62
7
  6
CONTINUOUS
 10
842.1295559534
 20
576.0995623632
 11
842.1295559534
 21
651.5995623632
  0
LINE
  5
3FE
100
AcDbEntity
  8
0
100
AcDbLine
 62
7
  6
CONTINUOUS
 10
844.1295559673
 20
647.8867973642
 11
844.1295559673
 21
647.5995623632
  0
LINE
  5
3FF
100
AcDbEntity
  8
0
100
AcDbLine
 62
7
  6
CONTINUOUS
 10
844.1295559534
 20
781.0995623632
 11
844.1295559534
 21
783.5995623632
  0
LINE
  5
400
100
AcDbEntity
  8
0
100
AcDbLine
 62
7
  6
CONTINUOUS
 10
844.1295559389
 20
789.3123273525
 11
844.1295559534
 21
861.0995623632
  0
LINE
  5
401
100
AcDbEntity
  8
0
100
AcDbLine
 62
7
  6
CONTINUOUS
 10
848.1295559534
 20
649.5995623632
 11
848.1295559534
 21
677.0995623632
  0
LINE
  5
402
100
AcDbEntity
  8
0
100
AcDbLine
 62
7
  6
CONTINUOUS
 10
848.1295559534
 20
760.0995623632
 11
848.1295559534
 21
787.5995623632
  0
LINE
  5
403
100
AcDbEntity
  8
0
100
AcDbLine
 62
7
  6
CONTINUOUS
 10
855.6295559534
 20
833.5995623632
 11
855.6295559534
 21
817.0995623632
  0
LINE
  5
404
100
AcDbEntity
  8
0
100
AcDbLine
 62
7
  6
CONTINUOUS
 10
855.6295559534
 20
603.5995623632
 11
855.6295559534
 21
620.0995623632
  0
LINE
  5
405
100
AcDbEntity
  8
0
100
AcDbLine
 62
7
  6
CONTINUOUS
 10
857.7655949227
 20
576.0995623632
 11
857.7655949227
 21
583.0995623632
  0
LINE
  5
406
100
AcDbEntity
  8
0
100
AcDbLine
 62
7
  6
CONTINUOUS
 10
857.7655949227
 20
854.0995623632
 11
857.7655949227
 21
861.0995623632
  0
LINE
  5
407
100
AcDbEntity
  8
0
100
AcDbLine
 62
7
  6
CONTINUOUS
 10
859.6295559534
 20
857.0995623632
 11
859.6295559534
 21
856.8995623632
  0
LINE
  5
408
100
AcDbEntity
  8
0
100
AcDbLine
 62
7
  6
CONTINUOUS
 10
859.6295559534
 20
620.0995623632
 11
859.6295559534
 21
603.5995623632
  0
LINE
  5
409
100
AcDbEntity
  8
0
100
AcDbLine
 62
7
  6
CONTINUOUS
 10
859.6295559534
 20
580.2995623632
 11
859.6295559534
 21
580.0995623632
  0
LINE
  5
40A
100
AcDbEntity
  8
0
100
AcDbLine
 62
7
  6
CONTINUOUS
 10
859.6295559534
 20
817.0995623632
 11
859.6295559534
 21
833.5995623632
  0
LINE
  5
40B
100
AcDbEntity
  8
0
100
AcDbLine
 62
7
  6
CONTINUOUS
 10
860.9475754381
 20
576.0995623632
 11
860.9475754381
 21
580.0995623632
  0
LINE
  5
40C
100
AcDbEntity
  8
0
100
AcDbLine
 62
7
  6
CONTINUOUS
 10
860.9475754381
 20
857.0995623632
 11
860.9475754381
 21
861.0995623632
  0
LINE
  5
40D
100
AcDbEntity
  8
0
100
AcDbLine
 62
7
  6
CONTINUOUS
 10
863.0437695158
 20
861.0995623632
 11
863.0437695158
 21
857.0995623632
  0
LINE
  5
40E
100
AcDbEntity
  8
0
100
AcDbLine
 62
7
  6
CONTINUOUS
 10
863.0437695158
 20
580.0995623632
 11
863.0437695158
 21
576.0995623632
  0
LINE
  5
40F
100
AcDbEntity
  8
0
100
AcDbLine
 62
7
  6
CONTINUOUS
 10
864.4579830782
 20
576.0995623632
 11
864.4579830782
 21
580.0995623632
  0
LINE
  5
410
100
AcDbEntity
  8
0
100
AcDbLine
 62
7
  6
CONTINUOUS
 10
864.4579830782
 20
857.0995623632
 11
864.4579830782
 21
861.0995623632
  0
LINE
  5
411
100
AcDbEntity
  8
0
100
AcDbLine
 62
7
  6
CONTINUOUS
 10
868.6295559534
 20
583.0995623632
 11
868.6295559534
 21
580.0995623632
  0
LINE
  5
412
100
AcDbEntity
  8
0
100
AcDbLine
 62
7
  6
CONTINUOUS
 10
868.6295559534
 20
854.0995623632
 11
868.6295559534
 21
857.0995623632
  0
LINE
  5
413
100
AcDbEntity
  8
0
100
AcDbLine
 62
7
  6
CONTINUOUS
 10
869.6295559534
 20
787.5995623632
 11
869.6295559534
 21
760.0995623632
  0
LINE
  5
414
100
AcDbEntity
  8
0
100
AcDbLine
 62
7
  6
CONTINUOUS
 10
869.6295559534
 20
677.0995623632
 11
869.6295559534
 21
649.5995623632
  0
LINE
  5
415
100
AcDbEntity
  8
0
100
AcDbLine
 62
7
  6
CONTINUOUS
 10
870.8011288287
 20
861.0995623632
 11
870.8011288287
 21
857.0995623632
  0
LINE
  5
416
100
AcDbEntity
  8
0
100
AcDbLine
 62
7
  6
CONTINUOUS
 10
870.8011288287
 20
580.0995623632
 11
870.8011288287
 21
576.0995623632
  0
LINE
  5
417
100
AcDbEntity
  8
0
100
AcDbLine
 62
7
  6
CONTINUOUS
 10
872.215342391
 20
576.0995623632
 11
872.215342391
 21
580.0995623632
  0
LINE
  5
418
100
AcDbEntity
  8
0
100
AcDbLine
 62
7
  6
CONTINUOUS
 10
872.215342391
 20
857.0995623632
 11
872.215342391
 21
861.0995623632
  0
LINE
  5
419
100
AcDbEntity
  8
0
100
AcDbLine
 62
7
  6
CONTINUOUS
 10
873.6295559534
 20
783.5995623632
 11
873.6295559534
 21
781.0995623632
  0
LINE
  5
41A
100
AcDbEntity
  8
0
100
AcDbLine
 62
7
  6
CONTINUOUS
 10
873.6295559534
 20
653.5995623632
 11
873.6295559534
 21
656.0995623632
  0
LINE
  5
41B
100
AcDbEntity
  8
0
100
AcDbLine
 62
7
  6
CONTINUOUS
 10
874.3115364687
 20
861.0995623632
 11
874.3115364687
 21
857.0995623632
  0
LINE
  5
41C
100
AcDbEntity
  8
0
100
AcDbLine
 62
7
  6
CONTINUOUS
 10
874.3115364687
 20
580.0995623632
 11
874.3115364687
 21
576.0995623632
  0
LINE
  5
41D
100
AcDbEntity
  8
0
100
AcDbLine
 62
7
  6
CONTINUOUS
 10
874.6295559534
 20
649.5995623632
 11
874.6295559534
 21
656.0995623632
  0
LINE
  5
41E
100
AcDbEntity
  8
0
100
AcDbLine
 62
7
  6
CONTINUOUS
 10
874.6295559534
 20
781.0995623632
 11
874.6295559534
 21
787.5995623632
  0
LINE
  5
41F
100
AcDbEntity
  8
0
100
AcDbLine
 62
7
  6
CONTINUOUS
 10
875.6295559534
 20
640.0995623632
 11
875.6295559534
 21
636.0995623632
  0
LINE
  5
420
100
AcDbEntity
  8
0
100
AcDbLine
 62
7
  6
CONTINUOUS
 10
875.6295559534
 20
596.0995623632
 11
875.6295559534
 21
592.0995623632
  0
LINE
  5
421
100
AcDbEntity
  8
0
100
AcDbLine
 62
7
  6
CONTINUOUS
 10
875.6295559534
 20
797.0995623632
 11
875.6295559534
 21
801.0995623632
  0
LINE
  5
422
100
AcDbEntity
  8
0
100
AcDbLine
 62
7
  6
CONTINUOUS
 10
875.6295559534
 20
841.0995623632
 11
875.6295559534
 21
845.0995623632
  0
LINE
  5
423
100
AcDbEntity
  8
0
100
AcDbLine
 62
7
  6
CONTINUOUS
 10
876.1295559534
 20
574.0995623632
 11
876.1295559534
 21
573.5995623632
  0
LINE
  5
424
100
AcDbEntity
  8
0
100
AcDbLine
 62
7
  6
CONTINUOUS
 10
876.1295559534
 20
863.0995623632
 11
876.1295559534
 21
863.5995623632
  0
LINE
  5
425
100
AcDbEntity
  8
0
100
AcDbLine
 62
7
  6
CONTINUOUS
 10
877.4295559534
 20
574.0995623632
 11
877.4295559534
 21
573.5995623632
  0
LINE
  5
426
100
AcDbEntity
  8
0
100
AcDbLine
 62
7
  6
CONTINUOUS
 10
877.4295559534
 20
863.0995623632
 11
877.4295559534
 21
863.5995623632
  0
LINE
  5
427
100
AcDbEntity
  8
0
100
AcDbLine
 62
7
  6
CONTINUOUS
 10
877.4935169841
 20
576.0995623632
 11
877.4935169841
 21
583.0995623632
  0
LINE
  5
428
100
AcDbEntity
  8
0
100
AcDbLine
 62
7
  6
CONTINUOUS
 10
877.4935169841
 20
854.0995623632
 11
877.4935169841
 21
861.0995623632
  0
LINE
  5
429
100
AcDbEntity
  8
0
100
AcDbLine
 62
7
  6
CONTINUOUS
 10
878.7295559534
 20
574.0995623632
 11
878.7295559534
 21
573.5995623632
  0
LINE
  5
42A
100
AcDbEntity
  8
0
100
AcDbLine
 62
7
  6
CONTINUOUS
 10
878.7295559534
 20
863.0995623632
 11
878.7295559534
 21
863.5995623632
  0
LINE
  5
42B
100
AcDbEntity
  8
0
100
AcDbLine
 62
7
  6
CONTINUOUS
 10
880.0295559534
 20
574.0995623632
 11
880.0295559534
 21
573.5995623632
  0
LINE
  5
42C
100
AcDbEntity
  8
0
100
AcDbLine
 62
7
  6
CONTINUOUS
 10
880.0295559534
 20
863.0995623632
 11
880.0295559534
 21
863.5995623632
  0
LINE
  5
42D
100
AcDbEntity
  8
0
100
AcDbLine
 62
7
  6
CONTINUOUS
 10
881.3295559534
 20
574.0995623632
 11
881.3295559534
 21
573.5995623632
  0
LINE
  5
42E
100
AcDbEntity
  8
0
100
AcDbLine
 62
7
  6
CONTINUOUS
 10
881.3295559534
 20
863.0995623632
 11
881.3295559534
 21
863.5995623632
  0
LINE
  5
42F
100
AcDbEntity
  8
0
100
AcDbLine
 62
7
  6
CONTINUOUS
 10
882.6295559534
 20
574.0995623632
 11
882.6295559534
 21
573.5995623632
  0
LINE
  5
430
100
AcDbEntity
  8
0
100
AcDbLine
 62
7
  6
CONTINUOUS
 10
882.6295559534
 20
863.0995623632
 11
882.6295559534
 21
863.5995623632
  0
LINE
  5
431
100
AcDbEntity
  8
0
100
AcDbLine
 62
7
  6
CONTINUOUS
 10
883.9295559534
 20
574.0995623632
 11
883.9295559534
 21
573.5995623632
  0
LINE
  5
432
100
AcDbEntity
  8
0
100
AcDbLine
 62
7
  6
CONTINUOUS
 10
883.9295559534
 20
863.0995623632
 11
883.9295559534
 21
863.5995623632
  0
LINE
  5
433
100
AcDbEntity
  8
0
100
AcDbLine
 62
7
  6
CONTINUOUS
 10
885.2295559534
 20
574.0995623632
 11
885.2295559534
 21
573.5995623632
  0
LINE
  5
434
100
AcDbEntity
  8
0
100
AcDbLine
 62
7
  6
CONTINUOUS
 10
885.2295559534
 20
863.0995623632
 11
885.2295559534
 21
863.5995623632
  0
LINE
  5
435
100
AcDbEntity
  8
0
100
AcDbLine
 62
7
  6
CONTINUOUS
 10
886.5295559534
 20
574.0995623632
 11
886.5295559534
 21
573.5995623632
  0
LINE
  5
436
100
AcDbEntity
  8
0
100
AcDbLine
 62
7
  6
CONTINUOUS
 10
886.5295559534
 20
863.0995623632
 11
886.5295559534
 21
863.5995623632
  0
LINE
  5
437
100
AcDbEntity
  8
0
100
AcDbLine
 62
7
  6
CONTINUOUS
 10
887.8295559534
 20
574.0995623632
 11
887.8295559534
 21
573.5995623632
  0
LINE
  5
438
100
AcDbEntity
  8
0
100
AcDbLine
 62
7
  6
CONTINUOUS
 10
887.8295559534
 20
863.0995623632
 11
887.8295559534
 21
863.5995623632
  0
LINE
  5
439
100
AcDbEntity
  8
0
100
AcDbLine
 62
7
  6
CONTINUOUS
 10
889.1295559534
 20
574.0995623632
 11
889.1295559534
 21
573.5995623632
  0
LINE
  5
43A
100
AcDbEntity
  8
0
100
AcDbLine
 62
7
  6
CONTINUOUS
 10
889.1295559534
 20
863.0995623632
 11
889.1295559534
 21
863.5995623632
  0
LINE
  5
43B
100
AcDbEntity
  8
0
100
AcDbLine
 62
7
  6
CONTINUOUS
 10
890.4295559534
 20
574.0995623632
 11
890.4295559534
 21
573.5995623632
  0
LINE
  5
43C
100
AcDbEntity
  8
0
100
AcDbLine
 62
7
  6
CONTINUOUS
 10
890.4295559534
 20
863.0995623632
 11
890.4295559534
 21
863.5995623632
  0
LINE
  5
43D
100
AcDbEntity
  8
0
100
AcDbLine
 62
7
  6
CONTINUOUS
 10
891.7295559534
 20
574.0995623632
 11
891.7295559534
 21
573.5995623632
  0
LINE
  5
43E
100
AcDbEntity
  8
0
100
AcDbLine
 62
7
  6
CONTINUOUS
 10
891.7295559534
 20
863.0995623632
 11
891.7295559534
 21
863.5995623632
  0
LINE
  5
43F
100
AcDbEntity
  8
0
100
AcDbLine
 62
7
  6
CONTINUOUS
 10
892.1295559534
 20
845.0995623632
 11
892.1295559534
 21
841.0995623632
  0
LINE
  5
440
100
AcDbEntity
  8
0
100
AcDbLine
 62
7
  6
CONTINUOUS
 10
892.1295559534
 20
801.0995623632
 11
892.1295559534
 21
797.0995623632
  0
LINE
  5
441
100
AcDbEntity
  8
0
100
AcDbLine
 62
7
  6
CONTINUOUS
 10
892.1295559534
 20
592.0995623632
 11
892.1295559534
 21
596.0995623632
  0
LINE
  5
442
100
AcDbEntity
  8
0
100
AcDbLine
 62
7
  6
CONTINUOUS
 10
892.1295559534
 20
636.0995623632
 11
892.1295559534
 21
640.0995623632
  0
LINE
  5
443
100
AcDbEntity
  8
0
100
AcDbLine
 62
7
  6
CONTINUOUS
 10
892.1295559534
 20
656.1995623632
 11
892.1295559534
 21
666.0995623632
  0
LINE
  5
444
100
AcDbEntity
  8
0
100
AcDbLine
 62
7
  6
CONTINUOUS
 10
892.1295559534
 20
771.0995623632
 11
892.1295559534
 21
780.9995623632
  0
LINE
  5
445
100
AcDbEntity
  8
0
100
AcDbLine
 62
7
  6
CONTINUOUS
 10
892.7655949227
 20
576.0995623632
 11
892.7655949227
 21
583.0995623632
  0
LINE
  5
446
100
AcDbEntity
  8
0
100
AcDbLine
 62
7
  6
CONTINUOUS
 10
892.7655949227
 20
854.0995623632
 11
892.7655949227
 21
861.0995623632
  0
LINE
  5
447
100
AcDbEntity
  8
0
100
AcDbLine
 62
7
  6
CONTINUOUS
 10
893.0295559534
 20
574.0995623632
 11
893.0295559534
 21
573.5995623632
  0
LINE
  5
448
100
AcDbEntity
  8
0
100
AcDbLine
 62
7
  6
CONTINUOUS
 10
893.0295559534
 20
863.0995623632
 11
893.0295559534
 21
863.5995623632
  0
LINE
  5
449
100
AcDbEntity
  8
0
100
AcDbLine
 62
7
  6
CONTINUOUS
 10
894.3295559534
 20
574.0995623632
 11
894.3295559534
 21
573.5995623632
  0
LINE
  5
44A
100
AcDbEntity
  8
0
100
AcDbLine
 62
7
  6
CONTINUOUS
 10
894.3295559534
 20
863.0995623632
 11
894.3295559534
 21
863.5995623632
  0
LINE
  5
44B
100
AcDbEntity
  8
0
100
AcDbLine
 62
7
  6
CONTINUOUS
 10
894.6295559534
 20
857.0995623632
 11
894.6295559534
 21
856.8995623632
  0
LINE
  5
44C
100
AcDbEntity
  8
0
100
AcDbLine
 62
7
  6
CONTINUOUS
 10
894.6295559534
 20
780.9995623632
 11
894.6295559534
 21
771.0995623632
  0
LINE
  5
44D
100
AcDbEntity
  8
0
100
AcDbLine
 62
7
  6
CONTINUOUS
 10
894.6295559534
 20
666.0995623632
 11
894.6295559534
 21
656.1995623632
  0
LINE
  5
44E
100
AcDbEntity
  8
0
100
AcDbLine
 62
7
  6
CONTINUOUS
 10
894.6295559534
 20
580.2995623632
 11
894.6295559534
 21
580.0995623632
  0
LINE
  5
44F
100
AcDbEntity
  8
0
100
AcDbLine
 62
7
  6
CONTINUOUS
 10
895.6295559534
 20
574.0995623632
 11
895.6295559534
 21
573.5995623632
  0
LINE
  5
450
100
AcDbEntity
  8
0
100
AcDbLine
 62
7
  6
CONTINUOUS
 10
895.6295559534
 20
863.0995623632
 11
895.6295559534
 21
863.5995623632
  0
LINE
  5
451
100
AcDbEntity
  8
0
100
AcDbLine
 62
7
  6
CONTINUOUS
 10
895.9475754381
 20
576.0995623632
 11
895.9475754381
 21
580.0995623632
  0
LINE
  5
452
100
AcDbEntity
  8
0
100
AcDbLine
 62
7
  6
CONTINUOUS
 10
895.9475754381
 20
857.0995623632
 11
895.9475754381
 21
861.0995623632
  0
LINE
  5
453
100
AcDbEntity
  8
0
100
AcDbLine
 62
7
  6
CONTINUOUS
 10
896.9295559534
 20
574.0995623632
 11
896.9295559534
 21
573.5995623632
  0
LINE
  5
454
100
AcDbEntity
  8
0
100
AcDbLine
 62
7
  6
CONTINUOUS
 10
896.9295559534
 20
863.0995623632
 11
896.9295559534
 21
863.5995623632
  0
LINE
  5
455
100
AcDbEntity
  8
0
100
AcDbLine
 62
7
  6
CONTINUOUS
 10
898.0437695158
 20
861.0995623632
 11
898.0437695158
 21
857.0995623632
  0
LINE
  5
456
100
AcDbEntity
  8
0
100
AcDbLine
 62
7
  6
CONTINUOUS
 10
898.0437695158
 20
580.0995623632
 11
898.0437695158
 21
576.0995623632
  0
LINE
  5
457
100
AcDbEntity
  8
0
100
AcDbLine
 62
7
  6
CONTINUOUS
 10
898.2295559534
 20
574.0995623632
 11
898.2295559534
 21
573.5995623632
  0
LINE
  5
458
100
AcDbEntity
  8
0
100
AcDbLine
 62
7
  6
CONTINUOUS
 10
898.2295559534
 20
863.0995623632
 11
898.2295559534
 21
863.5995623632
  0
LINE
  5
459
100
AcDbEntity
  8
0
100
AcDbLine
 62
7
  6
CONTINUOUS
 10
899.4579830782
 20
576.0995623632
 11
899.4579830782
 21
580.0995623632
  0
LINE
  5
45A
100
AcDbEntity
  8
0
100
AcDbLine
 62
7
  6
CONTINUOUS
 10
899.4579830782
 20
857.0995623632
 11
899.4579830782
 21
861.0995623632
  0
LINE
  5
45B
100
AcDbEntity
  8
0
100
AcDbLine
 62
7
  6
CONTINUOUS
 10
899.5295559534
 20
574.0995623632
 11
899.5295559534
 21
573.5995623632
  0
LINE
  5
45C
100
AcDbEntity
  8
0
100
AcDbLine
 62
7
  6
CONTINUOUS
 10
899.5295559534
 20
863.0995623632
 11
899.5295559534
 21
863.5995623632
  0
LINE
  5
45D
100
AcDbEntity
  8
0
100
AcDbLine
 62
7
  6
CONTINUOUS
 10
899.6295559534
 20
833.5995623632
 11
899.6295559534
 21
817.0995623632
  0
LINE
  5
45E
100
AcDbEntity
  8
0
100
AcDbLine
 62
7
  6
CONTINUOUS
 10
899.6295559534
 20
603.5995623632
 11
899.6295559534
 21
620.0995623632
  0
LINE
  5
45F
100
AcDbEntity
  8
0
100
AcDbLine
 62
7
  6
CONTINUOUS
 10
900.0295559534
 20
630.6995623632
 11
900.0295559534
 21
639.4995623632
  0
LINE
  5
460
100
AcDbEntity
  8
0
100
AcDbLine
 62
7
  6
CONTINUOUS
 10
900.0295559534
 20
797.6995623632
 11
900.0295559534
 21
806.4995623632
  0
LINE
  5
461
100
AcDbEntity
  8
0
100
AcDbLine
 62
7
  6
CONTINUOUS
 10
900.8295559534
 20
574.0995623632
 11
900.8295559534
 21
573.5995623632
  0
LINE
  5
462
100
AcDbEntity
  8
0
100
AcDbLine
 62
7
  6
CONTINUOUS
 10
900.8295559534
 20
863.0995623632
 11
900.8295559534
 21
863.5995623632
  0
LINE
  5
463
100
AcDbEntity
  8
0
100
AcDbLine
 62
7
  6
CONTINUOUS
 10
902.1295559534
 20
574.0995623632
 11
902.1295559534
 21
573.5995623632
  0
LINE
  5
464
100
AcDbEntity
  8
0
100
AcDbLine
 62
7
  6
CONTINUOUS
 10
902.1295559534
 20
863.0995623632
 11
902.1295559534
 21
863.5995623632
  0
LINE
  5
465
100
AcDbEntity
  8
0
100
AcDbLine
 62
7
  6
CONTINUOUS
 10
903.4295559534
 20
574.0995623632
 11
903.4295559534
 21
573.5995623632
  0
LINE
  5
466
100
AcDbEntity
  8
0
100
AcDbLine
 62
7
  6
CONTINUOUS
 10
903.4295559534
 20
863.0995623632
 11
903.4295559534
 21
863.5995623632
  0
LINE
  5
467
100
AcDbEntity
  8
0
100
AcDbLine
 62
7
  6
CONTINUOUS
 10
903.6295559534
 20
620.0995623632
 11
903.6295559534
 21
603.5995623632
  0
LINE
  5
468
100
AcDbEntity
  8
0
100
AcDbLine
 62
7
  6
CONTINUOUS
 10
903.6295559534
 20
583.0995623632
 11
903.6295559534
 21
580.0995623632
  0
LINE
  5
469
100
AcDbEntity
  8
0
100
AcDbLine
 62
7
  6
CONTINUOUS
 10
903.6295559534
 20
817.0995623632
 11
903.6295559534
 21
833.5995623632
  0
LINE
  5
46A
100
AcDbEntity
  8
0
100
AcDbLine
 62
7
  6
CONTINUOUS
 10
903.6295559534
 20
854.0995623632
 11
903.6295559534
 21
857.0995623632
  0
LINE
  5
46B
100
AcDbEntity
  8
0
100
AcDbLine
 62
7
  6
CONTINUOUS
 10
904.7295559534
 20
574.0995623632
 11
904.7295559534
 21
573.5995623632
  0
LINE
  5
46C
100
AcDbEntity
  8
0
100
AcDbLine
 62
7
  6
CONTINUOUS
 10
904.7295559534
 20
863.0995623632
 11
904.7295559534
 21
863.5995623632
  0
LINE
  5
46D
100
AcDbEntity
  8
0
100
AcDbLine
 62
7
  6
CONTINUOUS
 10
905.8011288287
 20
861.0995623632
 11
905.8011288287
 21
857.0995623632
  0
LINE
  5
46E
100
AcDbEntity
  8
0
100
AcDbLine
 62
7
  6
CONTINUOUS
 10
905.8011288287
 20
580.0995623632
 11
905.8011288287
 21
576.0995623632
  0
LINE
  5
46F
100
AcDbEntity
  8
0
100
AcDbLine
 62
7
  6
CONTINUOUS
 10
906.0295559534
 20
574.0995623632
 11
906.0295559534
 21
573.5995623632
  0
LINE
  5
470
100
AcDbEntity
  8
0
100
AcDbLine
 62
7
  6
CONTINUOUS
 10
906.0295559534
 20
863.0995623632
 11
906.0295559534
 21
863.5995623632
  0
LINE
  5
471
100
AcDbEntity
  8
0
100
AcDbLine
 62
7
  6
CONTINUOUS
 10
907.215342391
 20
576.0995623632
 11
907.215342391
 21
580.0995623632
  0
LINE
  5
472
100
AcDbEntity
  8
0
100
AcDbLine
 62
7
  6
CONTINUOUS
 10
907.215342391
 20
857.0995623632
 11
907.215342391
 21
861.0995623632
  0
LINE
  5
473
100
AcDbEntity
  8
0
100
AcDbLine
 62
7
  6
CONTINUOUS
 10
907.3295559534
 20
574.0995623632
 11
907.3295559534
 21
573.5995623632
  0
LINE
  5
474
100
AcDbEntity
  8
0
100
AcDbLine
 62
7
  6
CONTINUOUS
 10
907.3295559534
 20
863.0995623632
 11
907.3295559534
 21
863.5995623632
  0
LINE
  5
475
100
AcDbEntity
  8
0
100
AcDbLine
 62
7
  6
CONTINUOUS
 10
908.6295559534
 20
574.0995623632
 11
908.6295559534
 21
573.5995623632
  0
LINE
  5
476
100
AcDbEntity
  8
0
100
AcDbLine
 62
7
  6
CONTINUOUS
 10
908.6295559534
 20
863.0995623632
 11
908.6295559534
 21
863.5995623632
  0
LINE
  5
477
100
AcDbEntity
  8
0
100
AcDbLine
 62
7
  6
CONTINUOUS
 10
909.2295559534
 20
806.4995623632
 11
909.2295559534
 21
797.6995623632
  0
LINE
  5
478
100
AcDbEntity
  8
0
100
AcDbLine
 62
7
  6
CONTINUOUS
 10
909.2295559534
 20
639.4995623632
 11
909.2295559534
 21
630.6995623632
  0
LINE
  5
479
100
AcDbEntity
  8
0
100
AcDbLine
 62
7
  6
CONTINUOUS
 10
909.3115364687
 20
861.0995623632
 11
909.3115364687
 21
857.0995623632
  0
LINE
  5
47A
100
AcDbEntity
  8
0
100
AcDbLine
 62
7
  6
CONTINUOUS
 10
909.3115364687
 20
580.0995623632
 11
909.3115364687
 21
576.0995623632
  0
LINE
  5
47B
100
AcDbEntity
  8
0
100
AcDbLine
 62
7
  6
CONTINUOUS
 10
909.9295559534
 20
574.0995623632
 11
909.9295559534
 21
573.5995623632
  0
LINE
  5
47C
100
AcDbEntity
  8
0
100
AcDbLine
 62
7
  6
CONTINUOUS
 10
909.9295559534
 20
863.0995623632
 11
909.9295559534
 21
863.5995623632
  0
LINE
  5
47D
100
AcDbEntity
  8
0
100
AcDbLine
 62
7
  6
CONTINUOUS
 10
911.2295559534
 20
574.0995623632
 11
911.2295559534
 21
573.5995623632
  0
LINE
  5
47E
100
AcDbEntity
  8
0
100
AcDbLine
 62
7
  6
CONTINUOUS
 10
911.2295559534
 20
863.0995623632
 11
911.2295559534
 21
863.5995623632
  0
LINE
  5
47F
100
AcDbEntity
  8
0
100
AcDbLine
 62
7
  6
CONTINUOUS
 10
912.4935169841
 20
576.0995623632
 11
912.4935169841
 21
583.0995623632
  0
LINE
  5
480
100
AcDbEntity
  8
0
100
AcDbLine
 62
7
  6
CONTINUOUS
 10
912.4935169841
 20
854.0995623632
 11
912.4935169841
 21
861.0995623632
  0
LINE
  5
481
100
AcDbEntity
  8
0
100
AcDbLine
 62
7
  6
CONTINUOUS
 10
912.5295559534
 20
574.0995623632
 11
912.5295559534
 21
573.5995623632
  0
LINE
  5
482
100
AcDbEntity
  8
0
100
AcDbLine
 62
7
  6
CONTINUOUS
 10
912.5295559534
 20
863.0995623632
 11
912.5295559534
 21
863.5995623632
  0
LINE
  5
483
100
AcDbEntity
  8
0
100
AcDbLine
 62
7
  6
CONTINUOUS
 10
913.8295559534
 20
574.0995623632
 11
913.8295559534
 21
573.6096003128
  0
LINE
  5
484
100
AcDbEntity
  8
0
100
AcDbLine
 62
7
  6
CONTINUOUS
 10
913.8295559534
 20
863.0995623632
 11
913.8295559534
 21
863.5895244137
  0
LINE
  5
485
100
AcDbEntity
  8
0
100
AcDbLine
 62
7
  6
CONTINUOUS
 10
915.1295559534
 20
656.0995623632
 11
915.1295559534
 21
576.0995623632
  0
LINE
  5
486
100
AcDbEntity
  8
0
100
AcDbLine
 62
7
  6
CONTINUOUS
 10
915.1295559534
 20
781.0995623632
 11
915.1295559534
 21
861.0995623632
  0
LINE
  5
487
100
AcDbEntity
  8
0
100
AcDbLine
 62
7
  6
CONTINUOUS
 10
917.1295559534
 20
836.0995623632
 11
917.1295559534
 21
819.0995623632
  0
LINE
  5
488
100
AcDbEntity
  8
0
100
AcDbLine
 62
7
  6
CONTINUOUS
 10
917.1295559534
 20
801.0995623632
 11
917.1295559534
 21
785.5995623632
  0
LINE
  5
489
100
AcDbEntity
  8
0
100
AcDbLine
 62
7
  6
CONTINUOUS
 10
917.1295559534
 20
651.5995623632
 11
917.1295559534
 21
636.0995623632
  0
LINE
  5
48A
100
AcDbEntity
  8
0
100
AcDbLine
 62
7
  6
CONTINUOUS
 10
917.1295559534
 20
618.0995623632
 11
917.1295559534
 21
601.0995623632
  0
LINE
  5
48B
100
AcDbEntity
  8
0
100
AcDbLine
 62
7
  6
CONTINUOUS
 10
919.3295559534
 20
861.3741449983
 11
919.3295559534
 21
861.0995623632
  0
LINE
  5
48C
100
AcDbEntity
  8
0
100
AcDbLine
 62
7
  6
CONTINUOUS
 10
919.3295559534
 20
575.8249797282
 11
919.3295559534
 21
576.0995623632
  0
LINE
  5
48D
100
AcDbEntity
  8
0
100
AcDbLine
 62
7
  6
CONTINUOUS
 10
919.6295559534
 20
576.0995623632
 11
919.6295559534
 21
655.4595623632
  0
LINE
  5
48E
100
AcDbEntity
  8
0
100
AcDbLine
 62
7
  6
CONTINUOUS
 10
919.6295559534
 20
781.7395623632
 11
919.6295559534
 21
861.0995623632
  0
ARC
  5
48F
100
AcDbEntity
  8
0
100
AcDbCircle
 62
7
  6
CONTINUOUS
 10
193.4046061544
 20
582.5995623632
 40
9.0
100
AcDbArc
 50
270.0
 51
311.1724622773
  0
ARC
  5
490
100
AcDbEntity
  8
0
100
AcDbCircle
 62
7
  6
CONTINUOUS
 10
125.8545057524
 20
582.5995623632
 40
9.0
100
AcDbArc
 50
228.8275377227
 51
267.2936793373
  0
CIRCLE
  5
491
100
AcDbEntity
  8
0
100
AcDbCircle
 62
7
  6
CONTINUOUS
 10
152.1295559534
 20
608.5995623632
 40
6.75
  0
ARC
  5
492
100
AcDbEntity
  8
0
100
AcDbCircle
 62
7
  6
CONTINUOUS
 10
206.2415343455
 20
580.4414715838
 40
5.9286673414
100
AcDbArc
 50
214.3758208186
 51
215.73954374
  0
ARC
  5
493
100
AcDbEntity
  8
0
100
AcDbCircle
 62
7
  6
CONTINUOUS
 10
202.6295559534
 20
579.0995623632
 40
3.0
100
AcDbArc
 50
180.0
 51
270.0
  0
ARC
  5
494
100
AcDbEntity
  8
0
100
AcDbCircle
 62
7
  6
CONTINUOUS
 10
199.7295559534
 20
600.9995623632
 40
2.6
100
AcDbArc
 50
90.0
 51
92.3552134229
  0
CIRCLE
  5
495
100
AcDbEntity
  8
0
100
AcDbCircle
 62
7
  6
CONTINUOUS
 10
182.1295559534
 20
638.5995623632
 40
9.055
  0
ARC
  5
496
100
AcDbEntity
  8
0
100
AcDbCircle
 62
7
  6
CONTINUOUS
 10
193.1295559534
 20
654.7061194444
 40
7.1065570812
100
AcDbArc
 50
269.9999999999
 51
286.3455840308
  0
CIRCLE
  5
497
100
AcDbEntity
  8
0
100
AcDbCircle
 62
7
  6
CONTINUOUS
 10
182.1295559534
 20
638.5995623632
 40
5.055
  0
ARC
  5
498
100
AcDbEntity
  8
0
100
AcDbCircle
 62
7
  6
CONTINUOUS
 10
183.3795559534
 20
668.0995623632
 40
4.75
100
AcDbArc
 50
270.0
 51
90.0
  0
ARC
  5
499
100
AcDbEntity
  8
0
100
AcDbCircle
 62
7
  6
CONTINUOUS
 10
177.3795559534
 20
668.0995623632
 40
4.75
100
AcDbArc
 50
90.0
 51
270.0
  0
ARC
  5
49A
100
AcDbEntity
  8
0
100
AcDbCircle
 62
7
  6
CONTINUOUS
 10
124.1295559534
 20
651.5995623632
 40
4.5
100
AcDbArc
 50
90.0
 51
180.0
  0
ARC
  5
49B
100
AcDbEntity
  8
0
100
AcDbCircle
 62
7
  6
CONTINUOUS
 10
195.1295559534
 20
651.5995623632
 40
4.5
100
AcDbArc
 50
0.0
 51
90.0
  0
ARC
  5
49C
100
AcDbEntity
  8
0
100
AcDbCircle
 62
7
  6
CONTINUOUS
 10
172.6295559534
 20
677.0995623632
 40
3.0
100
AcDbArc
 50
90.0
 51
180.0
  0
ARC
  5
49D
100
AcDbEntity
  8
0
100
AcDbCircle
 62
7
  6
CONTINUOUS
 10
188.1295559534
 20
677.0995623632
 40
3.0
100
AcDbArc
 50
0.0000000001
 51
90.0
  0
ARC
  5
49E
100
AcDbEntity
  8
0
100
AcDbCircle
 62
7
  6
CONTINUOUS
 10
144.5295559534
 20
656.1995623632
 40
2.6
100
AcDbArc
 50
357.6447062759
 51
360.0
  0
ARC
  5
49F
100
AcDbEntity
  8
0
100
AcDbCircle
 62
7
  6
CONTINUOUS
 10
167.1295559534
 20
649.5995623632
 40
2.5
100
AcDbArc
 50
180.0
 51
360.0
  0
ARC
  5
4A0
100
AcDbEntity
  8
0
100
AcDbCircle
 62
7
  6
CONTINUOUS
 10
124.1295559534
 20
651.5995623632
 40
2.0
100
AcDbArc
 50
90.0
 51
180.0
  0
ARC
  5
4A1
100
AcDbEntity
  8
0
100
AcDbCircle
 62
7
  6
CONTINUOUS
 10
193.1295559534
 20
649.5995623632
 40
2.0
100
AcDbArc
 50
180.0
 51
269.9999999997
  0
ARC
  5
4A2
100
AcDbEntity
  8
0
100
AcDbCircle
 62
7
  6
CONTINUOUS
 10
195.1295559534
 20
651.5995623632
 40
2.0
100
AcDbArc
 50
0.0
 51
90.0
  0
ARC
  5
4A3
100
AcDbEntity
  8
0
100
AcDbCircle
 62
7
  6
CONTINUOUS
 10
139.0295559534
 20
639.4995623632
 40
0.2
100
AcDbArc
 50
0.0
 51
90.0
  0
ARC
  5
4A4
100
AcDbEntity
  8
0
100
AcDbCircle
 62
7
  6
CONTINUOUS
 10
130.2295559534
 20
639.4995623632
 40
0.2
100
AcDbArc
 50
90.0
 51
180.0000000001
  0
ARC
  5
4A5
100
AcDbEntity
  8
0
100
AcDbCircle
 62
7
  6
CONTINUOUS
 10
130.2295559534
 20
630.6995623632
 40
0.2
100
AcDbArc
 50
179.9999999998
 51
270.0
  0
ARC
  5
4A6
100
AcDbEntity
  8
0
100
AcDbCircle
 62
7
  6
CONTINUOUS
 10
139.0295559534
 20
630.6995623632
 40
0.2
100
AcDbArc
 50
270.0
 51
360.0
  0
ARC
  5
4A7
100
AcDbEntity
  8
0
100
AcDbCircle
 62
7
  6
CONTINUOUS
 10
144.5295559534
 20
656.1995623632
 40
0.1
100
AcDbArc
 50
270.0
 51
360.0
  0
ARC
  5
4A8
100
AcDbEntity
  8
0
100
AcDbCircle
 62
7
  6
CONTINUOUS
 10
236.4484316578
 20
597.1780492182
 40
40.4784071799
100
AcDbArc
 50
207.1754500982
 51
207.7494841598
  0
ARC
  5
4A9
100
AcDbEntity
  8
0
100
AcDbCircle
 62
7
  6
CONTINUOUS
 10
307.7770187933
 20
633.7872674585
 40
120.6532297615
100
AcDbArc
 50
206.9532602525
 51
207.171196045
  0
ARC
  5
4AA
100
AcDbEntity
  8
0
100
AcDbCircle
 62
7
  6
CONTINUOUS
 10
304.4375304813
 20
805.1154220171
 40
116.9043244856
100
AcDbArc
 50
152.817069204
 51
153.0491165551
  0
ARC
  5
4AB
100
AcDbEntity
  8
0
100
AcDbCircle
 62
7
  6
CONTINUOUS
 10
236.0331602622
 20
840.2378367003
 40
40.0099698931
100
AcDbArc
 50
152.2482717621
 51
152.8082804309
  0
CIRCLE
  5
4AC
100
AcDbEntity
  8
0
100
AcDbCircle
 62
7
  6
CONTINUOUS
 10
182.1295559534
 20
798.5995623632
 40
9.055
  0
ARC
  5
4AD
100
AcDbEntity
  8
0
100
AcDbCircle
 62
7
  6
CONTINUOUS
 10
125.8545057524
 20
854.5995623632
 40
9.0
100
AcDbArc
 50
92.7063206627
 51
131.1724622773
  0
ARC
  5
4AE
100
AcDbEntity
  8
0
100
AcDbCircle
 62
7
  6
CONTINUOUS
 10
193.4046061544
 20
854.5995623632
 40
9.0
100
AcDbArc
 50
48.8275377227
 51
90.0
  0
ARC
  5
4AF
100
AcDbEntity
  8
0
100
AcDbCircle
 62
7
  6
CONTINUOUS
 10
193.1295559534
 20
782.4930052821
 40
7.1065570812
100
AcDbArc
 50
73.6544162112
 51
90.0000000001
  0
CIRCLE
  5
4B0
100
AcDbEntity
  8
0
100
AcDbCircle
 62
7
  6
CONTINUOUS
 10
152.1295559534
 20
828.5995623632
 40
6.75
  0
ARC
  5
4B1
100
AcDbEntity
  8
0
100
AcDbCircle
 62
7
  6
CONTINUOUS
 10
206.2391499934
 20
856.759322273
 40
5.9257568369
100
AcDbArc
 50
144.2532792754
 51
145.6227889629
  0
CIRCLE
  5
4B2
100
AcDbEntity
  8
0
100
AcDbCircle
 62
7
  6
CONTINUOUS
 10
182.1295559534
 20
798.5995623632
 40
5.055
  0
ARC
  5
4B3
100
AcDbEntity
  8
0
100
AcDbCircle
 62
7
  6
CONTINUOUS
 10
177.3795559534
 20
769.0995623632
 40
4.75
100
AcDbArc
 50
90.0
 51
270.0
  0
ARC
  5
4B4
100
AcDbEntity
  8
0
100
AcDbCircle
 62
7
  6
CONTINUOUS
 10
183.3795559534
 20
769.0995623632
 40
4.75
100
AcDbArc
 50
270.0
 51
90.0
  0
ARC
  5
4B5
100
AcDbEntity
  8
0
100
AcDbCircle
 62
7
  6
CONTINUOUS
 10
124.1295559534
 20
785.5995623632
 40
4.5
100
AcDbArc
 50
180.0
 51
270.0
  0
ARC
  5
4B6
100
AcDbEntity
  8
0
100
AcDbCircle
 62
7
  6
CONTINUOUS
 10
195.1295559534
 20
785.5995623632
 40
4.5
100
AcDbArc
 50
270.0
 51
360.0
  0
ARC
  5
4B7
100
AcDbEntity
  8
0
100
AcDbCircle
 62
7
  6
CONTINUOUS
 10
188.1295559534
 20
760.0995623632
 40
3.0
100
AcDbArc
 50
270.0
 51
360.0
  0
ARC
  5
4B8
100
AcDbEntity
  8
0
100
AcDbCircle
 62
7
  6
CONTINUOUS
 10
172.6295559534
 20
760.0995623632
 40
3.0
100
AcDbArc
 50
179.9999999999
 51
270.0
  0
ARC
  5
4B9
100
AcDbEntity
  8
0
100
AcDbCircle
 62
7
  6
CONTINUOUS
 10
202.6295559534
 20
858.0995623632
 40
3.0
100
AcDbArc
 50
90.0
 51
180.0
  0
ARC
  5
4BA
100
AcDbEntity
  8
0
100
AcDbCircle
 62
7
  6
CONTINUOUS
 10
144.5295559534
 20
780.9995623632
 40
2.6
100
AcDbArc
 50
0.0
 51
2.3552134229
  0
ARC
  5
4BB
100
AcDbEntity
  8
0
100
AcDbCircle
 62
7
  6
CONTINUOUS
 10
199.7295559534
 20
836.1995623632
 40
2.6
100
AcDbArc
 50
267.6447062759
 51
270.0
  0
ARC
  5
4BC
100
AcDbEntity
  8
0
100
AcDbCircle
 62
7
  6
CONTINUOUS
 10
167.1295559534
 20
787.5995623632
 40
2.5
100
AcDbArc
 50
0.0
 51
180.0
  0
ARC
  5
4BD
100
AcDbEntity
  8
0
100
AcDbCircle
 62
7
  6
CONTINUOUS
 10
124.1295559534
 20
785.5995623632
 40
2.0
100
AcDbArc
 50
180.0
 51
270.0
  0
ARC
  5
4BE
100
AcDbEntity
  8
0
100
AcDbCircle
 62
7
  6
CONTINUOUS
 10
193.1295559534
 20
787.5995623632
 40
2.0
100
AcDbArc
 50
90.0
 51
179.9999999999
  0
ARC
  5
4BF
100
AcDbEntity
  8
0
100
AcDbCircle
 62
7
  6
CONTINUOUS
 10
195.1295559534
 20
785.5995623632
 40
2.0
100
AcDbArc
 50
270.0
 51
360.0
  0
ARC
  5
4C0
100
AcDbEntity
  8
0
100
AcDbCircle
 62
7
  6
CONTINUOUS
 10
139.0295559534
 20
797.6995623632
 40
0.2
100
AcDbArc
 50
270.0
 51
360.0
  0
ARC
  5
4C1
100
AcDbEntity
  8
0
100
AcDbCircle
 62
7
  6
CONTINUOUS
 10
139.0295559534
 20
806.4995623632
 40
0.2
100
AcDbArc
 50
0.0000000001
 51
90.0
  0
ARC
  5
4C2
100
AcDbEntity
  8
0
100
AcDbCircle
 62
7
  6
CONTINUOUS
 10
130.2295559534
 20
806.4995623632
 40
0.2
100
AcDbArc
 50
90.0
 51
180.0000000001
  0
ARC
  5
4C3
100
AcDbEntity
  8
0
100
AcDbCircle
 62
7
  6
CONTINUOUS
 10
130.2295559534
 20
797.6995623632
 40
0.2
100
AcDbArc
 50
180.0000000001
 51
270.0
  0
ARC
  5
4C4
100
AcDbEntity
  8
0
100
AcDbCircle
 62
7
  6
CONTINUOUS
 10
734.8215814629
 20
632.0837026903
 40
116.9043244436
100
AcDbArc
 50
332.817069204
 51
333.0491165551
  0
ARC
  5
4C5
100
AcDbEntity
  8
0
100
AcDbCircle
 62
7
  6
CONTINUOUS
 10
803.2259516367
 20
596.9612880303
 40
40.009969902
100
AcDbArc
 50
332.2482717622
 51
332.8082804309
  0
CIRCLE
  5
4C6
100
AcDbEntity
  8
0
100
AcDbCircle
 62
7
  6
CONTINUOUS
 10
857.1295559534
 20
638.5995623632
 40
9.055
  0
ARC
  5
4C7
100
AcDbEntity
  8
0
100
AcDbCircle
 62
7
  6
CONTINUOUS
 10
913.4046061544
 20
582.5995623632
 40
9.0
100
AcDbArc
 50
272.7063206627
 51
311.1724622773
  0
ARC
  5
4C8
100
AcDbEntity
  8
0
100
AcDbCircle
 62
7
  6
CONTINUOUS
 10
845.8545057524
 20
582.5995623632
 40
9.0
100
AcDbArc
 50
228.8275377227
 51
270.0
  0
ARC
  5
4C9
100
AcDbEntity
  8
0
100
AcDbCircle
 62
7
  6
CONTINUOUS
 10
846.1295559534
 20
654.7061194444
 40
7.1065570812
100
AcDbArc
 50
253.6544162112
 51
270.0000000001
  0
CIRCLE
  5
4CA
100
AcDbEntity
  8
0
100
AcDbCircle
 62
7
  6
CONTINUOUS
 10
887.1295559534
 20
608.5995623632
 40
6.75
  0
ARC
  5
4CB
100
AcDbEntity
  8
0
100
AcDbCircle
 62
7
  6
CONTINUOUS
 10
833.0199619131
 20
580.4398024537
 40
5.9257568373
100
AcDbArc
 50
324.2532792755
 51
325.6227889629
  0
CIRCLE
  5
4CC
100
AcDbEntity
  8
0
100
AcDbCircle
 62
7
  6
CONTINUOUS
 10
857.1295559534
 20
638.5995623632
 40
5.055
  0
ARC
  5
4CD
100
AcDbEntity
  8
0
100
AcDbCircle
 62
7
  6
CONTINUOUS
 10
861.8795559534
 20
668.0995623632
 40
4.75
100
AcDbArc
 50
270.0
 51
90.0
  0
ARC
  5
4CE
100
AcDbEntity
  8
0
100
AcDbCircle
 62
7
  6
CONTINUOUS
 10
855.8795559534
 20
668.0995623632
 40
4.75
100
AcDbArc
 50
90.0
 51
270.0
  0
ARC
  5
4CF
100
AcDbEntity
  8
0
100
AcDbCircle
 62
7
  6
CONTINUOUS
 10
915.1295559534
 20
651.5995623632
 40
4.5
100
AcDbArc
 50
0.0
 51
90.0
  0
ARC
  5
4D0
100
AcDbEntity
  8
0
100
AcDbCircle
 62
7
  6
CONTINUOUS
 10
844.1295559534
 20
651.5995623632
 40
4.5
100
AcDbArc
 50
90.0
 51
180.0
  0
ARC
  5
4D1
100
AcDbEntity
  8
0
100
AcDbCircle
 62
7
  6
CONTINUOUS
 10
851.1295559534
 20
677.0995623632
 40
3.0
100
AcDbArc
 50
90.0
 51
180.0
  0
ARC
  5
4D2
100
AcDbEntity
  8
0
100
AcDbCircle
 62
7
  6
CONTINUOUS
 10
866.6295559534
 20
677.0995623632
 40
3.0
100
AcDbArc
 50
0.0
 51
90.0
  0
ARC
  5
4D3
100
AcDbEntity
  8
0
100
AcDbCircle
 62
7
  6
CONTINUOUS
 10
836.6295559534
 20
579.0995623632
 40
3.0
100
AcDbArc
 50
270.0
 51
360.0
  0
ARC
  5
4D4
100
AcDbEntity
  8
0
100
AcDbCircle
 62
7
  6
CONTINUOUS
 10
894.7295559534
 20
656.1995623632
 40
2.6
100
AcDbArc
 50
180.0
 51
182.3552134229
  0
ARC
  5
4D5
100
AcDbEntity
  8
0
100
AcDbCircle
 62
7
  6
CONTINUOUS
 10
839.5295559534
 20
600.9995623632
 40
2.6
100
AcDbArc
 50
87.6447062759
 51
90.0
  0
ARC
  5
4D6
100
AcDbEntity
  8
0
100
AcDbCircle
 62
7
  6
CONTINUOUS
 10
872.1295559534
 20
649.5995623632
 40
2.5
100
AcDbArc
 50
180.0
 51
360.0
  0
ARC
  5
4D7
100
AcDbEntity
  8
0
100
AcDbCircle
 62
7
  6
CONTINUOUS
 10
915.1295559534
 20
651.5995623632
 40
2.0
100
AcDbArc
 50
0.0
 51
90.0
  0
ARC
  5
4D8
100
AcDbEntity
  8
0
100
AcDbCircle
 62
7
  6
CONTINUOUS
 10
846.1295559534
 20
649.5995623632
 40
2.0
100
AcDbArc
 50
270.0
 51
359.9999999999
  0
ARC
  5
4D9
100
AcDbEntity
  8
0
100
AcDbCircle
 62
7
  6
CONTINUOUS
 10
844.1295559534
 20
651.5995623632
 40
2.0
100
AcDbArc
 50
90.0
 51
180.0
  0
ARC
  5
4DA
100
AcDbEntity
  8
0
100
AcDbCircle
 62
7
  6
CONTINUOUS
 10
900.2295559534
 20
639.4995623632
 40
0.2
100
AcDbArc
 50
90.0
 51
180.0000000001
  0
ARC
  5
4DB
100
AcDbEntity
  8
0
100
AcDbCircle
 62
7
  6
CONTINUOUS
 10
900.2295559534
 20
630.6995623632
 40
0.2
100
AcDbArc
 50
180.0000000001
 51
270.0000000001
  0
ARC
  5
4DC
100
AcDbEntity
  8
0
100
AcDbCircle
 62
7
  6
CONTINUOUS
 10
909.0295559534
 20
630.6995623632
 40
0.2
100
AcDbArc
 50
270.0
 51
360.0
  0
ARC
  5
4DD
100
AcDbEntity
  8
0
100
AcDbCircle
 62
7
  6
CONTINUOUS
 10
909.0295559534
 20
639.4995623632
 40
0.2
100
AcDbArc
 50
0.0000000001
 51
90.0
  0
ARC
  5
4DE
100
AcDbEntity
  8
0
100
AcDbCircle
 62
7
  6
CONTINUOUS
 10
731.4820930711
 20
803.4118572464
 40
120.6532298091
100
AcDbArc
 50
26.9532602525
 51
27.171196045
  0
ARC
  5
4DF
100
AcDbEntity
  8
0
100
AcDbCircle
 62
7
  6
CONTINUOUS
 10
802.8106802459
 20
840.0210755067
 40
40.4784071835
100
AcDbArc
 50
27.1754500982
 51
27.7494841598
  0
CIRCLE
  5
4E0
100
AcDbEntity
  8
0
100
AcDbCircle
 62
7
  6
CONTINUOUS
 10
857.1295559534
 20
798.5995623632
 40
9.055
  0
ARC
  5
4E1
100
AcDbEntity
  8
0
100
AcDbCircle
 62
7
  6
CONTINUOUS
 10
846.1295559534
 20
782.4930052821
 40
7.1065570812
100
AcDbArc
 50
89.9999999999
 51
106.3455840308
  0
CIRCLE
  5
4E2
100
AcDbEntity
  8
0
100
AcDbCircle
 62
7
  6
CONTINUOUS
 10
857.1295559534
 20
798.5995623632
 40
5.055
  0
ARC
  5
4E3
100
AcDbEntity
  8
0
100
AcDbCircle
 62
7
  6
CONTINUOUS
 10
855.8795559534
 20
769.0995623632
 40
4.75
100
AcDbArc
 50
90.0
 51
270.0
  0
ARC
  5
4E4
100
AcDbEntity
  8
0
100
AcDbCircle
 62
7
  6
CONTINUOUS
 10
861.8795559534
 20
769.0995623632
 40
4.75
100
AcDbArc
 50
270.0
 51
90.0
  0
ARC
  5
4E5
100
AcDbEntity
  8
0
100
AcDbCircle
 62
7
  6
CONTINUOUS
 10
915.1295559534
 20
785.5995623632
 40
4.5
100
AcDbArc
 50
270.0
 51
360.0
  0
ARC
  5
4E6
100
AcDbEntity
  8
0
100
AcDbCircle
 62
7
  6
CONTINUOUS
 10
844.1295559534
 20
785.5995623632
 40
4.5
100
AcDbArc
 50
180.0
 51
270.0
  0
ARC
  5
4E7
100
AcDbEntity
  8
0
100
AcDbCircle
 62
7
  6
CONTINUOUS
 10
866.6295559534
 20
760.0995623632
 40
3.0
100
AcDbArc
 50
270.0
 51
360.0
  0
ARC
  5
4E8
100
AcDbEntity
  8
0
100
AcDbCircle
 62
7
  6
CONTINUOUS
 10
851.1295559534
 20
760.0995623632
 40
3.0
100
AcDbArc
 50
180.0000000001
 51
270.0
  0
ARC
  5
4E9
100
AcDbEntity
  8
0
100
AcDbCircle
 62
7
  6
CONTINUOUS
 10
894.7295559534
 20
780.9995623632
 40
2.6
100
AcDbArc
 50
177.6447062759
 51
180.0
  0
ARC
  5
4EA
100
AcDbEntity
  8
0
100
AcDbCircle
 62
7
  6
CONTINUOUS
 10
872.1295559534
 20
787.5995623632
 40
2.5
100
AcDbArc
 50
0.0
 51
180.0000000001
  0
ARC
  5
4EB
100
AcDbEntity
  8
0
100
AcDbCircle
 62
7
  6
CONTINUOUS
 10
915.1295559534
 20
785.5995623632
 40
2.0
100
AcDbArc
 50
270.0
 51
360.0
  0
ARC
  5
4EC
100
AcDbEntity
  8
0
100
AcDbCircle
 62
7
  6
CONTINUOUS
 10
846.1295559534
 20
787.5995623632
 40
2.0
100
AcDbArc
 50
0.0
 51
89.9999999997
  0
ARC
  5
4ED
100
AcDbEntity
  8
0
100
AcDbCircle
 62
7
  6
CONTINUOUS
 10
844.1295559534
 20
785.5995623632
 40
2.0
100
AcDbArc
 50
180.0
 51
270.0
  0
ARC
  5
4EE
100
AcDbEntity
  8
0
100
AcDbCircle
 62
7
  6
CONTINUOUS
 10
900.2295559534
 20
797.6995623632
 40
0.2
100
AcDbArc
 50
179.9999999998
 51
269.9999999999
  0
ARC
  5
4EF
100
AcDbEntity
  8
0
100
AcDbCircle
 62
7
  6
CONTINUOUS
 10
909.0295559534
 20
797.6995623632
 40
0.2
100
AcDbArc
 50
270.0000000001
 51
360.0
  0
ARC
  5
4F0
100
AcDbEntity
  8
0
100
AcDbCircle
 62
7
  6
CONTINUOUS
 10
909.0295559534
 20
806.4995623632
 40
0.2
100
AcDbArc
 50
0.0
 51
90.0
  0
ARC
  5
4F1
100
AcDbEntity
  8
0
100
AcDbCircle
 62
7
  6
CONTINUOUS
 10
900.2295559534
 20
806.4995623632
 40
0.2
100
AcDbArc
 50
90.0000000001
 51
180.0000000001
  0
ARC
  5
4F2
100
AcDbEntity
  8
0
100
AcDbCircle
 62
7
  6
CONTINUOUS
 10
894.7295559534
 20
780.9995623632
 40
0.1
100
AcDbArc
 50
90.0
 51
180.0
  0
ARC
  5
4F3
100
AcDbEntity
  8
0
100
AcDbCircle
 62
7
  6
CONTINUOUS
 10
845.8545057524
 20
854.5995623632
 40
9.0
100
AcDbArc
 50
90.0
 51
131.1724622773
  0
ARC
  5
4F4
100
AcDbEntity
  8
0
100
AcDbCircle
 62
7
  6
CONTINUOUS
 10
913.4046061544
 20
854.5995623632
 40
9.0
100
AcDbArc
 50
48.8275377227
 51
87.2936793373
  0
CIRCLE
  5
4F5
100
AcDbEntity
  8
0
100
AcDbCircle
 62
7
  6
CONTINUOUS
 10
887.1295559534
 20
828.5995623632
 40
6.75
  0
ARC
  5
4F6
100
AcDbEntity
  8
0
100
AcDbCircle
 62
7
  6
CONTINUOUS
 10
833.0175775612
 20
856.7576531426
 40
5.9286673416
100
AcDbArc
 50
34.3758208185
 51
35.7395437399
  0
ARC
  5
4F7
100
AcDbEntity
  8
0
100
AcDbCircle
 62
7
  6
CONTINUOUS
 10
836.6295559534
 20
858.0995623632
 40
3.0
100
AcDbArc
 50
0.0
 51
90.0
  0
ARC
  5
4F8
100
AcDbEntity
  8
0
100
AcDbCircle
 62
7
  6
CONTINUOUS
 10
839.5295559534
 20
836.1995623632
 40
2.6
100
AcDbArc
 50
270.0
 51
272.3552134229
  0
SPLINE
  5
4F9
100
AcDbEntity
  8
0
100
AcDbSpline
 62
7
  6
CONTINUOUS
 70
0
 71
3
 72
11
 73
7
 74
0
 42
0.0000001
 43
0.0000001
 44
0.0000000001
 40
0.0
 40
0.0
 40
0.0
 40
0.0
 40
0.2665485395
 40
0.5073869198
 40
0.7464685093
 40
1.0
 40
1.0
 40
1.0
 40
1.0
 10
844.1295559534
 20
647.8867973537
 30
0.0
 10
843.7575714143
 20
648.0393029749
 30
0.0
 10
843.0787188267
 20
648.4354921263
 30
0.0
 10
842.4034469097
 20
649.3786692826
 30
0.0
 10
842.1520424324
 20
650.473743124
 30
0.0
 10
842.1295559534
 20
651.2171629565
 30
0.0
 10
842.1295559534
 20
651.5995623632
 30
0.0
  0
SPLINE
  5
4FA
100
AcDbEntity
  8
0
100
AcDbSpline
 62
7
  6
CONTINUOUS
 70
0
 71
3
 72
11
 73
7
 74
0
 42
0.0000001
 43
0.0000001
 44
0.0000000001
 40
0.0
 40
0.0
 40
0.0
 40
0.0
 40
0.2665485395
 40
0.5073869198
 40
0.7464685093
 40
1.0
 40
1.0
 40
1.0
 40
1.0
 10
844.1295559534
 20
789.3123273727
 30
0.0
 10
843.7575714143
 20
789.1598217515
 30
0.0
 10
843.0787188267
 20
788.7636326002
 30
0.0
 10
842.4034469097
 20
787.8204554439
 30
0.0
 10
842.1520424324
 20
786.7253816025
 30
0.0
 10
842.1295559534
 20
785.98196177
 30
0.0
 10
842.1295559534
 20
785.5995623632
 30
0.0
  0
SPLINE
  5
4FB
100
AcDbEntity
  8
0
100
AcDbSpline
 62
7
  6
CONTINUOUS
 70
0
 71
3
 72
13
 73
9
 74
0
 42
0.0000001
 43
0.0000001
 44
0.0000000001
 40
0.0
 40
0.0
 40
0.0
 40
0.0
 40
0.2217399489
 40
0.324656775
 40
0.4341891076
 40
0.5568028744
 40
0.6941292458
 40
1.0
 40
1.0
 40
1.0
 40
1.0
 10
839.6295559534
 20
785.5995623632
 30
0.0
 10
839.6295559534
 20
786.077055304
 30
0.0
 10
839.7006917353
 20
786.802034998
 30
0.0
 10
840.1910642918
 20
787.6146538079
 30
0.0
 10
840.7266990606
 20
788.1091627903
 30
0.0
 10
841.4157517111
 20
788.515116725
 30
0.0
 10
842.5474770569
 20
788.9736611541
 30
0.0
 10
843.4815657123
 20
789.1942553672
 30
0.0
 10
844.1295559534
 20
789.3123273644
 30
0.0
  0
SPLINE
  5
4FC
100
AcDbEntity
  8
0
100
AcDbSpline
 62
7
  6
CONTINUOUS
 70
0
 71
3
 72
11
 73
7
 74
0
 42
0.0000001
 43
0.0000001
 44
0.0000000001
 40
0.0
 40
0.0
 40
0.0
 40
0.0
 40
0.2665485395
 40
0.5073869198
 40
0.7464685093
 40
1.0
 40
1.0
 40
1.0
 40
1.0
 10
195.1295559534
 20
789.3123273727
 30
0.0
 10
195.5015404926
 20
789.1598217515
 30
0.0
 10
196.1803930801
 20
788.7636326002
 30
0.0
 10
196.8556649971
 20
787.8204554439
 30
0.0
 10
197.1070694745
 20
786.7253816025
 30
0.0
 10
197.1295559534
 20
785.98196177
 30
0.0
 10
197.1295559534
 20
785.5995623632
 30
0.0
  0
SPLINE
  5
4FD
100
AcDbEntity
  8
0
100
AcDbSpline
 62
7
  6
CONTINUOUS
 70
0
 71
3
 72
11
 73
7
 74
0
 42
0.0000001
 43
0.0000001
 44
0.0000000001
 40
0.0
 40
0.0
 40
0.0
 40
0.0
 40
0.2665485395
 40
0.5073869198
 40
0.7464685093
 40
1.0
 40
1.0
 40
1.0
 40
1.0
 10
195.1295559534
 20
647.8867973537
 30
0.0
 10
195.5015404926
 20
648.0393029749
 30
0.0
 10
196.1803930801
 20
648.4354921263
 30
0.0
 10
196.8556649971
 20
649.3786692826
 30
0.0
 10
197.1070694745
 20
650.473743124
 30
0.0
 10
197.1295559534
 20
651.2171629565
 30
0.0
 10
197.1295559534
 20
651.5995623632
 30
0.0
  0
SPLINE
  5
4FE
100
AcDbEntity
  8
0
100
AcDbSpline
 62
7
  6
CONTINUOUS
 70
0
 71
3
 72
13
 73
9
 74
0
 42
0.0000001
 43
0.0000001
 44
0.0000000001
 40
0.0
 40
0.0
 40
0.0
 40
0.0
 40
0.2217399489
 40
0.324656775
 40
0.4341891076
 40
0.5568028744
 40
0.6941292458
 40
1.0
 40
1.0
 40
1.0
 40
1.0
 10
199.6295559534
 20
651.5995623632
 30
0.0
 10
199.6295559534
 20
651.1220694225
 30
0.0
 10
199.5584201715
 20
650.3970897285
 30
0.0
 10
199.068047615
 20
649.5844709186
 30
0.0
 10
198.5324128462
 20
649.0899619362
 30
0.0
 10
197.8433601957
 20
648.6840080014
 30
0.0
 10
196.71163485
 20
648.2254635724
 30
0.0
 10
195.7775461945
 20
648.0048693593
 30
0.0
 10
195.1295559534
 20
647.8867973621
 30
0.0
  0
SPLINE
  5
4FF
100
AcDbEntity
  8
0
100
AcDbSpline
 62
7
  6
CONTINUOUS
 70
0
 71
3
 72
9
 73
5
 74
0
 42
0.0000001
 43
0.0000001
 44
0.0000000001
 40
0.0
 40
0.0
 40
0.0
 40
0.0
 40
0.2670729493
 40
1.0
 40
1.0
 40
1.0
 40
1.0
 10
200.6253720362
 20
578.3310375937
 30
0.0
 10
200.6848378416
 20
578.2181624635
 30
0.0
 10
200.9102977202
 20
577.7971550827
 30
0.0
 10
201.1505188659
 20
577.3829430498
 30
0.0
 10
201.3482978201
 20
577.0940348403
 30
0.0
  0
SPLINE
  5
500
100
AcDbEntity
  8
0
100
AcDbSpline
 62
7
  6
CONTINUOUS
 70
0
 71
3
 72
9
 73
5
 74
0
 42
0.0000001
 43
0.0000001
 44
0.0000000001
 40
0.0
 40
0.0
 40
0.0
 40
0.0
 40
0.2838419586
 40
1.0
 40
1.0
 40
1.0
 40
1.0
 10
201.4293501294
 20
576.9785278194
 30
0.0
 10
201.4830002799
 20
576.9040257838
 30
0.0
 10
201.6783881591
 20
576.6471968707
 30
0.0
 10
201.9057900041
 20
576.4076168104
 30
0.0
 10
202.0984930402
 20
576.2790726183
 30
0.0
  0
SPLINE
  5
501
100
AcDbEntity
  8
0
100
AcDbSpline
 62
7
  6
CONTINUOUS
 70
0
 71
3
 72
9
 73
5
 74
0
 42
0.0000001
 43
0.0000001
 44
0.0000000001
 40
0.0
 40
0.0
 40
0.0
 40
0.0
 40
0.2729340612
 40
1.0
 40
1.0
 40
1.0
 40
1.0
 10
202.0984930402
 20
576.2790726183
 30
0.0
 10
202.1412528912
 20
576.2505492976
 30
0.0
 10
202.302769637
 20
576.1543110975
 30
0.0
 10
202.4926314389
 20
576.0995623632
 30
0.0
 10
202.6295559534
 20
576.0995623632
 30
0.0
  0
SPLINE
  5
502
100
AcDbEntity
  8
0
100
AcDbSpline
 62
7
  6
CONTINUOUS
 70
0
 71
3
 72
9
 73
5
 74
0
 42
0.0000001
 43
0.0000001
 44
0.0000000001
 40
0.0
 40
0.0
 40
0.0
 40
0.0
 40
0.7270582502
 40
1.0
 40
1.0
 40
1.0
 40
1.0
 10
836.6295559534
 20
576.0995623632
 30
0.0
 10
836.7665121253
 20
576.0995623632
 30
0.0
 10
836.956419729
 20
576.1543367372
 30
0.0
 10
837.1179660202
 20
576.2506137208
 30
0.0
 10
837.1607345511
 20
576.2791490339
 30
0.0
  0
SPLINE
  5
503
100
AcDbEntity
  8
0
100
AcDbSpline
 62
7
  6
CONTINUOUS
 70
0
 71
3
 72
9
 73
5
 74
0
 42
0.0000001
 43
0.0000001
 44
0.0000000001
 40
0.0
 40
0.0
 40
0.0
 40
0.0
 40
0.2174479742
 40
1.0
 40
1.0
 40
1.0
 40
1.0
 10
837.1607345511
 20
576.2791490339
 30
0.0
 10
837.2192369459
 20
576.318182036
 30
0.0
 10
837.4748377314
 20
576.5179163845
 30
0.0
 10
837.6814214505
 20
576.7725884239
 30
0.0
 10
837.8293501294
 20
576.9779562584
 30
0.0
  0
SPLINE
  5
504
100
AcDbEntity
  8
0
100
AcDbSpline
 62
7
  6
CONTINUOUS
 70
0
 71
3
 72
9
 73
5
 74
0
 42
0.0000001
 43
0.0000001
 44
0.0000000001
 40
0.0
 40
0.0
 40
0.0
 40
0.0
 40
0.2307296573
 40
1.0
 40
1.0
 40
1.0
 40
1.0
 10
837.9107150651
 20
577.0938903656
 30
0.0
 10
837.9729920488
 20
577.1848570368
 30
0.0
 10
838.2327844631
 20
577.5860600417
 30
0.0
 10
838.4623994974
 20
578.0058088719
 30
0.0
 10
838.6337184377
 20
578.3309970576
 30
0.0
  0
SPLINE
  5
505
100
AcDbEntity
  8
0
100
AcDbSpline
 62
7
  6
CONTINUOUS
 70
0
 71
3
 72
9
 73
5
 74
0
 42
0.0000001
 43
0.0000001
 44
0.0000000001
 40
0.0
 40
0.0
 40
0.0
 40
0.0
 40
0.2670729493
 40
1.0
 40
1.0
 40
1.0
 40
1.0
 10
838.6337398706
 20
858.8680871327
 30
0.0
 10
838.5742740652
 20
858.980962263
 30
0.0
 10
838.3488141866
 20
859.4019696438
 30
0.0
 10
838.1085930409
 20
859.8161816767
 30
0.0
 10
837.9108140867
 20
860.1050898862
 30
0.0
  0
SPLINE
  5
506
100
AcDbEntity
  8
0
100
AcDbSpline
 62
7
  6
CONTINUOUS
 70
0
 71
3
 72
9
 73
5
 74
0
 42
0.0000001
 43
0.0000001
 44
0.0000000001
 40
0.0
 40
0.0
 40
0.0
 40
0.0
 40
0.2838419586
 40
1.0
 40
1.0
 40
1.0
 40
1.0
 10
837.8297617774
 20
860.2205969071
 30
0.0
 10
837.7761116269
 20
860.2950989427
 30
0.0
 10
837.5807237477
 20
860.5519278558
 30
0.0
 10
837.3533219027
 20
860.7915079161
 30
0.0
 10
837.1606188666
 20
860.9200521082
 30
0.0
  0
SPLINE
  5
507
100
AcDbEntity
  8
0
100
AcDbSpline
 62
7
  6
CONTINUOUS
 70
0
 71
3
 72
9
 73
5
 74
0
 42
0.0000001
 43
0.0000001
 44
0.0000000001
 40
0.0
 40
0.0
 40
0.0
 40
0.0
 40
0.2729340612
 40
1.0
 40
1.0
 40
1.0
 40
1.0
 10
837.1606188666
 20
860.9200521082
 30
0.0
 10
837.1178590156
 20
860.9485754289
 30
0.0
 10
836.9563422699
 20
861.044813629
 30
0.0
 10
836.7664804679
 20
861.0995623632
 30
0.0
 10
836.6295559534
 20
861.0995623632
 30
0.0
  0
SPLINE
  5
508
100
AcDbEntity
  8
0
100
AcDbSpline
 62
7
  6
CONTINUOUS
 70
0
 71
3
 72
9
 73
5
 74
0
 42
0.0000001
 43
0.0000001
 44
0.0000000001
 40
0.0
 40
0.0
 40
0.0
 40
0.0
 40
0.7270582502
 40
1.0
 40
1.0
 40
1.0
 40
1.0
 10
202.6295559534
 20
861.0995623632
 30
0.0
 10
202.4925997815
 20
861.0995623632
 30
0.0
 10
202.3026921779
 20
861.0447879893
 30
0.0
 10
202.1411458866
 20
860.9485110057
 30
0.0
 10
202.0983773558
 20
860.9199756926
 30
0.0
  0
SPLINE
  5
509
100
AcDbEntity
  8
0
100
AcDbSpline
 62
7
  6
CONTINUOUS
 70
0
 71
3
 72
9
 73
5
 74
0
 42
0.0000001
 43
0.0000001
 44
0.0000000001
 40
0.0
 40
0.0
 40
0.0
 40
0.0
 40
0.2174479742
 40
1.0
 40
1.0
 40
1.0
 40
1.0
 10
202.0983773558
 20
860.9199756926
 30
0.0
 10
202.0398749609
 20
860.8809426905
 30
0.0
 10
201.7842741754
 20
860.681208342
 30
0.0
 10
201.5776904563
 20
860.4265363026
 30
0.0
 10
201.4297617774
 20
860.221168468
 30
0.0
  0
SPLINE
  5
50A
100
AcDbEntity
  8
0
100
AcDbSpline
 62
7
  6
CONTINUOUS
 70
0
 71
3
 72
9
 73
5
 74
0
 42
0.0000001
 43
0.0000001
 44
0.0000000001
 40
0.0
 40
0.0
 40
0.0
 40
0.0
 40
0.2307296573
 40
1.0
 40
1.0
 40
1.0
 40
1.0
 10
201.3483968417
 20
860.1052343608
 30
0.0
 10
201.2861198581
 20
860.0142676897
 30
0.0
 10
201.0263274437
 20
859.6130646848
 30
0.0
 10
200.7967124094
 20
859.1933158545
 30
0.0
 10
200.6253934691
 20
858.8681276688
 30
0.0
  0
ENDSEC
  0
SECTION
  2
OBJECTS
  0
DICTIONARY
  5
C
100
AcDbDictionary
280
0
281
1
  3
ACAD_GROUP
350
D
  3
ACAD_MLINESTYLE
350
17
  3
ACAD_LAYOUT
350
1A
  3
ACAD_PLOTSETTINGS
350
19
  3
ACAD_PLOTSTYLENAME
350
E
  0
DICTIONARY
  5
D
102
{ACAD_REACTORS
330
C
102
}
100
AcDbDictionary
280
0
281
1
  0
ACDBDICTIONARYWDFLT
  5
E
102
{ACAD_REACTORS
330
C
102
}
100
AcDbDictionary
281
1
  3
Normal
350
F
100
AcDbDictionaryWithDefault
340
F
  0
DICTIONARY
  5
17
102
{ACAD_REACTORS
330
C
102
}
100
AcDbDictionary
280
0
281
1
  3
Standard
350
18
  0
DICTIONARY
  5
19
102
{ACAD_REACTORS
330
C
102
}
100
AcDbDictionary
281
1
  0
DICTIONARY
  5
1A
102
{ACAD_REACTORS
330
C
102
}
100
AcDbDictionary
281
1
  3
Model
350
50B
  3
Layout1
350
50C
  0
ACDBPLACEHOLDER
  5
F
102
{ACAD_REACTORS
330
E
102
}
  0
MLINESTYLE
  5
18
102
{ACAD_REACTORS
330
17
102
}
100
AcDbMlineStyle
  2
STANDARD
 70
0
  3

 62
256
 51
90.0
 52
90.0
 71
2
 49
0.5
 62
256
  6
BYLAYER
 49
-0.5
 62
256
  6
BYLAYER
  0
LAYOUT
  5
50B
102
{ACAD_REACTORS
330
1A
102
}
100
AcDbPlotSettings
  1

  2
none_device
  4

  6

 40
0.0
 41
0.0
 42
0.0
 43
0.0
 44
210.0
 45
297.0
 46
0.0
 47
0.0
 48
0.0
 49
0.0
140
0.0
141
0.0
142
1.0
143
1.0
 70
1024
 72
1
 73
0
 74
0
  7

 75
0
147
1.0
148
0.0
149
0.0
100
AcDbLayout
  1
Model
 70
0
 71
0
 10
0.0
 20
0.0
 11
210.0
 21
297.0
 12
0.0
 22
0.0
 32
0.0
 14
0.0
 24
0.0
 34
0.0
 15
0.0
 25
0.0
 35
0.0
146
0.0
 13
0.0
 23
0.0
 33
0.0
 16
1.0
 26
0.0
 36
0.0
 17
0.0
 27
1.0
 37
0.0
 76
0
330
210
345
0
346
0
  0
LAYOUT
  5
50C
102
{ACAD_REACTORS
330
1A
102
}
100
AcDbPlotSettings
  1

  2
none_device
  4

  6

 40
0.0
 41
0.0
 42
0.0
 43
0.0
 44
210.0
 45
297.0
 46
0.0
 47
0.0
 48
0.0
 49
0.0
140
0.0
141
0.0
142
1.0
143
1.0
 70
0
 72
1
 73
0
 74
0
  7

 75
0
147
1.0
148
0.0
149
0.0
100
AcDbLayout
  1
Layout1
 70
0
 71
1
 10
0.0
 20
0.0
 11
210.0
 21
297.0
 12
0.0
 22
0.0
 32
0.0
 14
0.0
 24
0.0
 34
0.0
 15
0.0
 25
0.0
 35
0.0
146
0.0
 13
0.0
 23
0.0
 33
0.0
 16
1.0
 26
0.0
 36
0.0
 17
0.0
 27
1.0
 37
0.0
 76
0
330
211
345
0
346
0
  0
ENDSEC
  0
EOF
