999
DXF file: C:\Users\sesa63760\Dev\_Creo\CAD\MCADUE0001302_3D-CAD\drw0001_5.dxf
999
Pro/ENGINEER 2019471 by Parametric Technology Corporation
  0
SECTION
  2
HEADER
  9
$ACADVER
  1
AC1024
  9
$DWGCODEPAGE
  3
ANSI_1252
  9
$EXTMAX
 10
505.2566481138
 20
714.5772594752
 30
0.0
  9
$EXTMIN
 10
0.0
 20
0.0
 30
0.0
  9
$LIMMIN
 10
0.0
 20
0.0
  9
$LIMMAX
 10
505.2566481138
 20
714.5772594752
  9
$VIEWCTR
 10
252.6283240569
 20
357.2886297376
  9
$VIEWSIZE
 40
714.5772594752
  9
$CLAYER
  8
0
  9
$LTSCALE
 40
46.579850988
  9
$CELTYPE
  6
BYLAYER
  9
$DIMSCALE
 40
1.0
  9
$DIMASZ
 40
6.0149600966
  9
$DIMEXO
 40
1.0
  9
$DIMDLI
 40
32.1824425008
  9
$DIMEXE
 40
1.0
  9
$DIMCEN
 40
7.6221574344
  9
$DIMLFAC
 40
1.0
  9
$DIMBLK
  1
_FILLED
  9
$DIMALT
 70
0
  9
$DIMALTF
 40
0.0393700787
  9
$DIMTXT
 40
8.4209441352
  9
$DIMTOL
 70
1
  9
$DIMLIM
 70
0
  9
$DIMTFAC
 40
1.0
  9
$DIMTP
 40
0.01
  9
$DIMTM
 40
0.01
  9
$DIMGAP
 40
0.625
  9
$DIMDSEP
 70
46
  9
$AUNITS
 70
0
  9
$PDMODE
 70
3
  9
$PDSIZE
 40
0.3125
  9
$HANDSEED
  5
35D
  9
$TILEMODE
 70
1
  9
$MEASUREMENT
 70
1
  9
$INSUNITS
 70
4
  0
ENDSEC
  0
SECTION
  2
CLASSES
  0
CLASS
  1
ACDBDICTIONARYWDFLT
  2
AcDbDictionaryWithDefault
  3
AutoCAD 2000
 90
0
 91
1
280
0
281
0
  0
CLASS
  1
ACDBPLACEHOLDER
  2
AcDbPlaceHolder
  3
AutoCAD 2000
 90
0
 91
1
280
0
281
0
  0
CLASS
  1
LAYOUT
  2
AcDbLayout
  3
AutoCAD 2000
 90
0
 91
0
280
0
281
0
  0
ENDSEC
  0
SECTION
  2
TABLES
  0
TABLE
  2
VPORT
  5
8
100
AcDbSymbolTable
 70
2
  0
VPORT
  5
1F4
100
AcDbSymbolTableRecord
100
AcDbViewportTableRecord
  2
*ACTIVE
 70
0
 10
0.0
 20
0.0
 11
1.0
 21
1.0
 12
252.6283240569
 22
357.2886297376
 13
0.0
 23
0.0
 14
1.0
 24
1.0
 15
0.0
 25
0.0
 16
0.0
 26
0.0
 36
1.0
 17
0.0
 27
0.0
 37
0.0
 40
714.5772594752
 41
0.7070707071
 42
50.0
 43
0.0
 44
0.0
 50
0.0
 51
0.0
 71
0
 72
100
 73
1
 74
1
 75
0
 76
0
 77
0
 78
0
  0
ENDTAB
  0
TABLE
  2
LTYPE
  5
5
100
AcDbSymbolTable
 70
6
  0
LTYPE
  5
14
100
AcDbSymbolTableRecord
100
AcDbLinetypeTableRecord
  2
BYBLOCK
 70
0
  3

 72
65
 73
0
 40
0.0
  0
LTYPE
  5
15
100
AcDbSymbolTableRecord
100
AcDbLinetypeTableRecord
  2
BYLAYER
 70
0
  3

 72
65
 73
0
 40
0.0
  0
LTYPE
  5
16
100
AcDbSymbolTableRecord
100
AcDbLinetypeTableRecord
  2
CONTINUOUS
 70
64
  3
Solid line
 72
65
 73
0
 40
0.0
  0
LTYPE
  5
1F5
100
AcDbSymbolTableRecord
100
AcDbLinetypeTableRecord
  2
CENTER
 70
64
  3
____ _ ____ _ ____ _ ____ _ ____ _ ____ _ ____
 72
65
 73
4
 40
0.6
 49
0.375
 74
0
 49
-0.075
 74
0
 49
0.075
 74
0
 49
-0.075
 74
0
  0
LTYPE
  5
1F6
100
AcDbSymbolTableRecord
100
AcDbLinetypeTableRecord
  2
HIDDEN
 70
64
  3
- - - - - - - - - - - - - - - - - - - -
 72
65
 73
2
 40
0.2
 49
0.1
 74
0
 49
-0.1
 74
0
  0
LTYPE
  5
1F7
100
AcDbSymbolTableRecord
100
AcDbLinetypeTableRecord
  2
PHANTOM
 70
64
  3
_____ _ _ _____ _ _ _____ _ _ _____
 72
65
 73
6
 40
0.8
 49
0.45
 74
0
 49
-0.05
 74
0
 49
0.1
 74
0
 49
-0.05
 74
0
 49
0.1
 74
0
 49
-0.05
 74
0
  0
LTYPE
  5
1F8
100
AcDbSymbolTableRecord
100
AcDbLinetypeTableRecord
  2
DOT
 70
64
  3
. . . . . . . . . . . . . . . . . . . .
 72
65
 73
2
 40
0.2
 49
0.1
 74
0
 49
-0.1
 74
0
  0
LTYPE
  5
1F9
100
AcDbSymbolTableRecord
100
AcDbLinetypeTableRecord
  2
DASHED
 70
64
  3
- - - - - - - - - - - - - - - - - - - -
 72
65
 73
2
 40
0.2
 49
0.1
 74
0
 49
-0.1
 74
0
  0
ENDTAB
  0
TABLE
  2
LAYER
  5
2
100
AcDbSymbolTable
 70
36
  0
LAYER
  5
10
100
AcDbSymbolTableRecord
100
AcDbLayerTableRecord
  2
0
 70
0
 62
7
  6
CONTINUOUS
370
-3
390
F
  0
LAYER
  5
1FA
100
AcDbSymbolTableRecord
100
AcDbLayerTableRecord
  2
DEFAULT_1
 70
0
 62
7
  6
CENTER
370
-3
390
F
  0
LAYER
  5
1FB
100
AcDbSymbolTableRecord
100
AcDbLayerTableRecord
  2
DEFAULT_2
 70
0
 62
8
  6
HIDDEN
370
-3
390
F
  0
LAYER
  5
1FC
100
AcDbSymbolTableRecord
100
AcDbLayerTableRecord
  2
DEFAULT_3
 70
0
 62
7
  6
PHANTOM
370
-3
390
F
  0
LAYER
  5
1FD
100
AcDbSymbolTableRecord
100
AcDbLayerTableRecord
  2
00_COMPONENTS
 70
0
 62
7
  6
CONTINUOUS
370
-3
390
F
  0
LAYER
  5
1FE
100
AcDbSymbolTableRecord
100
AcDbLayerTableRecord
  2
01_1_DEFAULT_DATUMS
 70
0
 62
7
  6
CONTINUOUS
370
-3
390
F
  0
LAYER
  5
1FF
100
AcDbSymbolTableRecord
100
AcDbLayerTableRecord
  2
01_PLANES
 70
0
 62
7
  6
CONTINUOUS
370
-3
390
F
  0
LAYER
  5
200
100
AcDbSymbolTableRecord
100
AcDbLayerTableRecord
  2
02_COORD_SYS
 70
0
 62
7
  6
CONTINUOUS
370
-3
390
F
  0
LAYER
  5
201
100
AcDbSymbolTableRecord
100
AcDbLayerTableRecord
  2
03_AXES
 70
0
 62
7
  6
CONTINUOUS
370
-3
390
F
  0
LAYER
  5
202
100
AcDbSymbolTableRecord
100
AcDbLayerTableRecord
  2
04_POINTS
 70
0
 62
7
  6
CONTINUOUS
370
-3
390
F
  0
LAYER
  5
203
100
AcDbSymbolTableRecord
100
AcDbLayerTableRecord
  2
05_CURVES
 70
0
 62
7
  6
CONTINUOUS
370
-3
390
F
  0
LAYER
  5
204
100
AcDbSymbolTableRecord
100
AcDbLayerTableRecord
  2
06_SURFS
 70
0
 62
7
  6
CONTINUOUS
370
-3
390
F
  0
LAYER
  5
205
100
AcDbSymbolTableRecord
100
AcDbLayerTableRecord
  2
07_COSMETICS
 70
0
 62
7
  6
CONTINUOUS
370
-3
390
F
  0
LAYER
  5
206
100
AcDbSymbolTableRecord
100
AcDbLayerTableRecord
  2
10_NOTES
 70
0
 62
7
  6
CONTINUOUS
370
-3
390
F
  0
LAYER
  5
207
100
AcDbSymbolTableRecord
100
AcDbLayerTableRecord
  2
11_NOTES_PUB
 70
0
 62
7
  6
CONTINUOUS
370
-3
390
F
  0
LAYER
  5
208
100
AcDbSymbolTableRecord
100
AcDbLayerTableRecord
  2
13_REF_GTOL
 70
0
 62
7
  6
CONTINUOUS
370
-3
390
F
  0
LAYER
  5
209
100
AcDbSymbolTableRecord
100
AcDbLayerTableRecord
  2
16_MISC
 70
0
 62
7
  6
CONTINUOUS
370
-3
390
F
  0
LAYER
  5
20A
100
AcDbSymbolTableRecord
100
AcDbLayerTableRecord
  2
17_NO_PRINT
 70
0
 62
7
  6
CONTINUOUS
370
-3
390
F
  0
LAYER
  5
20B
100
AcDbSymbolTableRecord
100
AcDbLayerTableRecord
  2
18_DATUM_CAMS_JOINTS
 70
0
 62
7
  6
CONTINUOUS
370
-3
390
F
  0
LAYER
  5
20C
100
AcDbSymbolTableRecord
100
AcDbLayerTableRecord
  2
19_DATUM_FUNCTIONAL
 70
0
 62
7
  6
CONTINUOUS
370
-3
390
F
  0
LAYER
  5
20D
100
AcDbSymbolTableRecord
100
AcDbLayerTableRecord
  2
20_DATUM_KINEMATIC_SCHEME
 70
0
 62
7
  6
CONTINUOUS
370
-3
390
F
  0
ENDTAB
  0
TABLE
  2
STYLE
  5
3
100
AcDbSymbolTable
 70
1
  0
STYLE
  5
11
100
AcDbSymbolTableRecord
100
AcDbTextStyleTableRecord
  2
STANDARD
 70
0
 40
0.0
 41
0.8
 50
0.0
 71
0
 42
0.2
  3
txt
  4

  0
STYLE
  5
20E
100
AcDbSymbolTableRecord
100
AcDbTextStyleTableRecord
  2
TEXTSTYLE_1
 70
0
 40
0.0
 41
0.8
 50
0.0
 71
0
 42
0.2
  3
gdt
  4

  0
ENDTAB
  0
TABLE
  2
VIEW
  5
6
100
AcDbSymbolTable
 70
0
  0
ENDTAB
  0
TABLE
  2
UCS
  5
7
100
AcDbSymbolTable
 70
0
  0
ENDTAB
  0
TABLE
  2
APPID
  5
9
100
AcDbSymbolTable
 70
1
  0
APPID
  5
20F
100
AcDbSymbolTableRecord
100
AcDbRegAppTableRecord
  2
ACAD
 70
0
  0
ENDTAB
  0
TABLE
  2
BLOCK_RECORD
  5
1
100
AcDbSymbolTable
 70
0
  0
BLOCK_RECORD
  5
210
100
AcDbSymbolTableRecord
100
AcDbBlockTableRecord
  2
*Model_Space
  0
BLOCK_RECORD
  5
211
100
AcDbSymbolTableRecord
100
AcDbBlockTableRecord
  2
*Paper_Space
  0
BLOCK_RECORD
  5
212
100
AcDbSymbolTableRecord
100
AcDbBlockTableRecord
  2
_FILLED
  0
ENDTAB
  0
TABLE
  2
DIMSTYLE
  5
A
100
AcDbSymbolTable
 70
1
100
AcDbDimStyleTable
 71
0
  0
DIMSTYLE
105
213
100
AcDbSymbolTableRecord
100
AcDbDimStyleTableRecord
  2
STANDARD
 70
0
  3

  4

 40
1.0
 41
6.0149600966
 42
1.0
 43
0.38
 44
1.0
 45
0.0
 46
0.0
 47
0.01
 48
0.01
140
8.4209441352
141
0.09
142
0.0
143
25.4
144
1.0
145
0.0
146
1.0
147
0.625
 71
1
 72
0
 73
0
 74
0
 75
0
 76
0
 77
1
 78
8
 79
2
170
0
171
1
172
0
173
0
174
0
175
0
176
0
177
0
178
0
270
2
179
2
271
2
272
2
273
2
274
2
275
0
280
0
281
0
282
0
283
1
284
8
285
0
286
0
287
3
288
0
340
11
278
46
341
212
342
212
343
212
344
212
  0
ENDTAB
  0
ENDSEC
  0
SECTION
  2
BLOCKS
  0
BLOCK
  5
20
100
AcDbEntity
  8
0
100
AcDbBlockBegin
  2
*Model_Space
 70
0
 10
0.0
 20
0.0
 30
0.0
  3
*Model_Space
  1

  0
ENDBLK
  5
21
100
AcDbEntity
  8
0
100
AcDbBlockEnd
  0
BLOCK
  5
1C
100
AcDbEntity
  8
0
100
AcDbBlockBegin
  2
*Paper_Space
 70
0
 10
0.0
 20
0.0
 30
0.0
  3
*Paper_Space
  1

  0
ENDBLK
  5
1D
100
AcDbEntity
  8
0
100
AcDbBlockEnd
  0
BLOCK
  5
214
100
AcDbEntity
  8
0
100
AcDbBlockBegin
  2
_FILLED
 70
64
 10
0.0
 20
0.0
  3
_FILLED
  1

  0
SOLID
  5
215
100
AcDbEntity
  8
0
  6
BYBLOCK
 62
0
100
AcDbTrace
 10
0.0
 20
0.0
 11
-1.0
 21
0.25
 12
-1.0
 22
-0.25
 13
-1.0
 23
-0.25
  0
ENDBLK
  5
216
100
AcDbEntity
  8
0
  6
BYBLOCK
 62
0
100
AcDbBlockEnd
  0
ENDSEC
  0
SECTION
  2
ENTITIES
  0
LINE
  5
217
100
AcDbEntity
  8
0
100
AcDbLine
 62
7
  6
CONTINUOUS
 10
355.6356917136
 20
61.3632653061
 11
358.2569782551
 21
61.9596765931
  0
LINE
  5
218
100
AcDbEntity
  8
0
100
AcDbLine
 62
7
  6
CONTINUOUS
 10
329.425395102
 20
58.1632653061
 11
158.025395102
 21
58.1632653061
  0
LINE
  5
219
100
AcDbEntity
  8
0
100
AcDbLine
 62
7
  6
CONTINUOUS
 10
329.425395102
 20
59.3632653061
 11
158.025395102
 21
59.3632653061
  0
LINE
  5
21A
100
AcDbEntity
  8
0
100
AcDbLine
 62
7
  6
CONTINUOUS
 10
340.1356917134
 20
60.1632653061
 11
355.6356917134
 21
60.1632653061
  0
LINE
  5
21B
100
AcDbEntity
  8
0
100
AcDbLine
 62
7
  6
CONTINUOUS
 10
340.1356917134
 20
61.3632653061
 11
355.6356917135
 21
61.3632653061
  0
LINE
  5
21C
100
AcDbEntity
  8
0
100
AcDbLine
 62
7
  6
CONTINUOUS
 10
155.425395102
 20
73.6632653061
 11
155.625395102
 21
73.6632653061
  0
LINE
  5
21D
100
AcDbEntity
  8
0
100
AcDbLine
 62
7
  6
CONTINUOUS
 10
334.4819705228
 20
109.6632615494
 11
334.125395102
 21
109.6123222036
  0
LINE
  5
21E
100
AcDbEntity
  8
0
100
AcDbLine
 62
7
  6
CONTINUOUS
 10
334.1253949992
 20
109.9733812225
 11
334.3305485401
 21
110.002690765
  0
LINE
  5
21F
100
AcDbEntity
  8
0
100
AcDbLine
 62
7
  6
CONTINUOUS
 10
334.3305484914
 20
110.0026892175
 11
334.8253951001
 21
110.0592381489
  0
LINE
  5
220
100
AcDbEntity
  8
0
100
AcDbLine
 62
7
  6
CONTINUOUS
 10
155.425395102
 20
86.6632653061
 11
155.625395102
 21
86.6632653061
  0
LINE
  5
221
100
AcDbEntity
  8
0
100
AcDbLine
 62
7
  6
CONTINUOUS
 10
332.625395102
 20
102.1632653061
 11
338.8356917134
 21
102.1632653061
  0
LINE
  5
222
100
AcDbEntity
  8
0
100
AcDbLine
 62
7
  6
CONTINUOUS
 10
333.125395102
 20
104.1632653061
 11
332.625395102
 21
104.1632653061
  0
LINE
  5
223
100
AcDbEntity
  8
0
100
AcDbLine
 62
7
  6
CONTINUOUS
 10
338.8356917134
 20
76.956105931
 11
335.0070130927
 21
77.7003256648
  0
LINE
  5
224
100
AcDbEntity
  8
0
100
AcDbLine
 62
7
  6
CONTINUOUS
 10
335.0070130928
 20
78.8782782849
 11
338.8356917134
 21
78.1340585511
  0
LINE
  5
225
100
AcDbEntity
  8
0
100
AcDbLine
 62
7
  6
CONTINUOUS
 10
334.425395102
 20
122.3866941926
 11
334.125395102
 21
122.3337960984
  0
LINE
  5
226
100
AcDbEntity
  8
0
100
AcDbLine
 62
7
  6
CONTINUOUS
 10
334.825395102
 20
117.0672853857
 11
334.3305484914
 21
117.1238353083
  0
LINE
  5
227
100
AcDbEntity
  8
0
100
AcDbLine
 62
7
  6
CONTINUOUS
 10
334.6536913878
 20
136.8877931016
 11
334.125395102
 21
136.8123222036
  0
LINE
  5
228
100
AcDbEntity
  8
0
100
AcDbLine
 62
7
  6
CONTINUOUS
 10
334.125395113
 20
136.992850337
 11
334.3305486128
 21
137.0221544317
  0
LINE
  5
229
100
AcDbEntity
  8
0
100
AcDbLine
 62
7
  6
CONTINUOUS
 10
334.3305484914
 20
137.0221528566
 11
334.8253950991
 21
137.0857799953
  0
LINE
  5
22A
100
AcDbEntity
  8
0
100
AcDbLine
 62
7
  6
CONTINUOUS
 10
334.3305485317
 20
117.123836332
 11
334.1253950016
 21
117.1531494396
  0
LINE
  5
22B
100
AcDbEntity
  8
0
100
AcDbLine
 62
7
  6
CONTINUOUS
 10
334.125395102
 20
117.5142084087
 11
334.4819719317
 21
117.4632688616
  0
LINE
  5
22C
100
AcDbEntity
  8
0
100
AcDbLine
 62
7
  6
CONTINUOUS
 10
334.425395102
 20
131.9398364196
 11
334.125395102
 21
131.9927345138
  0
LINE
  5
22D
100
AcDbEntity
  8
0
100
AcDbLine
 62
7
  6
CONTINUOUS
 10
332.625395102
 20
150.1632653061
 11
333.125395102
 21
150.1632653061
  0
LINE
  5
22E
100
AcDbEntity
  8
0
100
AcDbLine
 62
7
  6
CONTINUOUS
 10
332.625395102
 20
152.1632653061
 11
338.8356917134
 21
152.1632653061
  0
LINE
  5
22F
100
AcDbEntity
  8
0
100
AcDbLine
 62
7
  6
CONTINUOUS
 10
334.3305484914
 20
144.5043762714
 11
334.8249186038
 21
144.4408297082
  0
LINE
  5
230
100
AcDbEntity
  8
0
100
AcDbLine
 62
7
  6
CONTINUOUS
 10
334.3305486092
 20
144.5043762591
 11
334.125395102
 21
144.533680091
  0
LINE
  5
231
100
AcDbEntity
  8
0
100
AcDbLine
 62
7
  6
CONTINUOUS
 10
334.125395102
 20
144.7142084087
 11
334.6536954472
 21
144.6387369308
  0
LINE
  5
232
100
AcDbEntity
  8
0
100
AcDbLine
 62
7
  6
CONTINUOUS
 10
334.8249186038
 20
144.4408297082
 11
334.825395102
 21
144.4407493178
  0
LINE
  5
233
100
AcDbEntity
  8
0
100
AcDbLine
 62
7
  6
CONTINUOUS
 10
357.7914827368
 20
654.4727664315
 11
358.2569782551
 21
654.7987099024
  0
LINE
  5
234
100
AcDbEntity
  8
0
100
AcDbLine
 62
7
  6
CONTINUOUS
 10
357.7914827368
 20
61.8537641807
 11
358.2569782552
 21
61.5278207098
  0
LINE
  5
235
100
AcDbEntity
  8
0
100
AcDbLine
 62
7
  6
CONTINUOUS
 10
334.425395102
 20
584.3866941926
 11
334.625395102
 21
584.5545141189
  0
LINE
  5
236
100
AcDbEntity
  8
0
100
AcDbLine
 62
7
  6
CONTINUOUS
 10
334.625395102
 20
131.7720164934
 11
334.425395102
 21
131.9398364196
  0
LINE
  5
237
100
AcDbEntity
  8
0
100
AcDbLine
 62
7
  6
CONTINUOUS
 10
155.425395102
 20
73.6632653061
 11
155.425395102
 21
86.6632653061
  0
LINE
  5
238
100
AcDbEntity
  8
0
100
AcDbLine
 62
7
  6
CONTINUOUS
 10
155.425395102
 20
629.6632653061
 11
155.425395102
 21
642.6632653061
  0
LINE
  5
239
100
AcDbEntity
  8
0
100
AcDbLine
 62
7
  6
CONTINUOUS
 10
155.625395102
 20
655.7632653061
 11
155.625395102
 21
60.5632653061
  0
LINE
  5
23A
100
AcDbEntity
  8
0
100
AcDbLine
 62
7
  6
CONTINUOUS
 10
158.025395102
 20
58.1632653063
 11
158.025395102
 21
658.1632653059
  0
LINE
  5
23B
100
AcDbEntity
  8
0
100
AcDbLine
 62
7
  6
CONTINUOUS
 10
359.6743069973
 20
328.3925503971
 11
360.4167532895
 21
328.5636953307
  0
LINE
  5
23C
100
AcDbEntity
  8
0
100
AcDbLine
 62
7
  6
CONTINUOUS
 10
359.6743069973
 20
328.3925503971
 11
358.8356917134
 21
328.3632653061
  0
LINE
  5
23D
100
AcDbEntity
  8
0
100
AcDbLine
 62
7
  6
CONTINUOUS
 10
364.824638767
 20
336.5778013501
 11
364.8254584155
 21
336.5778184995
  0
LINE
  5
23E
100
AcDbEntity
  8
0
100
AcDbLine
 62
7
  6
CONTINUOUS
 10
364.824638767
 20
336.5778013501
 11
364.815967139
 21
336.577775989
  0
LINE
  5
23F
100
AcDbEntity
  8
0
100
AcDbLine
 62
7
  6
CONTINUOUS
 10
364.8254584155
 20
335.1492264687
 11
364.8159623331
 21
335.1492264687
  0
LINE
  5
240
100
AcDbEntity
  8
0
100
AcDbLine
 62
7
  6
CONTINUOUS
 10
364.8159646827
 20
370.1487292621
 11
364.8254584155
 21
370.1487292621
  0
LINE
  5
241
100
AcDbEntity
  8
0
100
AcDbLine
 62
7
  6
CONTINUOUS
 10
364.8159640144
 20
371.5773203247
 11
364.8254584155
 21
371.5773203247
  0
LINE
  5
242
100
AcDbEntity
  8
0
100
AcDbLine
 62
7
  6
CONTINUOUS
 10
358.8356917134
 20
378.3632653061
 11
359.6743069973
 21
378.3339802151
  0
LINE
  5
243
100
AcDbEntity
  8
0
100
AcDbLine
 62
7
  6
CONTINUOUS
 10
359.6743069973
 20
378.3339802151
 11
360.4167532895
 21
378.1628352815
  0
LINE
  5
244
100
AcDbEntity
  8
0
100
AcDbLine
 62
7
  6
CONTINUOUS
 10
329.425395102
 20
658.1632653042
 11
329.425395102
 21
58.163265308
  0
LINE
  5
245
100
AcDbEntity
  8
0
100
AcDbLine
 62
7
  6
CONTINUOUS
 10
332.625395102
 20
61.3632653061
 11
332.625395102
 21
102.1632653061
  0
LINE
  5
246
100
AcDbEntity
  8
0
100
AcDbLine
 62
7
  6
CONTINUOUS
 10
332.625395102
 20
104.1632653061
 11
332.625395102
 21
564.1632653061
  0
LINE
  5
247
100
AcDbEntity
  8
0
100
AcDbLine
 62
7
  6
CONTINUOUS
 10
332.625395102
 20
566.1632653061
 11
332.625395102
 21
654.9632653061
  0
LINE
  5
248
100
AcDbEntity
  8
0
100
AcDbLine
 62
7
  6
CONTINUOUS
 10
333.125395102
 20
612.1632653061
 11
333.125395102
 21
566.1632653061
  0
LINE
  5
249
100
AcDbEntity
  8
0
100
AcDbLine
 62
7
  6
CONTINUOUS
 10
333.125395102
 20
150.1632653061
 11
333.125395102
 21
104.1632653061
  0
LINE
  5
24A
100
AcDbEntity
  8
0
100
AcDbLine
 62
7
  6
CONTINUOUS
 10
334.125395102
 20
102.1632653061
 11
334.125395102
 21
152.1632653061
  0
LINE
  5
24B
100
AcDbEntity
  8
0
100
AcDbLine
 62
7
  6
CONTINUOUS
 10
334.125395102
 20
564.1632653061
 11
334.125395102
 21
614.1632653061
  0
LINE
  5
24C
100
AcDbEntity
  8
0
100
AcDbLine
 62
7
  6
CONTINUOUS
 10
334.3305486092
 20
606.5043762591
 11
334.3305486128
 21
599.0221544317
  0
LINE
  5
24D
100
AcDbEntity
  8
0
100
AcDbLine
 62
7
  6
CONTINUOUS
 10
334.3305485317
 20
579.123836332
 11
334.3305485401
 21
572.002690765
  0
LINE
  5
24E
100
AcDbEntity
  8
0
100
AcDbLine
 62
7
  6
CONTINUOUS
 10
334.3305486092
 20
144.5043762591
 11
334.3305486128
 21
137.0221544317
  0
LINE
  5
24F
100
AcDbEntity
  8
0
100
AcDbLine
 62
7
  6
CONTINUOUS
 10
334.3305485317
 20
117.123836332
 11
334.3305485401
 21
110.002690765
  0
LINE
  5
250
100
AcDbEntity
  8
0
100
AcDbLine
 62
7
  6
CONTINUOUS
 10
334.425395102
 20
593.9398364196
 11
334.425395102
 21
584.3866941926
  0
LINE
  5
251
100
AcDbEntity
  8
0
100
AcDbLine
 62
7
  6
CONTINUOUS
 10
334.425395102
 20
131.9398364196
 11
334.425395102
 21
122.3866941926
  0
LINE
  5
252
100
AcDbEntity
  8
0
100
AcDbLine
 62
7
  6
CONTINUOUS
 10
334.625395102
 20
593.7720164934
 11
334.625395102
 21
584.5545141189
  0
LINE
  5
253
100
AcDbEntity
  8
0
100
AcDbLine
 62
7
  6
CONTINUOUS
 10
334.625395102
 20
131.7719578232
 11
334.625395102
 21
122.554572789
  0
LINE
  5
254
100
AcDbEntity
  8
0
100
AcDbLine
 62
7
  6
CONTINUOUS
 10
334.825395102
 20
110.0592394112
 11
334.825395102
 21
117.0672868911
  0
LINE
  5
255
100
AcDbEntity
  8
0
100
AcDbLine
 62
7
  6
CONTINUOUS
 10
334.825395102
 20
137.0857807481
 11
334.825395102
 21
144.4407493178
  0
LINE
  5
256
100
AcDbEntity
  8
0
100
AcDbLine
 62
7
  6
CONTINUOUS
 10
334.825395102
 20
572.0592394112
 11
334.825395102
 21
579.0672868911
  0
LINE
  5
257
100
AcDbEntity
  8
0
100
AcDbLine
 62
7
  6
CONTINUOUS
 10
334.825395102
 20
599.0857807481
 11
334.825395102
 21
606.4407493178
  0
LINE
  5
258
100
AcDbEntity
  8
0
100
AcDbLine
 62
7
  6
CONTINUOUS
 10
335.0070130928
 20
78.8782782849
 11
335.0070130928
 21
102.1632653061
  0
LINE
  5
259
100
AcDbEntity
  8
0
100
AcDbLine
 62
7
  6
CONTINUOUS
 10
335.0070130928
 20
152.1632653061
 11
335.0070130928
 21
564.1632653061
  0
LINE
  5
25A
100
AcDbEntity
  8
0
100
AcDbLine
 62
7
  6
CONTINUOUS
 10
335.0070130928
 20
614.1632653061
 11
335.0070130928
 21
637.4482523273
  0
LINE
  5
25B
100
AcDbEntity
  8
0
100
AcDbLine
 62
7
  6
CONTINUOUS
 10
335.3162040974
 20
102.1632653061
 11
335.3162040974
 21
152.1632653061
  0
LINE
  5
25C
100
AcDbEntity
  8
0
100
AcDbLine
 62
7
  6
CONTINUOUS
 10
335.3162040974
 20
564.1632653061
 11
335.3162040974
 21
614.1632653061
  0
LINE
  5
25D
100
AcDbEntity
  8
0
100
AcDbLine
 62
7
  6
CONTINUOUS
 10
338.8356917134
 20
62.2547747518
 11
338.8356917134
 21
654.0717558604
  0
LINE
  5
25E
100
AcDbEntity
  8
0
100
AcDbLine
 62
7
  6
CONTINUOUS
 10
340.1356917134
 20
60.1632653061
 11
340.1356917134
 21
656.1632653061
  0
LWPOLYLINE
  5
25F
100
AcDbEntity
  8
0
100
AcDbPolyline
 62
7
  6
CONTINUOUS
 90
4
 70
0
 10
364.4945386476
 20
370.3242212307
 10
364.4753203647
 20
370.506083247
 10
364.4411600556
 20
370.9281545114
 10
364.4356919674
 20
371.1126834045
  0
LINE
  5
260
100
AcDbEntity
  8
0
100
AcDbLine
 62
7
  6
CONTINUOUS
 10
364.4541899404
 20
370.6631697795
 11
364.4863572521
 21
370.3530724874
  0
LWPOLYLINE
  5
261
100
AcDbEntity
  8
0
100
AcDbPolyline
 62
7
  6
CONTINUOUS
 90
3
 70
0
 10
364.8252517629
 20
370.1578186779
 10
364.7377496953
 20
371.157758428
 10
364.6261007114
 20
371.9157652141
  0
LWPOLYLINE
  5
262
100
AcDbEntity
  8
0
100
AcDbPolyline
 62
7
  6
CONTINUOUS
 90
3
 70
0
 10
364.8251881181
 20
371.5875893155
 10
364.7917040618
 20
372.0177419194
 10
364.6408365498
 20
372.9681228152
  0
LINE
  5
263
100
AcDbEntity
  8
0
100
AcDbLine
 62
7
  6
CONTINUOUS
 10
364.8159646828
 20
370.1487161914
 11
364.8154282932
 21
370.1569158829
  0
LINE
  5
264
100
AcDbEntity
  8
0
100
AcDbLine
 62
7
  6
CONTINUOUS
 10
364.8153823859
 20
371.5867428342
 11
364.8159640145
 21
371.577323843
  0
LWPOLYLINE
  5
265
100
AcDbEntity
  8
0
100
AcDbPolyline
 62
7
  6
CONTINUOUS
 90
4
 70
0
 10
364.639633765
 20
368.1046282408
 10
364.5965652879
 20
369.1113595111
 10
364.5625735906
 20
369.5969267422
 10
364.4945356111
 20
370.3243107581
  0
LINE
  5
266
100
AcDbEntity
  8
0
100
AcDbLine
 62
7
  6
CONTINUOUS
 10
364.629540952
 20
368.1043786557
 11
364.6293582733
 21
368.1110108068
  0
LINE
  5
267
100
AcDbEntity
  8
0
100
AcDbLine
 62
7
  6
CONTINUOUS
 10
364.4356924161
 20
333.612724711
 11
364.4356917134
 21
333.6136561365
  0
LINE
  5
268
100
AcDbEntity
  8
0
100
AcDbLine
 62
7
  6
CONTINUOUS
 10
364.4356917134
 20
371.114216744
 11
364.4356919505
 21
371.1130500437
  0
LINE
  5
269
100
AcDbEntity
  8
0
100
AcDbLine
 62
7
  6
CONTINUOUS
 10
364.4356917709
 20
373.1119061112
 11
364.4356917134
 21
373.1121631318
  0
LINE
  5
26A
100
AcDbEntity
  8
0
100
AcDbLine
 62
7
  6
CONTINUOUS
 10
350.1678017695
 20
60.1632653061
 11
350.1678017695
 21
656.1632653061
  0
LINE
  5
26B
100
AcDbEntity
  8
0
100
AcDbLine
 62
7
  6
CONTINUOUS
 10
351.8061058581
 20
61.3632653061
 11
351.8061058581
 21
60.1632653061
  0
LINE
  5
26C
100
AcDbEntity
  8
0
100
AcDbLine
 62
7
  6
CONTINUOUS
 10
351.8061058581
 20
654.9632653061
 11
351.8061058581
 21
656.1632653061
  0
LINE
  5
26D
100
AcDbEntity
  8
0
100
AcDbLine
 62
7
  6
CONTINUOUS
 10
352.7890883113
 20
61.3632653061
 11
352.7890883113
 21
654.9632653061
  0
LINE
  5
26E
100
AcDbEntity
  8
0
100
AcDbLine
 62
7
  6
CONTINUOUS
 10
355.6356917134
 20
656.163265305
 11
355.6356917134
 21
654.963265304
  0
LINE
  5
26F
100
AcDbEntity
  8
0
100
AcDbLine
 62
7
  6
CONTINUOUS
 10
355.6356917134
 20
61.3632653061
 11
355.6356917134
 21
60.1632653072
  0
LINE
  5
270
100
AcDbEntity
  8
0
100
AcDbLine
 62
7
  6
CONTINUOUS
 10
358.2569782551
 20
654.3668540191
 11
358.2569782551
 21
61.9596765931
  0
LINE
  5
271
100
AcDbEntity
  8
0
100
AcDbLine
 62
7
  6
CONTINUOUS
 10
358.8356917134
 20
63.3632653061
 11
358.8356917134
 21
652.9632653061
  0
LINE
  5
272
100
AcDbEntity
  8
0
100
AcDbLine
 62
7
  6
CONTINUOUS
 10
359.6743069973
 20
378.3339802151
 11
359.6743069973
 21
375.4650827409
  0
LINE
  5
273
100
AcDbEntity
  8
0
100
AcDbLine
 62
7
  6
CONTINUOUS
 10
359.6743069973
 20
331.2614424542
 11
359.6743069973
 21
328.3925503971
  0
LINE
  5
274
100
AcDbEntity
  8
0
100
AcDbLine
 62
7
  6
CONTINUOUS
 10
360.4167589053
 20
378.1628327857
 11
360.4167589053
 21
375.3135990737
  0
LINE
  5
275
100
AcDbEntity
  8
0
100
AcDbLine
 62
7
  6
CONTINUOUS
 10
360.4167589053
 20
331.4129268777
 11
360.4167589053
 21
328.5636978265
  0
LINE
  5
276
100
AcDbEntity
  8
0
100
AcDbLine
 62
7
  6
CONTINUOUS
 10
360.9752898783
 20
368.5937002211
 11
360.9752898783
 21
338.1328289061
  0
LINE
  5
277
100
AcDbEntity
  8
0
100
AcDbLine
 62
7
  6
CONTINUOUS
 10
364.8159623331
 20
336.4389930289
 11
364.8159623331
 21
335.1492264687
  0
LINE
  5
278
100
AcDbEntity
  8
0
100
AcDbLine
 62
7
  6
CONTINUOUS
 10
364.8159640144
 20
371.5773203247
 11
364.8159640144
 21
370.2639554723
  0
LINE
  5
279
100
AcDbEntity
  8
0
100
AcDbLine
 62
7
  6
CONTINUOUS
 10
364.8159646827
 20
370.1487292621
 11
364.8159646827
 21
361.724236806
  0
LINE
  5
27A
100
AcDbEntity
  8
0
100
AcDbLine
 62
7
  6
CONTINUOUS
 10
364.815967139
 20
354.6022773832
 11
364.815967139
 21
336.577775989
  0
LINE
  5
27B
100
AcDbEntity
  8
0
100
AcDbLine
 62
7
  6
CONTINUOUS
 10
364.8254584155
 20
335.1492264687
 11
364.8254584155
 21
354.4754045439
  0
LINE
  5
27C
100
AcDbEntity
  8
0
100
AcDbLine
 62
7
  6
CONTINUOUS
 10
364.8254584155
 20
361.8511260684
 11
364.8254584155
 21
370.1487292621
  0
LINE
  5
27D
100
AcDbEntity
  8
0
100
AcDbLine
 62
7
  6
CONTINUOUS
 10
364.8254584155
 20
370.1578371069
 11
364.8254584155
 21
371.5773203247
  0
LINE
  5
27E
100
AcDbEntity
  8
0
100
AcDbLine
 62
7
  6
CONTINUOUS
 10
364.4356917134
 20
335.6120692202
 11
364.4356920502
 21
335.6134365518
  0
LWPOLYLINE
  5
27F
100
AcDbEntity
  8
0
100
AcDbPolyline
 62
7
  6
CONTINUOUS
 90
3
 70
0
 10
364.6396237164
 20
338.6219101401
 10
364.8028851574
 20
353.3572581383
 10
364.6396238426
 20
368.1046199216
  0
LINE
  5
280
100
AcDbEntity
  8
0
100
AcDbLine
 62
7
  6
CONTINUOUS
 10
364.629358261
 20
338.6155181359
 11
364.6295201526
 21
338.6221565371
  0
LWPOLYLINE
  5
281
100
AcDbEntity
  8
0
100
AcDbPolyline
 62
7
  6
CONTINUOUS
 90
4
 70
0
 10
364.4356892781
 20
335.6139485925
 10
364.4410925557
 20
335.7970395135
 10
364.4748936924
 20
336.2161787675
 10
364.4945371465
 20
336.4022904146
  0
LWPOLYLINE
  5
282
100
AcDbEntity
  8
0
100
AcDbPolyline
 62
7
  6
CONTINUOUS
 90
9
 70
0
 10
364.4357042577
 20
333.6124370403
 10
364.4442962665
 20
333.7264859738
 10
364.474124527
 20
333.9338414829
 10
364.5231091626
 20
334.2194842804
 10
364.5860567246
 20
334.5758338648
 10
364.6568248739
 20
335.0001742605
 10
364.727818496
 20
335.4909306271
 10
364.7893302767
 20
336.0463857285
 10
364.8240966693
 20
336.5589086561
  0
LWPOLYLINE
  5
283
100
AcDbEntity
  8
0
100
AcDbPolyline
 62
7
  6
CONTINUOUS
 90
4
 70
0
 10
364.4945334055
 20
336.402199909
 10
364.5620001639
 20
337.1223547757
 10
364.5961000668
 20
337.6075767747
 10
364.6396337921
 20
338.6219018205
  0
LINE
  5
284
100
AcDbEntity
  8
0
100
AcDbLine
 62
7
  6
CONTINUOUS
 10
364.8244095918
 20
336.5583511123
 11
364.8249714451
 21
336.563853196
  0
LINE
  5
285
100
AcDbEntity
  8
0
100
AcDbLine
 62
7
  6
CONTINUOUS
 10
364.4945371465
 20
336.4022904146
 11
364.4945266605
 21
336.4021956907
  0
LWPOLYLINE
  5
286
100
AcDbEntity
  8
0
100
AcDbPolyline
 62
7
  6
CONTINUOUS
 90
4
 70
0
 10
364.5569040672
 20
333.3978692046
 10
364.6404389321
 20
333.7565353893
 10
364.7911362692
 20
334.7032891242
 10
364.8251663251
 20
335.1388924232
  0
LINE
  5
287
100
AcDbEntity
  8
0
100
AcDbLine
 62
7
  6
CONTINUOUS
 10
364.4427827477
 20
332.9839358275
 11
364.5569040672
 21
333.3978692046
  0
LINE
  5
288
100
AcDbEntity
  8
0
100
AcDbLine
 62
7
  6
CONTINUOUS
 10
364.4294919888
 20
332.940316196
 11
364.4430426571
 21
332.9879919799
  0
LINE
  5
289
100
AcDbEntity
  8
0
100
AcDbLine
 62
7
  6
CONTINUOUS
 10
364.424651391
 20
332.9243814756
 11
364.4357598113
 21
332.9610216515
  0
LINE
  5
28A
100
AcDbEntity
  8
0
100
AcDbLine
 62
7
  6
CONTINUOUS
 10
364.4244513574
 20
373.802696237
 11
364.4364465031
 21
373.7632512088
  0
LINE
  5
28B
100
AcDbEntity
  8
0
100
AcDbLine
 62
7
  6
CONTINUOUS
 10
364.4304212997
 20
373.7831560579
 11
364.4430468224
 21
373.7385590816
  0
LINE
  5
28C
100
AcDbEntity
  8
0
100
AcDbLine
 62
7
  6
CONTINUOUS
 10
364.5572292024
 20
373.3273937864
 11
364.44238774
 21
373.7438717872
  0
LINE
  5
28D
100
AcDbEntity
  8
0
100
AcDbLine
 62
7
  6
CONTINUOUS
 10
364.6408365498
 20
372.9681228152
 11
364.5572292024
 21
373.3273937864
  0
LWPOLYLINE
  5
28E
100
AcDbEntity
  8
0
100
AcDbPolyline
 62
7
  6
CONTINUOUS
 90
4
 70
0
 10
364.6261007114
 20
371.9157652141
 10
364.4740098828
 20
372.793405389
 10
364.4443402516
 20
372.9996723834
 10
364.4357013562
 20
373.1131566199
  0
LINE
  5
28F
100
AcDbEntity
  8
0
100
AcDbLine
 62
7
  6
CONTINUOUS
 10
364.8159646828
 20
370.1487161914
 11
364.8149768281
 21
370.1565398469
  0
LINE
  5
290
100
AcDbEntity
  8
0
100
AcDbLine
 62
7
  6
CONTINUOUS
 10
364.8252508659
 20
370.1578384191
 11
364.8251742973
 21
370.1584563825
  0
LINE
  5
291
100
AcDbEntity
  8
0
100
AcDbLine
 62
7
  6
CONTINUOUS
 10
364.8148754439
 20
371.5863448832
 11
364.8159640145
 21
371.577323843
  0
LINE
  5
292
100
AcDbEntity
  8
0
100
AcDbLine
 62
7
  6
CONTINUOUS
 10
364.4945288288
 20
370.324309948
 11
364.4945386476
 21
370.3242212307
  0
LINE
  5
293
100
AcDbEntity
  8
0
100
AcDbLine
 62
7
  6
CONTINUOUS
 10
335.0070130896
 20
77.700325649
 11
335.2359838851
 21
78.8782782743
  0
LINE
  5
294
100
AcDbEntity
  8
0
100
AcDbLine
 62
7
  6
CONTINUOUS
 10
335.0070130928
 20
638.6262049474
 11
335.2359838872
 21
637.4482523273
  0
LINE
  5
295
100
AcDbEntity
  8
0
100
AcDbLine
 62
7
  6
CONTINUOUS
 10
334.125395102
 20
584.3337960984
 11
334.425395102
 21
584.3866941926
  0
LINE
  5
296
100
AcDbEntity
  8
0
100
AcDbLine
 62
7
  6
CONTINUOUS
 10
334.4819705228
 20
571.6632615494
 11
334.125395102
 21
571.6123222036
  0
LINE
  5
297
100
AcDbEntity
  8
0
100
AcDbLine
 62
7
  6
CONTINUOUS
 10
334.1253949992
 20
571.9733812225
 11
334.3305485401
 21
572.002690765
  0
LINE
  5
298
100
AcDbEntity
  8
0
100
AcDbLine
 62
7
  6
CONTINUOUS
 10
334.3305484914
 20
572.0026892175
 11
334.8253951001
 21
572.0592381489
  0
LINE
  5
299
100
AcDbEntity
  8
0
100
AcDbLine
 62
7
  6
CONTINUOUS
 10
332.625395102
 20
564.1632653061
 11
338.8356917134
 21
564.1632653061
  0
LINE
  5
29A
100
AcDbEntity
  8
0
100
AcDbLine
 62
7
  6
CONTINUOUS
 10
333.125395102
 20
566.1632653061
 11
332.625395102
 21
566.1632653061
  0
LINE
  5
29B
100
AcDbEntity
  8
0
100
AcDbLine
 62
7
  6
CONTINUOUS
 10
334.625395102
 20
122.5545141189
 11
334.425395102
 21
122.3866941926
  0
LINE
  5
29C
100
AcDbEntity
  8
0
100
AcDbLine
 62
7
  6
CONTINUOUS
 10
334.6536913878
 20
598.8877931016
 11
334.125395102
 21
598.8123222036
  0
LINE
  5
29D
100
AcDbEntity
  8
0
100
AcDbLine
 62
7
  6
CONTINUOUS
 10
334.125395113
 20
598.992850337
 11
334.3305486128
 21
599.0221544317
  0
LINE
  5
29E
100
AcDbEntity
  8
0
100
AcDbLine
 62
7
  6
CONTINUOUS
 10
334.3305484914
 20
599.0221528566
 11
334.8253950991
 21
599.0857799953
  0
LINE
  5
29F
100
AcDbEntity
  8
0
100
AcDbLine
 62
7
  6
CONTINUOUS
 10
334.825395102
 20
579.0672853857
 11
334.3305484914
 21
579.1238353083
  0
LINE
  5
2A0
100
AcDbEntity
  8
0
100
AcDbLine
 62
7
  6
CONTINUOUS
 10
334.3305485317
 20
579.123836332
 11
334.1253950016
 21
579.1531494396
  0
LINE
  5
2A1
100
AcDbEntity
  8
0
100
AcDbLine
 62
7
  6
CONTINUOUS
 10
334.125395102
 20
579.5142084087
 11
334.4819719317
 21
579.4632688616
  0
LINE
  5
2A2
100
AcDbEntity
  8
0
100
AcDbLine
 62
7
  6
CONTINUOUS
 10
334.625395102
 20
593.7720164934
 11
334.425395102
 21
593.9398364196
  0
LINE
  5
2A3
100
AcDbEntity
  8
0
100
AcDbLine
 62
7
  6
CONTINUOUS
 10
332.625395102
 20
612.1632653061
 11
333.125395102
 21
612.1632653061
  0
LINE
  5
2A4
100
AcDbEntity
  8
0
100
AcDbLine
 62
7
  6
CONTINUOUS
 10
332.625395102
 20
614.1632653061
 11
338.8356917134
 21
614.1632653061
  0
LINE
  5
2A5
100
AcDbEntity
  8
0
100
AcDbLine
 62
7
  6
CONTINUOUS
 10
334.3305484914
 20
606.5043762714
 11
334.8249186038
 21
606.4408297082
  0
LINE
  5
2A6
100
AcDbEntity
  8
0
100
AcDbLine
 62
7
  6
CONTINUOUS
 10
334.3305486092
 20
606.5043762591
 11
334.125395102
 21
606.533680091
  0
LINE
  5
2A7
100
AcDbEntity
  8
0
100
AcDbLine
 62
7
  6
CONTINUOUS
 10
334.125395102
 20
606.7142084087
 11
334.6536954472
 21
606.6387369308
  0
LINE
  5
2A8
100
AcDbEntity
  8
0
100
AcDbLine
 62
7
  6
CONTINUOUS
 10
334.425395102
 20
593.9398364196
 11
334.125395102
 21
593.9927345138
  0
LINE
  5
2A9
100
AcDbEntity
  8
0
100
AcDbLine
 62
7
  6
CONTINUOUS
 10
338.8356917134
 20
638.1924720612
 11
335.0070130928
 21
637.4482523273
  0
LINE
  5
2AA
100
AcDbEntity
  8
0
100
AcDbLine
 62
7
  6
CONTINUOUS
 10
335.0070130928
 20
638.6262049474
 11
338.8356917134
 21
639.3704246813
  0
LINE
  5
2AB
100
AcDbEntity
  8
0
100
AcDbLine
 62
7
  6
CONTINUOUS
 10
155.425395102
 20
629.6632653061
 11
155.625395102
 21
629.6632653061
  0
LINE
  5
2AC
100
AcDbEntity
  8
0
100
AcDbLine
 62
7
  6
CONTINUOUS
 10
334.8249186038
 20
606.4408297082
 11
334.825395102
 21
606.4407493178
  0
LINE
  5
2AD
100
AcDbEntity
  8
0
100
AcDbLine
 62
7
  6
CONTINUOUS
 10
155.425395102
 20
642.6632653061
 11
155.625395102
 21
642.6632653061
  0
LINE
  5
2AE
100
AcDbEntity
  8
0
100
AcDbLine
 62
7
  6
CONTINUOUS
 10
340.1356917134
 20
654.9632653061
 11
355.6356917134
 21
654.9632653061
  0
LINE
  5
2AF
100
AcDbEntity
  8
0
100
AcDbLine
 62
7
  6
CONTINUOUS
 10
340.1356917134
 20
656.1632653061
 11
355.6356917134
 21
656.1632653061
  0
LINE
  5
2B0
100
AcDbEntity
  8
0
100
AcDbLine
 62
7
  6
CONTINUOUS
 10
329.425395102
 20
656.9632653061
 11
158.025395102
 21
656.9632653061
  0
LINE
  5
2B1
100
AcDbEntity
  8
0
100
AcDbLine
 62
7
  6
CONTINUOUS
 10
329.425395102
 20
658.1632653042
 11
158.025395102
 21
658.1632653059
  0
LINE
  5
2B2
100
AcDbEntity
  8
0
100
AcDbLine
 62
7
  6
CONTINUOUS
 10
358.2569782551
 20
654.3668540191
 11
355.6356917134
 21
654.9632653061
  0
ARC
  5
2B3
100
AcDbEntity
  8
0
100
AcDbCircle
 62
7
  6
CONTINUOUS
 10
89.1097864406
 20
345.9789244514
 40
275.6179508527
100
AcDbArc
 50
358.4704841479
 51
358.6283625996
  0
ARC
  5
2B4
100
AcDbEntity
  8
0
100
AcDbCircle
 62
7
  6
CONTINUOUS
 10
176.050395102
 20
80.1632653061
 40
21.625
100
AcDbArc
 50
162.5076754749
 51
197.4923245251
  0
ARC
  5
2B5
100
AcDbEntity
  8
0
100
AcDbCircle
 62
7
  6
CONTINUOUS
 10
158.025395102
 20
60.5632653061
 40
2.4
100
AcDbArc
 50
180.0
 51
270.0
  0
ARC
  5
2B6
100
AcDbEntity
  8
0
100
AcDbCircle
 62
7
  6
CONTINUOUS
 10
148.0905117457
 20
362.2579501057
 40
216.6179399228
100
AcDbArc
 50
1.3423797919
 51
1.5465771798
  0
ARC
  5
2B7
100
AcDbEntity
  8
0
100
AcDbCircle
 62
7
  6
CONTINUOUS
 10
176.050395102
 20
636.1632653061
 40
21.625
100
AcDbArc
 50
162.5076754749
 51
197.4923245251
  0
ARC
  5
2B8
100
AcDbEntity
  8
0
100
AcDbCircle
 62
7
  6
CONTINUOUS
 10
158.025395102
 20
655.7632653061
 40
2.4
100
AcDbArc
 50
90.0
 51
180.0
  0
ARC
  5
2B9
100
AcDbEntity
  8
0
100
AcDbCircle
 62
7
  6
CONTINUOUS
 10
285.958777937
 20
133.2646116557
 40
73.236857654
100
AcDbArc
 50
311.6447233321
 51
311.9510847305
  0
ARC
  5
2BA
100
AcDbEntity
  8
0
100
AcDbCircle
 62
7
  6
CONTINUOUS
 10
314.3389835452
 20
101.6533729814
 40
30.7550383483
100
AcDbArc
 50
311.9979873934
 51
312.2232335987
  0
ARC
  5
2BB
100
AcDbEntity
  8
0
100
AcDbCircle
 62
7
  6
CONTINUOUS
 10
342.2761764062
 20
67.1993312811
 40
6.2022216674
100
AcDbArc
 50
243.0537968897
 51
244.6469218511
  0
ARC
  5
2BC
100
AcDbEntity
  8
0
100
AcDbCircle
 62
7
  6
CONTINUOUS
 10
329.425395102
 20
61.3632653061
 40
3.2
100
AcDbArc
 50
270.0
 51
351.5717055769
  0
ARC
  5
2BD
100
AcDbEntity
  8
0
100
AcDbCircle
 62
7
  6
CONTINUOUS
 10
329.425395102
 20
61.3632653061
 40
2.0
100
AcDbArc
 50
270.0
 51
312.7681591087
  0
ARC
  5
2BE
100
AcDbEntity
  8
0
100
AcDbCircle
 62
7
  6
CONTINUOUS
 10
334.625395102
 20
75.7370712979
 40
2.0
100
AcDbArc
 50
79.0
 51
180.0
  0
ARC
  5
2BF
100
AcDbEntity
  8
0
100
AcDbCircle
 62
7
  6
CONTINUOUS
 10
340.1356917134
 20
61.4632653061
 40
1.3
100
AcDbArc
 50
157.227585752
 51
270.0
  0
ARC
  5
2C0
100
AcDbEntity
  8
0
100
AcDbCircle
 62
7
  6
CONTINUOUS
 10
334.425395102
 20
117.067290248
 40
0.4
100
AcDbArc
 50
359.9997389563
 51
81.8698976458
  0
ARC
  5
2C1
100
AcDbEntity
  8
0
100
AcDbCircle
 62
7
  6
CONTINUOUS
 10
334.4254068566
 20
110.0592479738
 40
0.3999988099
100
AcDbArc
 50
278.1301023542
 51
359.9988695159
  0
ARC
  5
2C2
100
AcDbEntity
  8
0
100
AcDbCircle
 62
7
  6
CONTINUOUS
 10
334.625395102
 20
137.0857812839
 40
0.2
100
AcDbArc
 50
278.1301023541
 51
0.00003205
  0
ARC
  5
2C3
100
AcDbEntity
  8
0
100
AcDbCircle
 62
7
  6
CONTINUOUS
 10
334.625395102
 20
144.4407493283
 40
0.2
100
AcDbArc
 50
0.0
 51
81.8669414191
  0
ARC
  5
2C4
100
AcDbEntity
  8
0
100
AcDbCircle
 62
7
  6
CONTINUOUS
 10
342.1097879161
 20
338.5986114334
 40
22.8321898717
100
AcDbArc
 50
349.7552419075
 51
350.2082844137
  0
ARC
  5
2C5
100
AcDbEntity
  8
0
100
AcDbCircle
 62
7
  6
CONTINUOUS
 10
344.5334540404
 20
338.1517026719
 40
20.3681587688
100
AcDbArc
 50
351.4678864329
 51
352.2244956242
  0
ARC
  5
2C6
100
AcDbEntity
  8
0
100
AcDbCircle
 62
7
  6
CONTINUOUS
 10
345.3575818235
 20
338.0371120954
 40
19.5362157129
100
AcDbArc
 50
350.211149975
 51
350.8336871372
  0
ARC
  5
2C7
100
AcDbEntity
  8
0
100
AcDbCircle
 62
7
  6
CONTINUOUS
 10
346.3947346145
 20
337.8703064947
 40
18.4857350096
100
AcDbArc
 50
350.8320018657
 51
351.2984383016
  0
ARC
  5
2C8
100
AcDbEntity
  8
0
100
AcDbCircle
 62
7
  6
CONTINUOUS
 10
347.0391154465
 20
337.8092079578
 40
17.8391981974
100
AcDbArc
 50
352.2256192086
 51
352.670294265
  0
ARC
  5
2C9
100
AcDbEntity
  8
0
100
AcDbCircle
 62
7
  6
CONTINUOUS
 10
347.2452129142
 20
337.73939863
 40
17.6252411735
100
AcDbArc
 50
351.3008247786
 51
351.4854874077
  0
ARC
  5
2CA
100
AcDbEntity
  8
0
100
AcDbCircle
 62
7
  6
CONTINUOUS
 10
394.8348518551
 20
10.8743574446
 40
90.5720999546
100
AcDbArc
 50
131.6645603583
 51
131.8616661766
  0
ARC
  5
2CB
100
AcDbEntity
  8
0
100
AcDbCircle
 62
7
  6
CONTINUOUS
 10
355.6356917134
 20
63.3632653061
 40
3.2
100
AcDbArc
 50
270.0000000004
 51
360.0
  0
ARC
  5
2CC
100
AcDbEntity
  8
0
100
AcDbCircle
 62
7
  6
CONTINUOUS
 10
410.5416670021
 20
331.4791530216
 40
46.3146417462
100
AcDbArc
 50
173.9340099675
 51
174.1482224485
  0
ARC
  5
2CD
100
AcDbEntity
  8
0
100
AcDbCircle
 62
7
  6
CONTINUOUS
 10
349.5041455884
 20
337.4953950937
 40
15.3542756758
100
AcDbArc
 50
352.658214398
 51
353.4853130465
  0
ARC
  5
2CE
100
AcDbEntity
  8
0
100
AcDbCircle
 62
7
  6
CONTINUOUS
 10
351.9971062801
 20
337.2122791558
 40
12.8452908727
100
AcDbArc
 50
353.478362431
 51
354.7309903103
  0
ARC
  5
2CF
100
AcDbEntity
  8
0
100
AcDbCircle
 62
7
  6
CONTINUOUS
 10
352.6124665846
 20
337.1542758731
 40
12.2272042705
100
AcDbArc
 50
354.7368403196
 51
354.9121772064
  0
ARC
  5
2D0
100
AcDbEntity
  8
0
100
AcDbCircle
 62
7
  6
CONTINUOUS
 10
353.5324819082
 20
337.0796158955
 40
11.3041951331
100
AcDbArc
 50
354.8755643829
 51
357.3569159521
  0
ARC
  5
2D1
100
AcDbEntity
  8
0
100
AcDbCircle
 62
7
  6
CONTINUOUS
 10
354.7133205969
 20
335.8902429565
 40
10.1541182154
100
AcDbArc
 50
343.657832853
 51
345.300155388
  0
ARC
  5
2D2
100
AcDbEntity
  8
0
100
AcDbCircle
 62
7
  6
CONTINUOUS
 10
354.9475499691
 20
335.8280776056
 40
9.9117807714
100
AcDbArc
 50
345.3041649817
 51
346.6223896848
  0
ARC
  5
2D3
100
AcDbEntity
  8
0
100
AcDbCircle
 62
7
  6
CONTINUOUS
 10
355.2197060253
 20
335.7627993077
 40
9.6319060204
100
AcDbArc
 50
346.6255955068
 51
348.5989131426
  0
ARC
  5
2D4
100
AcDbEntity
  8
0
100
AcDbCircle
 62
7
  6
CONTINUOUS
 10
355.4325604986
 20
335.6761617046
 40
9.4037005147
100
AcDbArc
 50
343.2180006378
 51
343.6764609652
  0
ARC
  5
2D5
100
AcDbEntity
  8
0
100
AcDbCircle
 62
7
  6
CONTINUOUS
 10
355.588179278
 20
335.6885809332
 40
9.2560325076
100
AcDbArc
 50
348.5983904506
 51
351.3701360705
  0
ARC
  5
2D6
100
AcDbEntity
  8
0
100
AcDbCircle
 62
7
  6
CONTINUOUS
 10
357.39485838
 20
335.3632653061
 40
7.4408333333
100
AcDbArc
 50
293.9615779875
 51
340.8667596538
  0
ARC
  5
2D7
100
AcDbEntity
  8
0
100
AcDbCircle
 62
7
  6
CONTINUOUS
 10
357.9488171236
 20
335.5094222575
 40
6.8863458972
100
AcDbArc
 50
354.3502024531
 51
356.9137059829
  0
ARC
  5
2D8
100
AcDbEntity
  8
0
100
AcDbCircle
 62
7
  6
CONTINUOUS
 10
358.3779299371
 20
335.4657138371
 40
6.4550147442
100
AcDbArc
 50
352.2959209244
 51
354.3613053115
  0
ARC
  5
2D9
100
AcDbEntity
  8
0
100
AcDbCircle
 62
7
  6
CONTINUOUS
 10
367.7580162
 20
335.5500538384
 40
3.3334691247
100
AcDbArc
 50
178.0356246127
 51
179.3151653071
  0
ARC
  5
2DA
100
AcDbEntity
  8
0
100
AcDbCircle
 62
7
  6
CONTINUOUS
 10
365.4286387434
 20
336.3216033842
 40
0.9436999831
100
AcDbArc
 50
175.365095462
 51
176.8539420254
  0
ARC
  5
2DB
100
AcDbEntity
  8
0
100
AcDbCircle
 62
7
  6
CONTINUOUS
 10
363.9666470055
 20
354.4749356758
 40
0.8588134836
100
AcDbArc
 50
0.0312680568
 51
8.5270502726
  0
ARC
  5
2DC
100
AcDbEntity
  8
0
100
AcDbCircle
 62
7
  6
CONTINUOUS
 10
364.6254584155
 20
335.1492102876
 40
0.2
100
AcDbArc
 50
357.0415783425
 51
360.0
  0
ARC
  5
2DD
100
AcDbEntity
  8
0
100
AcDbCircle
 62
7
  6
CONTINUOUS
 10
364.6254584155
 20
336.5778013501
 40
0.2
100
AcDbArc
 50
356.0009019065
 51
360.0
  0
ARC
  5
2DE
100
AcDbEntity
  8
0
100
AcDbCircle
 62
7
  6
CONTINUOUS
 10
394.8410903217
 20
705.4591664338
 40
90.5814714148
100
AcDbArc
 50
228.1383746928
 51
228.3354323412
  0
ARC
  5
2DF
100
AcDbEntity
  8
0
100
AcDbCircle
 62
7
  6
CONTINUOUS
 10
285.9758382915
 20
583.081032442
 40
73.2112377557
100
AcDbArc
 50
48.0487430936
 51
48.3553140447
  0
ARC
  5
2E0
100
AcDbEntity
  8
0
100
AcDbCircle
 62
7
  6
CONTINUOUS
 10
314.34221116
 20
614.6767235618
 40
30.7502286372
100
AcDbArc
 50
47.7767547975
 51
48.0017925735
  0
ARC
  5
2E1
100
AcDbEntity
  8
0
100
AcDbCircle
 62
7
  6
CONTINUOUS
 10
345.0331695367
 20
368.6111998412
 40
19.868536143
100
AcDbArc
 50
8.1978780159
 51
9.1582036959
  0
ARC
  5
2E2
100
AcDbEntity
  8
0
100
AcDbCircle
 62
7
  6
CONTINUOUS
 10
348.6059309702
 20
369.1307540826
 40
16.2581992127
100
AcDbArc
 50
6.8214651199
 51
8.1809728447
  0
ARC
  5
2E3
100
AcDbEntity
  8
0
100
AcDbCircle
 62
7
  6
CONTINUOUS
 10
354.7735134587
 20
370.8539111093
 40
10.0914143796
100
AcDbArc
 50
14.6141332549
 51
16.2655263196
  0
ARC
  5
2E4
100
AcDbEntity
  8
0
100
AcDbCircle
 62
7
  6
CONTINUOUS
 10
354.8856816046
 20
370.8827615099
 40
9.9755960328
100
AcDbArc
 50
13.3649102111
 51
14.6163383615
  0
ARC
  5
2E5
100
AcDbEntity
  8
0
100
AcDbCircle
 62
7
  6
CONTINUOUS
 10
355.2584118819
 20
370.9718867092
 40
9.5923587154
100
AcDbArc
 50
11.3473703287
 51
13.3616005912
  0
ARC
  5
2E6
100
AcDbEntity
  8
0
100
AcDbCircle
 62
7
  6
CONTINUOUS
 10
355.5845431782
 20
371.0937763777
 40
9.2456632184
100
AcDbArc
 50
16.26424437
 51
16.7817731285
  0
ARC
  5
2E7
100
AcDbEntity
  8
0
100
AcDbCircle
 62
7
  6
CONTINUOUS
 10
355.5985280326
 20
371.0400631528
 40
9.2454768661
100
AcDbArc
 50
8.4626992026
 51
11.3478439114
  0
ARC
  5
2E8
100
AcDbEntity
  8
0
100
AcDbCircle
 62
7
  6
CONTINUOUS
 10
356.2314007013
 20
371.1331491217
 40
8.6057960122
100
AcDbArc
 50
3.0287241876
 51
8.469787048
  0
ARC
  5
2E9
100
AcDbEntity
  8
0
100
AcDbCircle
 62
7
  6
CONTINUOUS
 10
357.39485838
 20
371.3632653061
 40
7.4408333333
100
AcDbArc
 50
19.1334460693
 51
66.0384220125
  0
ARC
  5
2EA
100
AcDbEntity
  8
0
100
AcDbCircle
 62
7
  6
CONTINUOUS
 10
342.2658393731
 20
649.1487477483
 40
6.1784025503
100
AcDbArc
 50
115.338544268
 51
116.9293748524
  0
ARC
  5
2EB
100
AcDbEntity
  8
0
100
AcDbCircle
 62
7
  6
CONTINUOUS
 10
369.9141206559
 20
370.794863495
 40
5.4457303042
100
AcDbArc
 50
184.9482873402
 51
185.6601988696
  0
ARC
  5
2EC
100
AcDbEntity
  8
0
100
AcDbCircle
 62
7
  6
CONTINUOUS
 10
368.4525335377
 20
370.6678307546
 40
3.9786332061
100
AcDbArc
 50
184.5374846453
 51
184.9412630392
  0
ARC
  5
2ED
100
AcDbEntity
  8
0
100
AcDbCircle
 62
7
  6
CONTINUOUS
 10
355.6356917134
 20
652.9632653061
 40
3.2
100
AcDbArc
 50
0.0
 51
89.9999999996
  0
ARC
  5
2EE
100
AcDbEntity
  8
0
100
AcDbCircle
 62
7
  6
CONTINUOUS
 10
329.425395102
 20
654.9632653061
 40
3.2
100
AcDbArc
 50
0.0
 51
90.0
  0
ARC
  5
2EF
100
AcDbEntity
  8
0
100
AcDbCircle
 62
7
  6
CONTINUOUS
 10
334.625395102
 20
640.5894593143
 40
2.0
100
AcDbArc
 50
180.0
 51
281.0000000005
  0
ARC
  5
2F0
100
AcDbEntity
  8
0
100
AcDbCircle
 62
7
  6
CONTINUOUS
 10
329.425395102
 20
654.9632653061
 40
2.0
100
AcDbArc
 50
47.2253168009
 51
90.0
  0
ARC
  5
2F1
100
AcDbEntity
  8
0
100
AcDbCircle
 62
7
  6
CONTINUOUS
 10
340.1356917134
 20
654.8632653061
 40
1.3
100
AcDbArc
 50
90.0
 51
202.6500954349
  0
ARC
  5
2F2
100
AcDbEntity
  8
0
100
AcDbCircle
 62
7
  6
CONTINUOUS
 10
363.9666154865
 20
361.8515987377
 40
0.8588452239
100
AcDbArc
 50
351.4719029142
 51
359.968506989
  0
ARC
  5
2F3
100
AcDbEntity
  8
0
100
AcDbCircle
 62
7
  6
CONTINUOUS
 10
334.425395102
 20
579.067290248
 40
0.4
100
AcDbArc
 50
359.9997389562
 51
81.8698976458
  0
ARC
  5
2F4
100
AcDbEntity
  8
0
100
AcDbCircle
 62
7
  6
CONTINUOUS
 10
334.4254068566
 20
572.0592479738
 40
0.3999988099
100
AcDbArc
 50
278.1301023542
 51
359.9988695159
  0
ARC
  5
2F5
100
AcDbEntity
  8
0
100
AcDbCircle
 62
7
  6
CONTINUOUS
 10
364.6254584155
 20
371.5773203247
 40
0.2
100
AcDbArc
 50
0.0
 51
2.9438009356
  0
ARC
  5
2F6
100
AcDbEntity
  8
0
100
AcDbCircle
 62
7
  6
CONTINUOUS
 10
364.6254584155
 20
370.1487292621
 40
0.2
100
AcDbArc
 50
0.0
 51
2.6051944203
  0
ARC
  5
2F7
100
AcDbEntity
  8
0
100
AcDbCircle
 62
7
  6
CONTINUOUS
 10
334.625395102
 20
599.0857812839
 40
0.2
100
AcDbArc
 50
278.1301023541
 51
0.00003205
  0
ARC
  5
2F8
100
AcDbEntity
  8
0
100
AcDbCircle
 62
7
  6
CONTINUOUS
 10
334.625395102
 20
606.4407493283
 40
0.2
100
AcDbArc
 50
0.0
 51
81.8669414191
  0
LINE
  5
2F9
100
AcDbEntity
  8
0
100
AcDbLine
 62
7
  6
CONTINUOUS
 10
364.8159623336
 20
335.1492401513
 11
364.8154049686
 21
335.1397452808
  0
SPLINE
  5
2FA
100
AcDbEntity
  8
0
100
AcDbSpline
 62
7
  6
CONTINUOUS
 70
0
 71
3
 72
24
 73
20
 74
0
 42
0.0000001
 43
0.0000001
 44
0.0000000001
 40
0.0
 40
0.0
 40
0.0
 40
0.0
 40
0.2271880868
 40
0.4386781443
 40
0.5350996014
 40
0.623647341
 40
0.7033569754
 40
0.7732343333
 40
0.8320470756
 40
0.8786531534
 40
0.9132475841
 40
0.9367748676
 40
0.9446515785
 40
0.950210561
 40
0.9543411204
 40
0.9590080047
 40
0.9656775445
 40
0.9747386968
 40
1.0
 40
1.0
 40
1.0
 40
1.0
 10
364.8154049686
 20
335.1397452808
 30
0.0
 10
364.8075817623
 20
335.0076488674
 30
0.0
 10
364.7872219319
 20
334.752820748
 30
0.0
 10
364.7436934269
 20
334.4439629951
 30
0.0
 10
364.7000396796
 20
334.2171688094
 30
0.0
 10
364.6659587382
 20
334.0667881372
 30
0.0
 10
364.6308468502
 20
333.9325784617
 30
0.0
 10
364.5960963161
 20
333.8162381141
 30
0.0
 10
364.5629165575
 20
333.7196630779
 30
0.0
 10
364.5321738488
 20
333.6439986501
 30
0.0
 10
364.5046799452
 20
333.5895996914
 30
0.0
 10
364.4839380185
 20
333.5568465858
 30
0.0
 10
364.4690273434
 20
333.5413344576
 30
0.0
 10
364.4603168862
 20
333.5354344077
 30
0.0
 10
364.4511641171
 20
333.535600793
 30
0.0
 10
364.444861273
 20
333.5429768549
 30
0.0
 10
364.4408098253
 20
333.554108658
 30
0.0
 10
364.4362951872
 20
333.5776779597
 30
0.0
 10
364.4357148007
 20
333.5977360163
 30
0.0
 10
364.4356923642
 20
333.6124496863
 30
0.0
  0
SPLINE
  5
2FB
100
AcDbEntity
  8
0
100
AcDbSpline
 62
7
  6
CONTINUOUS
 70
0
 71
3
 72
9
 73
5
 74
0
 42
0.0000001
 43
0.0000001
 44
0.0000000001
 40
0.0
 40
0.0
 40
0.0
 40
0.0
 40
0.3055274562
 40
1.0
 40
1.0
 40
1.0
 40
1.0
 10
364.8159737374
 20
335.1492261524
 30
0.0
 10
364.8169329255
 20
335.1486679145
 30
0.0
 10
364.8199828739
 20
335.1467365777
 30
0.0
 10
364.8228974682
 20
335.1443018084
 30
0.0
 10
364.824168212
 20
335.1421226264
 30
0.0
  0
SPLINE
  5
2FC
100
AcDbEntity
  8
0
100
AcDbSpline
 62
7
  6
CONTINUOUS
 70
0
 71
3
 72
9
 73
5
 74
0
 42
0.0000001
 43
0.0000001
 44
0.0000000001
 40
0.0
 40
0.0
 40
0.0
 40
0.0
 40
0.5234099846
 40
1.0
 40
1.0
 40
1.0
 40
1.0
 10
364.824168212
 20
335.1421226264
 30
0.0
 10
364.82448832
 20
335.1415736774
 30
0.0
 10
364.8249969908
 20
335.1404565933
 30
0.0
 10
364.8251807267
 20
335.1392356389
 30
0.0
 10
364.8251746699
 20
335.1386570502
 30
0.0
  0
SPLINE
  5
2FD
100
AcDbEntity
  8
0
100
AcDbSpline
 62
7
  6
CONTINUOUS
 70
0
 71
3
 72
24
 73
20
 74
0
 42
0.0000001
 43
0.0000001
 44
0.0000000001
 40
0.0
 40
0.0
 40
0.0
 40
0.0
 40
0.0248603715
 40
0.0337194028
 40
0.0403161646
 40
0.0450819664
 40
0.0492458562
 40
0.0545826424
 40
0.06213659
 40
0.0853702354
 40
0.1204327002
 40
0.1674316652
 40
0.2261358509
 40
0.2958292477
 40
0.3755665888
 40
0.4642706428
 40
0.5607819119
 40
0.7724644
 40
1.0
 40
1.0
 40
1.0
 40
1.0
 10
364.4356949647
 20
373.1134636195
 30
0.0
 10
364.4356888363
 20
373.1279343795
 30
0.0
 10
364.4362203735
 20
373.147640334
 30
0.0
 10
364.4406835065
 20
373.1707861151
 30
0.0
 10
364.4448270977
 20
373.1818119668
 30
0.0
 10
364.4509436726
 20
373.189168598
 30
0.0
 10
364.4598642747
 20
373.1903704117
 30
0.0
 10
364.4688716159
 20
373.1853702047
 30
0.0
 10
364.4839980639
 20
373.1707461152
 30
0.0
 10
364.5046762055
 20
373.1379607819
 30
0.0
 10
364.5317022844
 20
373.0830561973
 30
0.0
 10
364.5624114694
 20
373.0069615387
 30
0.0
 10
364.5957951698
 20
372.9104723542
 30
0.0
 10
364.6306651706
 20
372.7944062767
 30
0.0
 10
364.6657193969
 20
372.6602730034
 30
0.0
 10
364.6997345712
 20
372.5098177766
 30
0.0
 10
364.7435735318
 20
372.2829548872
 30
0.0
 10
364.78719453
 20
371.9739260457
 30
0.0
 10
364.8071643367
 20
371.7189318814
 30
0.0
 10
364.8153823859
 20
371.5867428342
 30
0.0
  0
SPLINE
  5
2FE
100
AcDbEntity
  8
0
100
AcDbSpline
 62
7
  6
CONTINUOUS
 70
0
 71
3
 72
11
 73
7
 74
0
 42
0.0000001
 43
0.0000001
 44
0.0000000001
 40
0.0
 40
0.0
 40
0.0
 40
0.0
 40
0.2505310848
 40
0.5008623494
 40
0.7507540873
 40
1.0
 40
1.0
 40
1.0
 40
1.0
 10
360.4167589053
 20
375.3135990737
 30
0.0
 10
360.9136215473
 20
375.0756493323
 30
0.0
 10
361.8538517571
 20
374.4801670975
 30
0.0
 10
363.0265748789
 20
373.3008272748
 30
0.0
 10
363.9271986778
 20
371.9075166542
 30
0.0
 10
364.3336635194
 20
370.8794482733
 30
0.0
 10
364.4863572521
 20
370.3530724874
 30
0.0
  0
SPLINE
  5
2FF
100
AcDbEntity
  8
0
100
AcDbSpline
 62
7
  6
CONTINUOUS
 70
0
 71
3
 72
9
 73
5
 74
0
 42
0.0000001
 43
0.0000001
 44
0.0000000001
 40
0.0
 40
0.0
 40
0.0
 40
0.0
 40
0.2537039032
 40
1.0
 40
1.0
 40
1.0
 40
1.0
 10
364.8251737713
 20
370.1584665043
 30
0.0
 10
364.8236144409
 20
370.1882838466
 30
0.0
 10
364.8167331025
 20
370.305771291
 30
0.0
 10
364.8068242696
 20
370.4230899182
 30
0.0
 10
364.7974293217
 20
370.510416633
 30
0.0
  0
SPLINE
  5
300
100
AcDbEntity
  8
0
100
AcDbSpline
 62
7
  6
CONTINUOUS
 70
0
 71
3
 72
21
 73
17
 74
0
 42
0.0000001
 43
0.0000001
 44
0.0000000001
 40
0.0
 40
0.0
 40
0.0
 40
0.0
 40
0.239048704
 40
0.3472557431
 40
0.4448231778
 40
0.5294643758
 40
0.5992807118
 40
0.6533053472
 40
0.6916578455
 40
0.7165187645
 40
0.7257883325
 40
0.7346563655
 40
0.7561384734
 40
0.7867480176
 40
0.8766478573
 40
1.0
 40
1.0
 40
1.0
 40
1.0
 10
364.7974293217
 20
370.510416633
 30
0.0
 10
364.7850626412
 20
370.6253658148
 30
0.0
 10
364.7621450803
 20
370.7919325779
 30
0.0
 10
364.7199823209
 20
371.0029509913
 30
0.0
 10
364.6861817248
 20
371.1393307683
 30
0.0
 10
364.6504153394
 20
371.2559589762
 30
0.0
 10
364.6142709175
 20
371.350118244
 30
0.0
 10
364.5790988313
 20
371.4206468497
 30
0.0
 10
364.5467654092
 20
371.4670432735
 30
0.0
 10
364.5184079461
 20
371.4904061298
 30
0.0
 10
364.4971805106
 20
371.4933690678
 30
0.0
 10
364.4784575024
 20
371.486884749
 30
0.0
 10
364.4597322212
 20
371.4619540854
 30
0.0
 10
364.4374496773
 20
371.3970947609
 30
0.0
 10
364.4248873776
 20
371.2785178311
 30
0.0
 10
364.4240454973
 20
371.1756304206
 30
0.0
 10
364.4251825701
 20
371.1159837536
 30
0.0
  0
SPLINE
  5
301
100
AcDbEntity
  8
0
100
AcDbSpline
 62
7
  6
CONTINUOUS
 70
0
 71
3
 72
9
 73
5
 74
0
 42
0.0000001
 43
0.0000001
 44
0.0000000001
 40
0.0
 40
0.0
 40
0.0
 40
0.0
 40
0.2244318102
 40
1.0
 40
1.0
 40
1.0
 40
1.0
 10
364.4251825701
 20
371.1159837536
 30
0.0
 10
364.4258296469
 20
371.0820404835
 30
0.0
 10
364.4310946861
 20
370.9308444876
 30
0.0
 10
364.4432893457
 20
370.7799812187
 30
0.0
 10
364.4541899404
 20
370.6631697795
 30
0.0
  0
SPLINE
  5
302
100
AcDbEntity
  8
0
100
AcDbSpline
 62
7
  6
CONTINUOUS
 70
0
 71
3
 72
8
 73
4
 74
0
 42
0.0000001
 43
0.0000001
 44
0.0000000001
 40
0.0
 40
0.0
 40
0.0
 40
0.0
 40
1.0
 40
1.0
 40
1.0
 40
1.0
 10
364.4863575639
 20
370.3530725705
 30
0.0
 10
364.4905847341
 20
370.3440464412
 30
0.0
 10
364.4934276828
 20
370.3342158692
 30
0.0
 10
364.4945289545
 20
370.3243099529
 30
0.0
  0
LINE
  5
303
100
AcDbEntity
  8
0
100
AcDbLine
 62
7
  6
CONTINUOUS
 10
364.4601973224
 20
373.6831878668
 11
364.461008781
 21
373.6804069188
  0
SPLINE
  5
304
100
AcDbEntity
  8
0
100
AcDbSpline
 62
7
  6
CONTINUOUS
 70
0
 71
3
 72
8
 73
4
 74
0
 42
0.0000001
 43
0.0000001
 44
0.0000000001
 40
0.0
 40
0.0
 40
0.0
 40
0.0
 40
1.0
 40
1.0
 40
1.0
 40
1.0
 10
364.8251742973
 20
370.1584563825
 30
0.0
 10
364.8249574093
 20
370.1558822975
 30
0.0
 10
364.8228869089
 20
370.1536366122
 30
0.0
 10
364.8208885601
 20
370.1519996772
 30
0.0
  0
SPLINE
  5
305
100
AcDbEntity
  8
0
100
AcDbSpline
 62
7
  6
CONTINUOUS
 70
0
 71
3
 72
8
 73
4
 74
0
 42
0.0000001
 43
0.0000001
 44
0.0000000001
 40
0.0
 40
0.0
 40
0.0
 40
0.0
 40
1.0
 40
1.0
 40
1.0
 40
1.0
 10
364.8208885601
 20
370.1519996772
 30
0.0
 10
364.8193718436
 20
370.1507572682
 30
0.0
 10
364.8177076952
 20
370.1496920086
 30
0.0
 10
364.8159996556
 20
370.1487294027
 30
0.0
  0
SPLINE
  5
306
100
AcDbEntity
  8
0
100
AcDbSpline
 62
7
  6
CONTINUOUS
 70
0
 71
3
 72
10
 73
6
 74
0
 42
0.0000001
 43
0.0000001
 44
0.0000000001
 40
0.0
 40
0.0
 40
0.0
 40
0.0
 40
0.5878841817
 40
0.8242999765
 40
1.0
 40
1.0
 40
1.0
 40
1.0
 10
364.8251758931
 20
371.5878500737
 30
0.0
 10
364.8091696266
 20
371.884722231
 30
0.0
 10
364.7612044993
 20
372.3007863204
 30
0.0
 10
364.6466560186
 20
372.7936124086
 30
0.0
 10
364.583899907
 20
372.9927903383
 30
0.0
 10
364.5515206285
 20
373.0755352443
 30
0.0
  0
SPLINE
  5
307
100
AcDbEntity
  8
0
100
AcDbSpline
 62
7
  6
CONTINUOUS
 70
0
 71
3
 72
18
 73
14
 74
0
 42
0.0000001
 43
0.0000001
 44
0.0000000001
 40
0.0
 40
0.0
 40
0.0
 40
0.0
 40
0.234951096
 40
0.4119100775
 40
0.5315707861
 40
0.5713635576
 40
0.5998617295
 40
0.6214621622
 40
0.6443683264
 40
0.6753852192
 40
0.7171887308
 40
0.8355279531
 40
1.0
 40
1.0
 40
1.0
 40
1.0
 10
364.5515206285
 20
373.0755352443
 30
0.0
 10
364.5416893182
 20
373.1006590543
 30
0.0
 10
364.5234751061
 20
373.1443905225
 30
0.0
 10
364.4960032007
 20
373.1988295165
 30
0.0
 10
364.4750136131
 20
373.2316730262
 30
0.0
 10
364.4596395506
 20
373.2468884254
 30
0.0
 10
364.4506276587
 20
373.2524056306
 30
0.0
 10
364.4415982099
 20
373.2524162772
 30
0.0
 10
364.4348629575
 20
373.2460863908
 30
0.0
 10
364.4304456118
 20
373.2359412429
 30
0.0
 10
364.4255599918
 20
373.2144515158
 30
0.0
 10
364.4239691628
 20
373.177023916
 30
0.0
 10
364.425321621
 20
373.1445918215
 30
0.0
 10
364.4265823202
 20
373.1257480025
 30
0.0
  0
SPLINE
  5
308
100
AcDbEntity
  8
0
100
AcDbSpline
 62
7
  6
CONTINUOUS
 70
0
 71
3
 72
9
 73
5
 74
0
 42
0.0000001
 43
0.0000001
 44
0.0000000001
 40
0.0
 40
0.0
 40
0.0
 40
0.0
 40
0.2308578948
 40
1.0
 40
1.0
 40
1.0
 40
1.0
 10
364.4265823202
 20
373.1257480025
 30
0.0
 10
364.4269500536
 20
373.1202514472
 30
0.0
 10
364.4287170535
 20
373.096453827
 30
0.0
 10
364.4310892993
 20
373.0727040374
 30
0.0
 10
364.4331231002
 20
373.0544634294
 30
0.0
  0
SPLINE
  5
309
100
AcDbEntity
  8
0
100
AcDbSpline
 62
7
  6
CONTINUOUS
 70
0
 71
3
 72
11
 73
7
 74
0
 42
0.0000001
 43
0.0000001
 44
0.0000000001
 40
0.0
 40
0.0
 40
0.0
 40
0.0
 40
0.2492453876
 40
0.4991374345
 40
0.7494687785
 40
1.0
 40
1.0
 40
1.0
 40
1.0
 10
364.4863480763
 20
336.3733984915
 30
0.0
 10
364.3336536924
 20
335.847028991
 30
0.0
 10
363.9271734156
 20
334.8189774744
 30
0.0
 10
363.0265566718
 20
333.4256808346
 30
0.0
 10
361.8538371025
 20
332.24635617
 30
0.0
 10
360.9136175947
 20
331.6508746303
 30
0.0
 10
360.4167589053
 20
331.4129268777
 30
0.0
  0
SPLINE
  5
30A
100
AcDbEntity
  8
0
100
AcDbSpline
 62
7
  6
CONTINUOUS
 70
0
 71
3
 72
8
 73
4
 74
0
 42
0.0000001
 43
0.0000001
 44
0.0000000001
 40
0.0
 40
0.0
 40
0.0
 40
0.0
 40
1.0
 40
1.0
 40
1.0
 40
1.0
 10
364.8251754542
 20
371.5878477825
 30
0.0
 10
364.8252029842
 20
371.5851517412
 30
0.0
 10
364.8231148888
 20
371.582639484
 30
0.0
 10
364.8210764544
 20
371.5808747795
 30
0.0
  0
SPLINE
  5
30B
100
AcDbEntity
  8
0
100
AcDbSpline
 62
7
  6
CONTINUOUS
 70
0
 71
3
 72
8
 73
4
 74
0
 42
0.0000001
 43
0.0000001
 44
0.0000000001
 40
0.0
 40
0.0
 40
0.0
 40
0.0
 40
1.0
 40
1.0
 40
1.0
 40
1.0
 10
364.8210764544
 20
371.5808747795
 30
0.0
 10
364.8195106413
 20
371.5795192306
 30
0.0
 10
364.8177683293
 20
371.5783652011
 30
0.0
 10
364.8159787991
 20
371.5773226729
 30
0.0
  0
SPLINE
  5
30C
100
AcDbEntity
  8
0
100
AcDbSpline
 62
7
  6
CONTINUOUS
 70
0
 71
3
 72
9
 73
5
 74
0
 42
0.0000001
 43
0.0000001
 44
0.0000000001
 40
0.0
 40
0.0
 40
0.0
 40
0.0
 40
0.2730028914
 40
1.0
 40
1.0
 40
1.0
 40
1.0
 10
364.468371819
 20
336.2011770629
 30
0.0
 10
364.4633870423
 20
336.1524243854
 30
0.0
 10
364.4456399849
 20
335.9738144433
 30
0.0
 10
364.4309163626
 20
335.7947478148
 30
0.0
 10
364.4265060445
 20
335.664318833
 30
0.0
  0
SPLINE
  5
30D
100
AcDbEntity
  8
0
100
AcDbSpline
 62
7
  6
CONTINUOUS
 70
0
 71
3
 72
23
 73
19
 74
0
 42
0.0000001
 43
0.0000001
 44
0.0000000001
 40
0.0
 40
0.0
 40
0.0
 40
0.0
 40
0.0573540803
 40
0.1071552348
 40
0.148346818
 40
0.180051279
 40
0.192272641
 40
0.2022883901
 40
0.2107070044
 40
0.2187601953
 40
0.2396974166
 40
0.273707074
 40
0.3231755478
 40
0.3883623984
 40
0.4679226773
 40
0.5596938275
 40
0.7696277521
 40
1.0
 40
1.0
 40
1.0
 40
1.0
 10
364.4247851907
 20
335.5898965801
 30
0.0
 10
364.4243990035
 20
335.5562233473
 30
0.0
 10
364.4247389689
 20
335.4932964323
 30
0.0
 10
364.4294412548
 20
335.4062419352
 30
0.0
 10
364.4387705937
 20
335.3347855499
 30
0.0
 10
364.4512338907
 20
335.286001702
 30
0.0
 10
364.4653130959
 20
335.2574698963
 30
0.0
 10
364.4765895602
 20
335.243200373
 30
0.0
 10
364.490099659
 20
335.2345776457
 30
0.0
 10
364.5129497752
 20
335.2329999911
 30
0.0
 10
364.5450694125
 20
335.2566695304
 30
0.0
 10
364.5797186587
 20
335.306683992
 30
0.0
 10
364.6185528334
 20
335.3854991395
 30
0.0
 10
364.6579794892
 20
335.4924959671
 30
0.0
 10
364.6967823335
 20
335.6259778602
 30
0.0
 10
364.7469669486
 20
335.8442172124
 30
0.0
 10
364.7949055196
 20
336.1533414773
 30
0.0
 10
364.8164556566
 20
336.4111401039
 30
0.0
 10
364.8239849946
 20
336.5461934448
 30
0.0
  0
LINE
  5
30E
100
AcDbEntity
  8
0
100
AcDbLine
 62
7
  6
CONTINUOUS
 10
364.8239849946
 20
336.5461934448
 11
364.8246513703
 21
336.5583324366
  0
LINE
  5
30F
100
AcDbEntity
  8
0
100
AcDbLine
 62
7
  6
CONTINUOUS
 10
364.8159671391
 20
336.5777811037
 11
364.8151573379
 21
336.5645806258
  0
SPLINE
  5
310
100
AcDbEntity
  8
0
100
AcDbSpline
 62
7
  6
CONTINUOUS
 70
0
 71
3
 72
22
 73
18
 74
0
 42
0.0000001
 43
0.0000001
 44
0.0000000001
 40
0.0
 40
0.0
 40
0.0
 40
0.0
 40
0.2292515717
 40
0.4400595479
 40
0.6135841721
 40
0.6802598723
 40
0.7313725748
 40
0.7667201686
 40
0.7791603438
 40
0.7888739577
 40
0.7969610356
 40
0.8050139541
 40
0.8257891706
 40
0.8559531658
 40
0.8956552556
 40
0.944028757
 40
1.0
 40
1.0
 40
1.0
 40
1.0
 10
364.8151573379
 20
336.5645806258
 30
0.0
 10
364.8071760443
 20
336.4356538928
 30
0.0
 10
364.7882079699
 20
336.1882842219
 30
0.0
 10
364.7379083359
 20
335.8459361404
 30
0.0
 10
364.6795323384
 20
335.5980509604
 30
0.0
 10
364.6252065501
 20
335.4428815947
 30
0.0
 10
364.588941105
 20
335.3645764301
 30
0.0
 10
364.5581496933
 20
335.3173404424
 30
0.0
 10
364.5338804793
 20
335.2955688123
 30
0.0
 10
364.5184357121
 20
335.2876694846
 30
0.0
 10
364.5033224062
 20
335.2867996171
 30
0.0
 10
364.4840106509
 20
335.2963545275
 30
0.0
 10
364.4661551924
 20
335.3263511794
 30
0.0
 10
364.4521392112
 20
335.3752178009
 30
0.0
 10
364.4422710063
 20
335.4414039737
 30
0.0
 10
364.4367008892
 20
335.5223583101
 30
0.0
 10
364.4356843943
 20
335.5811820759
 30
0.0
 10
364.4356853204
 20
335.6127194981
 30
0.0
  0
SPLINE
  5
311
100
AcDbEntity
  8
0
100
AcDbSpline
 62
7
  6
CONTINUOUS
 70
0
 71
3
 72
9
 73
5
 74
0
 42
0.0000001
 43
0.0000001
 44
0.0000000001
 40
0.0
 40
0.0
 40
0.0
 40
0.0
 40
0.3761004884
 40
1.0
 40
1.0
 40
1.0
 40
1.0
 10
364.8244095918
 20
336.5583511123
 30
0.0
 10
364.8245402367
 20
336.5604574086
 30
0.0
 10
364.8247402223
 20
336.5658679726
 30
0.0
 10
364.8239449251
 20
336.5723626536
 30
0.0
 10
364.8213138212
 20
336.5746719194
 30
0.0
  0
SPLINE
  5
312
100
AcDbEntity
  8
0
100
AcDbSpline
 62
7
  6
CONTINUOUS
 70
0
 71
3
 72
8
 73
4
 74
0
 42
0.0000001
 43
0.0000001
 44
0.0000000001
 40
0.0
 40
0.0
 40
0.0
 40
0.0
 40
1.0
 40
1.0
 40
1.0
 40
1.0
 10
364.8213138212
 20
336.5746719194
 30
0.0
 10
364.8197675188
 20
336.5760290772
 30
0.0
 10
364.8179899519
 20
336.5773415494
 30
0.0
 10
364.8159789397
 20
336.5777760125
 30
0.0
  0
SPLINE
  5
313
100
AcDbEntity
  8
0
100
AcDbSpline
 62
7
  6
CONTINUOUS
 70
0
 71
3
 72
9
 73
5
 74
0
 42
0.0000001
 43
0.0000001
 44
0.0000000001
 40
0.0
 40
0.0
 40
0.0
 40
0.0
 40
0.2489601895
 40
1.0
 40
1.0
 40
1.0
 40
1.0
 10
364.6089574434
 20
338.0217873458
 30
0.0
 10
364.6114732976
 20
338.0710251325
 30
0.0
 10
364.6208730408
 20
338.2688328319
 30
0.0
 10
364.6271134049
 20
338.4668023983
 30
0.0
 10
364.6293825854
 20
338.6155148081
 30
0.0
  0
SPLINE
  5
314
100
AcDbEntity
  8
0
100
AcDbSpline
 62
7
  6
CONTINUOUS
 70
0
 71
3
 72
12
 73
8
 74
0
 42
0.0000001
 43
0.0000001
 44
0.0000000001
 40
0.0
 40
0.0
 40
0.0
 40
0.0
 40
0.1086478918
 40
0.2252677119
 40
0.4725957747
 40
0.7313864175
 40
1.0
 40
1.0
 40
1.0
 40
1.0
 10
364.4880248136
 20
336.397860143
 30
0.0
 10
364.4927172345
 20
336.456656069
 30
0.0
 10
364.5069392446
 20
336.5781549527
 30
0.0
 10
364.5310753243
 20
336.8335746651
 30
0.0
 10
364.559670589
 20
337.1704698922
 30
0.0
 10
364.5845408098
 20
337.5903356138
 30
0.0
 10
364.6021127872
 20
337.8761228584
 30
0.0
 10
364.6089574434
 20
338.0217873458
 30
0.0
  0
SPLINE
  5
315
100
AcDbEntity
  8
0
100
AcDbSpline
 62
7
  6
CONTINUOUS
 70
0
 71
3
 72
12
 73
8
 74
0
 42
0.0000001
 43
0.0000001
 44
0.0000000001
 40
0.0
 40
0.0
 40
0.0
 40
0.0
 40
0.3161779405
 40
0.5984680389
 40
0.8280320037
 40
0.9204943424
 40
1.0
 40
1.0
 40
1.0
 40
1.0
 10
358.8356916929
 20
332.4634602332
 30
0.0
 10
359.0329047782
 20
332.4009958136
 30
0.0
 10
359.4045253305
 20
332.2739465807
 30
0.0
 10
359.8869822603
 20
332.0251510073
 30
0.0
 10
360.2061390099
 20
331.781916664
 30
0.0
 10
360.3646711746
 20
331.5708885084
 30
0.0
 10
360.4087595414
 20
331.4643358572
 30
0.0
 10
360.4167690894
 20
331.4129371859
 30
0.0
  0
SPLINE
  5
316
100
AcDbEntity
  8
0
100
AcDbSpline
 62
7
  6
CONTINUOUS
 70
0
 71
3
 72
13
 73
9
 74
0
 42
0.0000001
 43
0.0000001
 44
0.0000000001
 40
0.0
 40
0.0
 40
0.0
 40
0.0
 40
0.0668747752
 40
0.1557425196
 40
0.266147979
 40
0.3950621754
 40
0.6906954112
 40
1.0
 40
1.0
 40
1.0
 40
1.0
 10
364.6293826127
 20
338.6155148225
 30
0.0
 10
364.5563554485
 20
338.5768816234
 30
0.0
 10
364.3767137796
 20
338.5055269287
 30
0.0
 10
364.060000157
 20
338.4164897122
 30
0.0
 10
363.6623975848
 20
338.3355101995
 30
0.0
 10
363.0087118118
 20
338.2370703274
 30
0.0
 10
362.104675543
 20
338.1586030794
 30
0.0
 10
361.3573947698
 20
338.1352018943
 30
0.0
 10
360.9752897945
 20
338.1328427115
 30
0.0
  0
SPLINE
  5
317
100
AcDbEntity
  8
0
100
AcDbSpline
 62
7
  6
CONTINUOUS
 70
0
 71
3
 72
8
 73
4
 74
0
 42
0.0000001
 43
0.0000001
 44
0.0000000001
 40
0.0
 40
0.0
 40
0.0
 40
0.0
 40
1.0
 40
1.0
 40
1.0
 40
1.0
 10
364.4945267859
 20
336.4021956815
 30
0.0
 10
364.4934236411
 20
336.3922781496
 30
0.0
 10
364.4905783237
 20
336.3824361846
 30
0.0
 10
364.4863482204
 20
336.373398453
 30
0.0
  0
SPLINE
  5
318
100
AcDbEntity
  8
0
100
AcDbSpline
 62
7
  6
CONTINUOUS
 70
0
 71
3
 72
9
 73
5
 74
0
 42
0.0000001
 43
0.0000001
 44
0.0000000001
 40
0.0
 40
0.0
 40
0.0
 40
0.0
 40
0.2492552743
 40
1.0
 40
1.0
 40
1.0
 40
1.0
 10
360.4167520298
 20
331.4129531355
 30
0.0
 10
360.3580044265
 20
331.389840195
 30
0.0
 10
360.1181782361
 20
331.3079511045
 30
0.0
 10
359.8643626991
 20
331.2673172578
 30
0.0
 10
359.6743069879
 20
331.2614363908
 30
0.0
  0
SPLINE
  5
319
100
AcDbEntity
  8
0
100
AcDbSpline
 62
7
  6
CONTINUOUS
 70
0
 71
3
 72
9
 73
5
 74
0
 42
0.0000001
 43
0.0000001
 44
0.0000000001
 40
0.0
 40
0.0
 40
0.0
 40
0.0
 40
0.2392928619
 40
1.0
 40
1.0
 40
1.0
 40
1.0
 10
364.7394178118
 20
334.2997069006
 30
0.0
 10
364.7494958722
 20
334.3662298181
 30
0.0
 10
364.7884999517
 20
334.6446840071
 30
0.0
 10
364.814185463
 20
334.9250561928
 30
0.0
 10
364.8251749145
 20
335.1386617597
 30
0.0
  0
SPLINE
  5
31A
100
AcDbEntity
  8
0
100
AcDbSpline
 62
7
  6
CONTINUOUS
 70
0
 71
3
 72
22
 73
18
 74
0
 42
0.0000001
 43
0.0000001
 44
0.0000000001
 40
0.0
 40
0.0
 40
0.0
 40
0.0
 40
0.2291422151
 40
0.4400135628
 40
0.613700844
 40
0.6805834699
 40
0.7318373726
 40
0.7671777782
 40
0.7796177096
 40
0.7893496009
 40
0.7974442641
 40
0.8054451357
 40
0.8259989706
 40
0.8560556291
 40
0.8957741527
 40
0.9441421606
 40
1.0
 40
1.0
 40
1.0
 40
1.0
 10
364.8154282932
 20
370.1569158829
 30
0.0
 10
364.8069463681
 20
370.2861127111
 30
0.0
 10
364.7884509246
 20
370.5341668014
 30
0.0
 10
364.738612274
 20
370.8776595305
 30
0.0
 10
364.6800214768
 20
371.1264740987
 30
0.0
 10
364.6257575679
 20
371.2824522832
 30
0.0
 10
364.5894948423
 20
371.3612440002
 30
0.0
 10
364.558559881
 20
371.4086762242
 30
0.0
 10
364.534182765
 20
371.4304805522
 30
0.0
 10
364.5187040623
 20
371.4384150994
 30
0.0
 10
364.5035993127
 20
371.4394834542
 30
0.0
 10
364.484193501
 20
371.4303277171
 30
0.0
 10
364.4661425903
 20
371.4005013745
 30
0.0
 10
364.4521747613
 20
371.3516667241
 30
0.0
 10
364.4422872956
 20
371.2853450837
 30
0.0
 10
364.4367053036
 20
371.2042222475
 30
0.0
 10
364.4356821811
 20
371.1452999645
 30
0.0
 10
364.4356873498
 20
371.1137379451
 30
0.0
  0
SPLINE
  5
31B
100
AcDbEntity
  8
0
100
AcDbSpline
 62
7
  6
CONTINUOUS
 70
0
 71
3
 72
9
 73
5
 74
0
 42
0.0000001
 43
0.0000001
 44
0.0000000001
 40
0.0
 40
0.0
 40
0.0
 40
0.0
 40
0.2492553689
 40
1.0
 40
1.0
 40
1.0
 40
1.0
 10
360.416752031
 20
375.3135718202
 30
0.0
 10
360.3580044343
 20
375.3366849548
 30
0.0
 10
360.1181783362
 20
375.4185748197
 30
0.0
 10
359.8643627793
 20
375.4592095466
 30
0.0
 10
359.6743069882
 20
375.4650910534
 30
0.0
  0
SPLINE
  5
31C
100
AcDbEntity
  8
0
100
AcDbSpline
 62
7
  6
CONTINUOUS
 70
0
 71
3
 72
9
 73
5
 74
0
 42
0.0000001
 43
0.0000001
 44
0.0000000001
 40
0.0
 40
0.0
 40
0.0
 40
0.0
 40
0.2576679626
 40
1.0
 40
1.0
 40
1.0
 40
1.0
 10
364.5213685636
 20
369.993635118
 30
0.0
 10
364.5192397939
 20
370.0163342972
 30
0.0
 10
364.5108482939
 20
370.1044173516
 30
0.0
 10
364.5013756256
 20
370.1923926769
 30
0.0
 10
364.4949419714
 20
370.2577592849
 30
0.0
  0
SPLINE
  5
31D
100
AcDbEntity
  8
0
100
AcDbSpline
 62
7
  6
CONTINUOUS
 70
0
 71
3
 72
10
 73
6
 74
0
 42
0.0000001
 43
0.0000001
 44
0.0000000001
 40
0.0
 40
0.0
 40
0.0
 40
0.0
 40
0.5175273181
 40
0.7648819898
 40
1.0
 40
1.0
 40
1.0
 40
1.0
 10
364.6293825952
 20
368.111013824
 30
0.0
 10
364.6246186977
 20
368.4363276218
 30
0.0
 10
364.5983728951
 20
368.9167064008
 30
0.0
 10
364.560065679
 20
369.544130079
 30
0.0
 10
364.536640723
 20
369.8466169538
 30
0.0
 10
364.5213685636
 20
369.993635118
 30
0.0
  0
SPLINE
  5
31E
100
AcDbEntity
  8
0
100
AcDbSpline
 62
7
  6
CONTINUOUS
 70
0
 71
3
 72
13
 73
9
 74
0
 42
0.0000001
 43
0.0000001
 44
0.0000000001
 40
0.0
 40
0.0
 40
0.0
 40
0.0
 40
0.3093058709
 40
0.6049393357
 40
0.7338532627
 40
0.8442583064
 40
0.9331256013
 40
1.0
 40
1.0
 40
1.0
 40
1.0
 10
360.9752897945
 20
368.5936865524
 30
0.0
 10
361.3573963621
 20
368.591327292
 30
0.0
 10
362.104679016
 20
368.5679258416
 30
0.0
 10
363.0087168035
 20
368.489458039
 30
0.0
 10
363.6624019716
 20
368.3910178206
 30
0.0
 10
364.0600031167
 20
368.3100382854
 30
0.0
 10
364.3767152049
 20
368.2210012437
 30
0.0
 10
364.5563558692
 20
368.1496468035
 30
0.0
 10
364.6293826188
 20
368.1110138115
 30
0.0
  0
SPLINE
  5
31F
100
AcDbEntity
  8
0
100
AcDbSpline
 62
7
  6
CONTINUOUS
 70
0
 71
3
 72
12
 73
8
 74
0
 42
0.0000001
 43
0.0000001
 44
0.0000000001
 40
0.0
 40
0.0
 40
0.0
 40
0.0
 40
0.0795111387
 40
0.1720475652
 40
0.4015633424
 40
0.6838858417
 40
1.0
 40
1.0
 40
1.0
 40
1.0
 10
360.4167689868
 20
375.3135888163
 30
0.0
 10
360.4085382271
 20
375.2622188488
 30
0.0
 10
360.3653693996
 20
375.1552937068
 30
0.0
 10
360.2053620497
 20
374.9450674008
 30
0.0
 10
359.8872575106
 20
374.7011451633
 30
0.0
 10
359.4046761251
 20
374.451804837
 30
0.0
 10
359.0325290054
 20
374.3266255328
 30
0.0
 10
358.8356916973
 20
374.2630891206
 30
0.0
  0
SPLINE
  5
320
100
AcDbEntity
  8
0
100
AcDbSpline
 62
7
  6
CONTINUOUS
 70
0
 71
3
 72
9
 73
5
 74
0
 42
0.0000001
 43
0.0000001
 44
0.0000000001
 40
0.0
 40
0.0
 40
0.0
 40
0.0
 40
0.3795131338
 40
1.0
 40
1.0
 40
1.0
 40
1.0
 10
364.6293846192
 20
368.1110141167
 30
0.0
 10
364.6308617671
 20
368.1105804224
 30
0.0
 10
364.6343846232
 20
368.1093632766
 30
0.0
 10
364.6394085136
 20
368.1071400267
 30
0.0
 10
364.6395085171
 20
368.1046250028
 30
0.0
  0
SPLINE
  5
321
100
AcDbEntity
  8
0
100
AcDbSpline
 62
7
  6
CONTINUOUS
 70
0
 71
3
 72
9
 73
5
 74
0
 42
0.0000001
 43
0.0000001
 44
0.0000000001
 40
0.0
 40
0.0
 40
0.0
 40
0.0
 40
0.3794610186
 40
1.0
 40
1.0
 40
1.0
 40
1.0
 10
364.6293582212
 20
338.6155194629
 30
0.0
 10
364.6308369479
 20
338.6159530392
 30
0.0
 10
364.6343643219
 20
338.6171710797
 30
0.0
 10
364.6393948045
 20
338.6193888623
 30
0.0
 10
364.6394999012
 20
338.6219066612
 30
0.0
  0
SPLINE
  5
322
100
AcDbEntity
  8
0
100
AcDbSpline
 62
7
  6
CONTINUOUS
 70
0
 71
3
 72
9
 73
5
 74
0
 42
0.0000001
 43
0.0000001
 44
0.0000000001
 40
0.0
 40
0.0
 40
0.0
 40
0.0
 40
0.4995601818
 40
1.0
 40
1.0
 40
1.0
 40
1.0
 10
364.6487622023
 20
339.3813742699
 30
0.0
 10
364.7034638616
 20
341.6502027407
 30
0.0
 10
364.7819385174
 20
346.1926717661
 30
0.0
 10
364.7998446515
 20
350.7356984008
 30
0.0
 10
364.8007923776
 20
353.0091821723
 30
0.0
  0
LINE
  5
323
100
AcDbEntity
  8
0
100
AcDbLine
 62
7
  6
CONTINUOUS
 10
364.8007923776
 20
353.0091821723
 11
364.8007853244
 21
353.7326370033
  0
SPLINE
  5
324
100
AcDbEntity
  8
0
100
AcDbSpline
 62
7
  6
CONTINUOUS
 70
0
 71
3
 72
9
 73
5
 74
0
 42
0.0000001
 43
0.0000001
 44
0.0000000001
 40
0.0
 40
0.0
 40
0.0
 40
0.0
 40
0.5004365401
 40
1.0
 40
1.0
 40
1.0
 40
1.0
 10
364.8007853244
 20
353.7326370033
 30
0.0
 10
364.7998012455
 20
356.0014633197
 30
0.0
 10
364.7820413168
 20
360.5352165165
 30
0.0
 10
364.7032253559
 20
365.0683970155
 30
0.0
 10
364.6490019084
 20
367.3326160883
 30
0.0
  0
SPLINE
  5
325
100
AcDbEntity
  8
0
100
AcDbSpline
 62
7
  6
CONTINUOUS
 70
0
 71
3
 72
11
 73
7
 74
0
 42
0.0000001
 43
0.0000001
 44
0.0000000001
 40
0.0
 40
0.0
 40
0.0
 40
0.0
 40
0.2658729927
 40
0.5223468889
 40
0.7673103118
 40
1.0
 40
1.0
 40
1.0
 40
1.0
 10
360.9752910025
 20
368.5936997893
 30
0.0
 10
360.9752895377
 20
369.0509676342
 30
0.0
 10
360.8957057316
 20
369.9521963509
 30
0.0
 10
360.5065666232
 20
371.225090348
 30
0.0
 10
359.8382680546
 20
372.3150123052
 30
0.0
 10
359.1895072961
 20
372.854579813
 30
0.0
 10
358.8356905844
 20
373.0415856614
 30
0.0
  0
SPLINE
  5
326
100
AcDbEntity
  8
0
100
AcDbSpline
 62
7
  6
CONTINUOUS
 70
0
 71
3
 72
11
 73
7
 74
0
 42
0.0000001
 43
0.0000001
 44
0.0000000001
 40
0.0
 40
0.0
 40
0.0
 40
0.0
 40
0.2326896922
 40
0.4776531171
 40
0.7341270135
 40
1.0
 40
1.0
 40
1.0
 40
1.0
 10
358.8356905759
 20
333.6849449465
 30
0.0
 10
359.1895071941
 20
333.8719507434
 30
0.0
 10
359.8382677997
 20
334.4115180611
 30
0.0
 10
360.5065663139
 20
335.5014396329
 30
0.0
 10
360.8957055046
 20
336.7743331998
 30
0.0
 10
360.9752894505
 20
337.6755616335
 30
0.0
 10
360.9752910072
 20
338.1328293378
 30
0.0
  0
SPLINE
  5
327
100
AcDbEntity
  8
0
100
AcDbSpline
 62
7
  6
CONTINUOUS
 70
0
 71
3
 72
13
 73
9
 74
0
 42
0.0000001
 43
0.0000001
 44
0.0000000001
 40
0.0
 40
0.0
 40
0.0
 40
0.0
 40
0.3374077533
 40
0.6194138096
 40
0.7355800099
 40
0.8351071604
 40
0.9210547676
 40
1.0
 40
1.0
 40
1.0
 40
1.0
 10
358.8356913547
 20
375.0230965048
 30
0.0
 10
358.9489973773
 20
375.0367685112
 30
0.0
 10
359.1559478709
 20
375.0707701172
 30
0.0
 10
359.3950109966
 20
375.1481467516
 30
0.0
 10
359.5401063409
 20
375.2350391445
 30
0.0
 10
359.616190333
 20
375.3044861231
 30
0.0
 10
359.6635303393
 20
375.3821344875
 30
0.0
 10
359.6742738185
 20
375.4383798932
 30
0.0
 10
359.6742884284
 20
375.4650830513
 30
0.0
  0
SPLINE
  5
328
100
AcDbEntity
  8
0
100
AcDbSpline
 62
7
  6
CONTINUOUS
 70
0
 71
3
 72
9
 73
5
 74
0
 42
0.0000001
 43
0.0000001
 44
0.0000000001
 40
0.0
 40
0.0
 40
0.0
 40
0.0
 40
0.5823524056
 40
1.0
 40
1.0
 40
1.0
 40
1.0
 10
364.5036945413
 20
334.1209705812
 30
0.0
 10
364.4858891646
 20
334.0205228244
 30
0.0
 10
364.4560350186
 20
333.8479934956
 30
0.0
 10
364.4314103707
 20
333.6742809023
 30
0.0
 10
364.426490148
 20
333.6012850758
 30
0.0
  0
SPLINE
  5
329
100
AcDbEntity
  8
0
100
AcDbSpline
 62
7
  6
CONTINUOUS
 70
0
 71
3
 72
18
 73
14
 74
0
 42
0.0000001
 43
0.0000001
 44
0.0000000001
 40
0.0
 40
0.0
 40
0.0
 40
0.0
 40
0.165054935
 40
0.2839255285
 40
0.3259036021
 40
0.3570111272
 40
0.3799391546
 40
0.4016111663
 40
0.4302919151
 40
0.4703026004
 40
0.5899029103
 40
0.7659007275
 40
1.0
 40
1.0
 40
1.0
 40
1.0
 10
364.426490148
 20
333.6012850758
 30
0.0
 10
364.425214744
 20
333.5823633368
 30
0.0
 10
364.4238363169
 20
333.5497841337
 30
0.0
 10
364.4253844911
 20
333.5121843963
 30
0.0
 10
364.4302541491
 20
333.4905824459
 30
0.0
 10
364.4346658039
 20
333.4803925298
 30
0.0
 10
364.4414323679
 20
333.4740378807
 30
0.0
 10
364.450507974
 20
333.474122135
 30
0.0
 10
364.459537796
 20
333.4797130539
 30
0.0
 10
364.4749196391
 20
333.4949946461
 30
0.0
 10
364.4959190333
 20
333.5277378105
 30
0.0
 10
364.52339679
 20
333.5819825979
 30
0.0
 10
364.5415682634
 20
333.6255371249
 30
0.0
 10
364.5513814199
 20
333.6505809701
 30
0.0
  0
SPLINE
  5
32A
100
AcDbEntity
  8
0
100
AcDbSpline
 62
7
  6
CONTINUOUS
 70
0
 71
3
 72
9
 73
5
 74
0
 42
0.0000001
 43
0.0000001
 44
0.0000000001
 40
0.0
 40
0.0
 40
0.0
 40
0.0
 40
0.4159187972
 40
1.0
 40
1.0
 40
1.0
 40
1.0
 10
364.5513814199
 20
333.6505809701
 30
0.0
 10
364.6008064786
 20
333.7767170937
 30
0.0
 10
364.6903094368
 20
334.0910762418
 30
0.0
 10
364.7491136643
 20
334.4118532507
 30
0.0
 10
364.7746795124
 20
334.6003756268
 30
0.0
  0
SPLINE
  5
32B
100
AcDbEntity
  8
0
100
AcDbSpline
 62
7
  6
CONTINUOUS
 70
0
 71
3
 72
13
 73
9
 74
0
 42
0.0000001
 43
0.0000001
 44
0.0000000001
 40
0.0
 40
0.0
 40
0.0
 40
0.0
 40
0.0789452992
 40
0.1648925956
 40
0.264419347
 40
0.3805852617
 40
0.6625913886
 40
1.0
 40
1.0
 40
1.0
 40
1.0
 10
359.6742884779
 20
331.2614421454
 30
0.0
 10
359.6742745214
 20
331.2881454682
 30
0.0
 10
359.6635323615
 20
331.3443913832
 30
0.0
 10
359.6161935516
 20
331.4220408678
 30
0.0
 10
359.5401101088
 20
331.4914888251
 30
0.0
 10
359.395014697
 20
331.5783825055
 30
0.0
 10
359.1559501671
 20
331.6557601257
 30
0.0
 10
358.9489982789
 20
331.6897620173
 30
0.0
 10
358.8356913668
 20
331.7034341338
 30
0.0
  0
SPLINE
  5
32C
100
AcDbEntity
  8
0
100
AcDbSpline
 62
7
  6
CONTINUOUS
 70
0
 71
3
 72
9
 73
5
 74
0
 42
0.0000001
 43
0.0000001
 44
0.0000000001
 40
0.0
 40
0.0
 40
0.0
 40
0.0
 40
0.5320302047
 40
1.0
 40
1.0
 40
1.0
 40
1.0
 10
364.5779635756
 20
334.5378261804
 30
0.0
 10
364.5649274242
 20
334.4638752571
 30
0.0
 10
364.5386681916
 20
334.32519112
 30
0.0
 10
364.5151625096
 20
334.1860170025
 30
0.0
 10
364.5036945413
 20
334.1209705812
 30
0.0
  0
SPLINE
  5
32D
100
AcDbEntity
  8
0
100
AcDbSpline
 62
7
  6
CONTINUOUS
 70
0
 71
3
 72
10
 73
6
 74
0
 42
0.0000001
 43
0.0000001
 44
0.0000000001
 40
0.0
 40
0.0
 40
0.0
 40
0.0
 40
0.1796921437
 40
0.4129134492
 40
1.0
 40
1.0
 40
1.0
 40
1.0
 10
364.4331231002
 20
373.0544634294
 30
0.0
 10
364.4417451238
 20
372.9771348388
 30
0.0
 10
364.4690814636
 20
372.800341991
 30
0.0
 10
364.5446712394
 20
372.3740339628
 30
0.0
 10
364.6080152734
 20
372.0244750334
 30
0.0
 10
364.6484341585
 20
371.7734968356
 30
0.0
  0
SPLINE
  5
32E
100
AcDbEntity
  8
0
100
AcDbSpline
 62
7
  6
CONTINUOUS
 70
0
 71
3
 72
9
 73
5
 74
0
 42
0.0000001
 43
0.0000001
 44
0.0000000001
 40
0.0
 40
0.0
 40
0.0
 40
0.0
 40
0.2435692327
 40
1.0
 40
1.0
 40
1.0
 40
1.0
 10
364.74903969
 20
371.0618373284
 30
0.0
 10
364.7577447568
 20
370.9887409071
 30
0.0
 10
364.7912350953
 20
370.6883796163
 30
0.0
 10
364.8147213211
 20
370.3868404303
 30
0.0
 10
364.8251737713
 20
370.1584665043
 30
0.0
  0
SPLINE
  5
32F
100
AcDbEntity
  8
0
100
AcDbSpline
 62
7
  6
CONTINUOUS
 70
0
 71
3
 72
18
 73
14
 74
0
 42
0.0000001
 43
0.0000001
 44
0.0000000001
 40
0.0
 40
0.0
 40
0.0
 40
0.0
 40
0.1722215119
 40
0.3395916654
 40
0.4987195595
 40
0.6462287896
 40
0.7774239415
 40
0.834918119
 40
0.885690947
 40
0.9286209197
 40
0.9625654644
 40
0.9865193934
 40
1.0
 40
1.0
 40
1.0
 40
1.0
 10
333.125395102
 20
104.1632653061
 30
0.0
 10
333.125395102
 20
104.0336383947
 30
0.0
 10
333.1678398364
 20
103.7772191062
 30
0.0
 10
333.3147377774
 20
103.4300932919
 30
0.0
 10
333.4926281563
 20
103.1203492517
 30
0.0
 10
333.6745910535
 20
102.8454811326
 30
0.0
 10
333.8206881841
 20
102.6388412401
 30
0.0
 10
333.9254696505
 20
102.4922169668
 30
0.0
 10
333.9913532785
 20
102.3993637744
 30
0.0
 10
334.0457707236
 20
102.3203493884
 30
0.0
 10
334.0875660251
 20
102.2565471773
 30
0.0
 10
334.1133396131
 20
102.2102278747
 30
0.0
 10
334.125395102
 20
102.1834369541
 30
0.0
 10
334.125395102
 20
102.1732904319
 30
0.0
  0
SPLINE
  5
330
100
AcDbEntity
  8
0
100
AcDbSpline
 62
7
  6
CONTINUOUS
 70
0
 71
3
 72
11
 73
7
 74
0
 42
0.0000001
 43
0.0000001
 44
0.0000000001
 40
0.0
 40
0.0
 40
0.0
 40
0.0
 40
0.2180219403
 40
0.4550743036
 40
0.7178991619
 40
1.0
 40
1.0
 40
1.0
 40
1.0
 10
334.2083146902
 20
144.7023627532
 30
0.0
 10
334.226545886
 20
144.6997587541
 30
0.0
 10
334.2636293516
 20
144.684265373
 30
0.0
 10
334.3046729323
 20
144.6374772289
 30
0.0
 10
334.3287108802
 20
144.574779753
 30
0.0
 10
334.3320217963
 20
144.5281558167
 30
0.0
 10
334.3305484913
 20
144.504372464
 30
0.0
  0
SPLINE
  5
331
100
AcDbEntity
  8
0
100
AcDbSpline
 62
7
  6
CONTINUOUS
 70
0
 71
3
 72
9
 73
5
 74
0
 42
0.0000001
 43
0.0000001
 44
0.0000000001
 40
0.0
 40
0.0
 40
0.0
 40
0.0
 40
0.2354491186
 40
1.0
 40
1.0
 40
1.0
 40
1.0
 10
334.2595881961
 20
117.4057947172
 30
0.0
 10
334.272761521
 20
117.3868634199
 30
0.0
 10
334.3204188507
 20
117.3007331233
 30
0.0
 10
334.335189721
 20
117.1985865353
 30
0.0
 10
334.3305585438
 20
117.1238376318
 30
0.0
  0
SPLINE
  5
332
100
AcDbEntity
  8
0
100
AcDbSpline
 62
7
  6
CONTINUOUS
 70
0
 71
3
 72
9
 73
5
 74
0
 42
0.0000001
 43
0.0000001
 44
0.0000000001
 40
0.0
 40
0.0
 40
0.0
 40
0.0
 40
0.2400396214
 40
1.0
 40
1.0
 40
1.0
 40
1.0
 10
334.1253982095
 20
117.5105535632
 30
0.0
 10
334.1384564996
 20
117.5062161196
 30
0.0
 10
334.1912603777
 20
117.4832856532
 30
0.0
 10
334.2347060181
 20
117.4415527291
 30
0.0
 10
334.2595881961
 20
117.4057947172
 30
0.0
  0
SPLINE
  5
333
100
AcDbEntity
  8
0
100
AcDbSpline
 62
7
  6
CONTINUOUS
 70
0
 71
3
 72
11
 73
7
 74
0
 42
0.0000001
 43
0.0000001
 44
0.0000000001
 40
0.0
 40
0.0
 40
0.0
 40
0.0
 40
0.2787121698
 40
0.5410944586
 40
0.7806062683
 40
1.0
 40
1.0
 40
1.0
 40
1.0
 10
334.3305534623
 20
110.0026905213
 30
0.0
 10
334.333237529
 20
109.9593664174
 30
0.0
 10
334.3281749041
 20
109.8741762297
 30
0.0
 10
334.2888176456
 20
109.757457823
 30
0.0
 10
334.2209245654
 20
109.6652812018
 30
0.0
 10
334.1578221991
 20
109.6267484083
 30
0.0
 10
334.1253955599
 20
109.615977151
 30
0.0
  0
SPLINE
  5
334
100
AcDbEntity
  8
0
100
AcDbSpline
 62
7
  6
CONTINUOUS
 70
0
 71
3
 72
18
 73
14
 74
0
 42
0.0000001
 43
0.0000001
 44
0.0000000001
 40
0.0
 40
0.0
 40
0.0
 40
0.0
 40
0.0134806216
 40
0.037434649
 40
0.071379322
 40
0.1143093479
 40
0.165082051
 40
0.2225760166
 40
0.3537704638
 40
0.5012797155
 40
0.6604078133
 40
0.8277780945
 40
1.0
 40
1.0
 40
1.0
 40
1.0
 10
334.125395102
 20
152.1532401803
 30
0.0
 10
334.125395102
 20
152.1430936468
 30
0.0
 10
334.1133395674
 20
152.1163026485
 30
0.0
 10
334.0875658882
 20
152.0699831933
 30
0.0
 10
334.0457704499
 20
152.0061808175
 30
0.0
 10
333.9913529746
 20
151.9271664013
 30
0.0
 10
333.9254694628
 20
151.8343133884
 30
0.0
 10
333.8206884623
 20
151.6876897461
 30
0.0
 10
333.6745916813
 20
151.4810504292
 30
0.0
 10
333.4926291098
 20
151.2061825352
 30
0.0
 10
333.314738221
 20
150.8964384826
 30
0.0
 10
333.1678399923
 20
150.5493121876
 30
0.0
 10
333.125395102
 20
150.2928925136
 30
0.0
 10
333.125395102
 20
150.1632653061
 30
0.0
  0
SPLINE
  5
335
100
AcDbEntity
  8
0
100
AcDbSpline
 62
7
  6
CONTINUOUS
 70
0
 71
3
 72
11
 73
7
 74
0
 42
0.0000001
 43
0.0000001
 44
0.0000000001
 40
0.0
 40
0.0
 40
0.0
 40
0.0
 40
0.2821004439
 40
0.5449250486
 40
0.7819776884
 40
1.0
 40
1.0
 40
1.0
 40
1.0
 10
334.3305486115
 20
137.0221562055
 30
0.0
 10
334.3320217129
 20
136.9983733086
 30
0.0
 10
334.3287106294
 20
136.9517503187
 30
0.0
 10
334.3046731525
 20
136.8890540496
 30
0.0
 10
334.2636307138
 20
136.8422664807
 30
0.0
 10
334.226548254
 20
136.8267726539
 30
0.0
 10
334.2083174234
 20
136.8241682495
 30
0.0
  0
SPLINE
  5
336
100
AcDbEntity
  8
0
100
AcDbSpline
 62
7
  6
CONTINUOUS
 70
0
 71
3
 72
18
 73
14
 74
0
 42
0.0000001
 43
0.0000001
 44
0.0000000001
 40
0.0
 40
0.0
 40
0.0
 40
0.0
 40
0.1722215119
 40
0.3395916654
 40
0.4987195595
 40
0.6462287896
 40
0.7774239415
 40
0.834918119
 40
0.885690947
 40
0.9286209197
 40
0.9625654644
 40
0.9865193934
 40
1.0
 40
1.0
 40
1.0
 40
1.0
 10
333.125395102
 20
566.1632653061
 30
0.0
 10
333.125395102
 20
566.0336383947
 30
0.0
 10
333.1678398364
 20
565.7772191062
 30
0.0
 10
333.3147377774
 20
565.4300932919
 30
0.0
 10
333.4926281563
 20
565.1203492517
 30
0.0
 10
333.6745910535
 20
564.8454811326
 30
0.0
 10
333.8206881841
 20
564.6388412401
 30
0.0
 10
333.9254696505
 20
564.4922169668
 30
0.0
 10
333.9913532785
 20
564.3993637744
 30
0.0
 10
334.0457707236
 20
564.3203493884
 30
0.0
 10
334.0875660251
 20
564.2565471773
 30
0.0
 10
334.1133396131
 20
564.2102278747
 30
0.0
 10
334.125395102
 20
564.1834369541
 30
0.0
 10
334.125395102
 20
564.1732904319
 30
0.0
  0
SPLINE
  5
337
100
AcDbEntity
  8
0
100
AcDbSpline
 62
7
  6
CONTINUOUS
 70
0
 71
3
 72
11
 73
7
 74
0
 42
0.0000001
 43
0.0000001
 44
0.0000000001
 40
0.0
 40
0.0
 40
0.0
 40
0.0
 40
0.2180219403
 40
0.4550743036
 40
0.7178991619
 40
1.0
 40
1.0
 40
1.0
 40
1.0
 10
334.2083146902
 20
606.7023627532
 30
0.0
 10
334.226545886
 20
606.6997587541
 30
0.0
 10
334.2636293516
 20
606.684265373
 30
0.0
 10
334.3046729323
 20
606.6374772289
 30
0.0
 10
334.3287108802
 20
606.574779753
 30
0.0
 10
334.3320217963
 20
606.5281558167
 30
0.0
 10
334.3305484913
 20
606.504372464
 30
0.0
  0
SPLINE
  5
338
100
AcDbEntity
  8
0
100
AcDbSpline
 62
7
  6
CONTINUOUS
 70
0
 71
3
 72
9
 73
5
 74
0
 42
0.0000001
 43
0.0000001
 44
0.0000000001
 40
0.0
 40
0.0
 40
0.0
 40
0.0
 40
0.2354491186
 40
1.0
 40
1.0
 40
1.0
 40
1.0
 10
334.2595881961
 20
579.4057947172
 30
0.0
 10
334.272761521
 20
579.3868634199
 30
0.0
 10
334.3204188507
 20
579.3007331233
 30
0.0
 10
334.335189721
 20
579.1985865354
 30
0.0
 10
334.3305585438
 20
579.1238376318
 30
0.0
  0
SPLINE
  5
339
100
AcDbEntity
  8
0
100
AcDbSpline
 62
7
  6
CONTINUOUS
 70
0
 71
3
 72
9
 73
5
 74
0
 42
0.0000001
 43
0.0000001
 44
0.0000000001
 40
0.0
 40
0.0
 40
0.0
 40
0.0
 40
0.2400396214
 40
1.0
 40
1.0
 40
1.0
 40
1.0
 10
334.1253982095
 20
579.5105535632
 30
0.0
 10
334.1384564996
 20
579.5062161196
 30
0.0
 10
334.1912603777
 20
579.4832856532
 30
0.0
 10
334.2347060181
 20
579.4415527291
 30
0.0
 10
334.2595881961
 20
579.4057947172
 30
0.0
  0
SPLINE
  5
33A
100
AcDbEntity
  8
0
100
AcDbSpline
 62
7
  6
CONTINUOUS
 70
0
 71
3
 72
11
 73
7
 74
0
 42
0.0000001
 43
0.0000001
 44
0.0000000001
 40
0.0
 40
0.0
 40
0.0
 40
0.0
 40
0.2787121698
 40
0.5410944586
 40
0.7806062683
 40
1.0
 40
1.0
 40
1.0
 40
1.0
 10
334.3305534623
 20
572.0026905213
 30
0.0
 10
334.333237529
 20
571.9593664174
 30
0.0
 10
334.3281749041
 20
571.8741762297
 30
0.0
 10
334.2888176456
 20
571.757457823
 30
0.0
 10
334.2209245654
 20
571.6652812018
 30
0.0
 10
334.1578221991
 20
571.6267484083
 30
0.0
 10
334.1253955599
 20
571.615977151
 30
0.0
  0
SPLINE
  5
33B
100
AcDbEntity
  8
0
100
AcDbSpline
 62
7
  6
CONTINUOUS
 70
0
 71
3
 72
18
 73
14
 74
0
 42
0.0000001
 43
0.0000001
 44
0.0000000001
 40
0.0
 40
0.0
 40
0.0
 40
0.0
 40
0.0134806216
 40
0.037434649
 40
0.071379322
 40
0.1143093479
 40
0.165082051
 40
0.2225760166
 40
0.3537704638
 40
0.5012797155
 40
0.6604078133
 40
0.8277780945
 40
1.0
 40
1.0
 40
1.0
 40
1.0
 10
334.125395102
 20
614.1532401803
 30
0.0
 10
334.125395102
 20
614.1430936468
 30
0.0
 10
334.1133395674
 20
614.1163026485
 30
0.0
 10
334.0875658882
 20
614.0699831933
 30
0.0
 10
334.0457704499
 20
614.0061808175
 30
0.0
 10
333.9913529746
 20
613.9271664013
 30
0.0
 10
333.9254694628
 20
613.8343133884
 30
0.0
 10
333.8206884623
 20
613.6876897461
 30
0.0
 10
333.6745916813
 20
613.4810504292
 30
0.0
 10
333.4926291098
 20
613.2061825352
 30
0.0
 10
333.314738221
 20
612.8964384826
 30
0.0
 10
333.1678399923
 20
612.5493121876
 30
0.0
 10
333.125395102
 20
612.2928925136
 30
0.0
 10
333.125395102
 20
612.1632653061
 30
0.0
  0
SPLINE
  5
33C
100
AcDbEntity
  8
0
100
AcDbSpline
 62
7
  6
CONTINUOUS
 70
0
 71
3
 72
11
 73
7
 74
0
 42
0.0000001
 43
0.0000001
 44
0.0000000001
 40
0.0
 40
0.0
 40
0.0
 40
0.0
 40
0.2821004439
 40
0.5449250486
 40
0.7819776884
 40
1.0
 40
1.0
 40
1.0
 40
1.0
 10
334.3305486115
 20
599.0221562055
 30
0.0
 10
334.3320217129
 20
598.9983733086
 30
0.0
 10
334.3287106294
 20
598.9517503187
 30
0.0
 10
334.3046731525
 20
598.8890540496
 30
0.0
 10
334.2636307138
 20
598.8422664807
 30
0.0
 10
334.226548254
 20
598.8267726539
 30
0.0
 10
334.2083174234
 20
598.8241682495
 30
0.0
  0
SPLINE
  5
33D
100
AcDbEntity
  8
0
100
AcDbSpline
 62
7
  6
CONTINUOUS
 70
0
 71
3
 72
9
 73
5
 74
0
 42
0.0000001
 43
0.0000001
 44
0.0000000001
 40
0.0
 40
0.0
 40
0.0
 40
0.0
 40
0.2129283986
 40
1.0
 40
1.0
 40
1.0
 40
1.0
 10
338.8356957098
 20
654.0717384886
 30
0.0
 10
338.8357192849
 20
654.0972691505
 30
0.0
 10
338.8559932389
 20
654.2177114923
 30
0.0
 10
338.9449437976
 20
654.3130149605
 30
0.0
 10
339.0165132337
 20
654.3745282127
 30
0.0
  0
SPLINE
  5
33E
100
AcDbEntity
  8
0
100
AcDbSpline
 62
7
  6
CONTINUOUS
 70
0
 71
3
 72
9
 73
5
 74
0
 42
0.0000001
 43
0.0000001
 44
0.0000000001
 40
0.0
 40
0.0
 40
0.0
 40
0.0
 40
0.2155205143
 40
1.0
 40
1.0
 40
1.0
 40
1.0
 10
339.0165132337
 20
654.3745282127
 30
0.0
 10
339.0455616244
 20
654.3994950292
 30
0.0
 10
339.1868269214
 20
654.5077818216
 30
0.0
 10
339.3434537421
 20
654.5939249501
 30
0.0
 10
339.4676911279
 20
654.6571980269
 30
0.0
  0
SPLINE
  5
33F
100
AcDbEntity
  8
0
100
AcDbSpline
 62
7
  6
CONTINUOUS
 70
0
 71
3
 72
8
 73
4
 74
0
 42
0.0000001
 43
0.0000001
 44
0.0000000001
 40
0.0
 40
0.0
 40
0.0
 40
0.0
 40
1.0
 40
1.0
 40
1.0
 40
1.0
 10
339.6216933634
 20
654.732756161
 30
0.0
 10
339.7623922451
 20
654.799560271
 30
0.0
 10
339.9049597069
 20
654.8623911207
 30
0.0
 10
340.0476582892
 20
654.9248096998
 30
0.0
  0
LINE
  5
340
100
AcDbEntity
  8
0
100
AcDbLine
 62
7
  6
CONTINUOUS
 10
340.0476582892
 20
654.9248096998
 11
340.1356917134
 21
654.9632653061
  0
SPLINE
  5
341
100
AcDbEntity
  8
0
100
AcDbSpline
 62
7
  6
CONTINUOUS
 70
0
 71
3
 72
9
 73
5
 74
0
 42
0.0000001
 43
0.0000001
 44
0.0000000001
 40
0.0
 40
0.0
 40
0.0
 40
0.0
 40
0.213683426
 40
1.0
 40
1.0
 40
1.0
 40
1.0
 10
338.8356962504
 20
62.2547802462
 30
0.0
 10
338.8357203828
 20
62.2295648956
 30
0.0
 10
338.8553346329
 20
62.1110330101
 30
0.0
 10
338.9420153309
 20
62.0165992165
 30
0.0
 10
339.0120515206
 20
61.9557342465
 30
0.0
  0
SPLINE
  5
342
100
AcDbEntity
  8
0
100
AcDbSpline
 62
7
  6
CONTINUOUS
 70
0
 71
3
 72
9
 73
5
 74
0
 42
0.0000001
 43
0.0000001
 44
0.0000000001
 40
0.0
 40
0.0
 40
0.0
 40
0.0
 40
0.2149506645
 40
1.0
 40
1.0
 40
1.0
 40
1.0
 10
339.0120515206
 20
61.9557342465
 30
0.0
 10
339.0410724333
 20
61.9305136144
 30
0.0
 10
339.1828465092
 20
61.8209798896
 30
0.0
 10
339.3405062204
 20
61.7342352652
 30
0.0
 10
339.4656166818
 20
61.6704699474
 30
0.0
  0
SPLINE
  5
343
100
AcDbEntity
  8
0
100
AcDbSpline
 62
7
  6
CONTINUOUS
 70
0
 71
3
 72
8
 73
4
 74
0
 42
0.0000001
 43
0.0000001
 44
0.0000000001
 40
0.0
 40
0.0
 40
0.0
 40
0.0
 40
1.0
 40
1.0
 40
1.0
 40
1.0
 10
339.6204147874
 20
61.594468764
 30
0.0
 10
339.7614744263
 20
61.5274480797
 30
0.0
 10
339.9044059127
 20
61.4644039424
 30
0.0
 10
340.0474819795
 20
61.4018033598
 30
0.0
  0
LINE
  5
344
100
AcDbEntity
  8
0
100
AcDbLine
 62
7
  6
CONTINUOUS
 10
340.0474819795
 20
61.4018033598
 11
340.1356917134
 21
61.3632653061
  0
SPLINE
  5
345
100
AcDbEntity
  8
0
100
AcDbSpline
 62
7
  6
CONTINUOUS
 70
0
 71
3
 72
8
 73
4
 74
0
 42
0.0000001
 43
0.0000001
 44
0.0000000001
 40
0.0
 40
0.0
 40
0.0
 40
0.0
 40
1.0
 40
1.0
 40
1.0
 40
1.0
 10
358.2569782551
 20
61.9596765931
 30
0.0
 10
358.3745529343
 20
62.1068627541
 30
0.0
 10
358.4829805418
 20
62.2625970893
 30
0.0
 10
358.5739836653
 20
62.4275395117
 30
0.0
  0
SPLINE
  5
346
100
AcDbEntity
  8
0
100
AcDbSpline
 62
7
  6
CONTINUOUS
 70
0
 71
3
 72
8
 73
4
 74
0
 42
0.0000001
 43
0.0000001
 44
0.0000000001
 40
0.0
 40
0.0
 40
0.0
 40
0.0
 40
1.0
 40
1.0
 40
1.0
 40
1.0
 10
358.5739836653
 20
62.4275395117
 30
0.0
 10
358.6556407181
 20
62.5755422566
 30
0.0
 10
358.7237784323
 20
62.7326917045
 30
0.0
 10
358.7695814937
 20
62.8954023875
 30
0.0
  0
SPLINE
  5
347
100
AcDbEntity
  8
0
100
AcDbSpline
 62
7
  6
CONTINUOUS
 70
0
 71
3
 72
8
 73
4
 74
0
 42
0.0000001
 43
0.0000001
 44
0.0000000001
 40
0.0
 40
0.0
 40
0.0
 40
0.0
 40
1.0
 40
1.0
 40
1.0
 40
1.0
 10
358.7695814937
 20
62.8954023875
 30
0.0
 10
358.8122600059
 20
63.0470134297
 30
0.0
 10
358.8356917134
 20
63.2057617712
 30
0.0
 10
358.8356917134
 20
63.3632653061
 30
0.0
  0
SPLINE
  5
348
100
AcDbEntity
  8
0
100
AcDbSpline
 62
7
  6
CONTINUOUS
 70
0
 71
3
 72
9
 73
5
 74
0
 42
0.0000001
 43
0.0000001
 44
0.0000000001
 40
0.0
 40
0.0
 40
0.0
 40
0.0
 40
0.2397407024
 40
1.0
 40
1.0
 40
1.0
 40
1.0
 10
358.8356917134
 20
652.9632653061
 30
0.0
 10
358.8356917134
 20
653.0414115513
 30
0.0
 10
358.8125737948
 20
653.3675466887
 30
0.0
 10
358.693698024
 20
653.6820097978
 30
0.0
 10
358.5739836653
 20
653.8989911005
 30
0.0
  0
SPLINE
  5
349
100
AcDbEntity
  8
0
100
AcDbSpline
 62
7
  6
CONTINUOUS
 70
0
 71
3
 72
8
 73
4
 74
0
 42
0.0000001
 43
0.0000001
 44
0.0000000001
 40
0.0
 40
0.0
 40
0.0
 40
0.0
 40
1.0
 40
1.0
 40
1.0
 40
1.0
 10
358.5739836653
 20
653.8989911005
 30
0.0
 10
358.4829805418
 20
654.0639335229
 30
0.0
 10
358.3745529343
 20
654.2196678581
 30
0.0
 10
358.2569782551
 20
654.3668540191
 30
0.0
  0
SPLINE
  5
34A
100
AcDbEntity
  8
0
100
AcDbSpline
 62
7
  6
CONTINUOUS
 70
0
 71
3
 72
9
 73
5
 74
0
 42
0.0000001
 43
0.0000001
 44
0.0000000001
 40
0.0
 40
0.0
 40
0.0
 40
0.0
 40
0.2250737415
 40
1.0
 40
1.0
 40
1.0
 40
1.0
 10
332.625395102
 20
75.7370712979
 30
0.0
 10
332.625395102
 20
75.8687322813
 30
0.0
 10
332.7019507072
 20
76.4558721098
 30
0.0
 10
333.0562101062
 20
76.9646407386
 30
0.0
 10
333.3529421087
 20
77.3073323771
 30
0.0
  0
SPLINE
  5
34B
100
AcDbEntity
  8
0
100
AcDbSpline
 62
7
  6
CONTINUOUS
 70
0
 71
3
 72
9
 73
5
 74
0
 42
0.0000001
 43
0.0000001
 44
0.0000000001
 40
0.0
 40
0.0
 40
0.0
 40
0.0
 40
0.2370207333
 40
1.0
 40
1.0
 40
1.0
 40
1.0
 10
333.3529421087
 20
77.3073323771
 30
0.0
 10
333.4283628158
 20
77.3944346966
 30
0.0
 10
333.7577507531
 20
77.7522856451
 30
0.0
 10
334.1168886324
 20
78.0810067814
 30
0.0
 10
334.3929717621
 20
78.328671028
 30
0.0
  0
SPLINE
  5
34C
100
AcDbEntity
  8
0
100
AcDbSpline
 62
7
  6
CONTINUOUS
 70
0
 71
3
 72
9
 73
5
 74
0
 42
0.0000001
 43
0.0000001
 44
0.0000000001
 40
0.0
 40
0.0
 40
0.0
 40
0.0
 40
0.2563517395
 40
1.0
 40
1.0
 40
1.0
 40
1.0
 10
329.425395102
 20
59.3632653061
 30
0.0
 10
329.5469237443
 20
59.4116200165
 30
0.0
 10
330.0209379245
 20
59.600321157
 30
0.0
 10
330.4937218429
 20
59.7926191896
 30
0.0
 10
330.8405273091
 20
59.9465264849
 30
0.0
  0
SPLINE
  5
34D
100
AcDbEntity
  8
0
100
AcDbSpline
 62
7
  6
CONTINUOUS
 70
0
 71
3
 72
9
 73
5
 74
0
 42
0.0000001
 43
0.0000001
 44
0.0000000001
 40
0.0
 40
0.0
 40
0.0
 40
0.0
 40
0.2930859825
 40
1.0
 40
1.0
 40
1.0
 40
1.0
 10
330.8405273091
 20
59.9465264849
 30
0.0
 10
330.9878345902
 20
60.0118993449
 30
0.0
 10
331.4851040324
 20
60.2430294684
 30
0.0
 10
331.9799594048
 20
60.5046120993
 30
0.0
 10
332.2729623204
 20
60.760052536
 30
0.0
  0
SPLINE
  5
34E
100
AcDbEntity
  8
0
100
AcDbSpline
 62
7
  6
CONTINUOUS
 70
0
 71
3
 72
9
 73
5
 74
0
 42
0.0000001
 43
0.0000001
 44
0.0000000001
 40
0.0
 40
0.0
 40
0.0
 40
0.0
 40
0.3027301435
 40
1.0
 40
1.0
 40
1.0
 40
1.0
 10
332.2729623204
 20
60.760052536
 30
0.0
 10
332.3268972153
 20
60.8070730685
 30
0.0
 10
332.4957957801
 20
60.9683533844
 30
0.0
 10
332.625395102
 20
61.1984581346
 30
0.0
 10
332.625395102
 20
61.3632653061
 30
0.0
  0
SPLINE
  5
34F
100
AcDbEntity
  8
0
100
AcDbSpline
 62
7
  6
CONTINUOUS
 70
0
 71
3
 72
9
 73
5
 74
0
 42
0.0000001
 43
0.0000001
 44
0.0000000001
 40
0.0
 40
0.0
 40
0.0
 40
0.0
 40
0.2133920402
 40
1.0
 40
1.0
 40
1.0
 40
1.0
 10
332.625395102
 20
654.9632653061
 30
0.0
 10
332.625395102
 20
655.0139309621
 30
0.0
 10
332.5869494796
 20
655.2524639666
 30
0.0
 10
332.4137485694
 20
655.4437388027
 30
0.0
 10
332.2729718667
 20
655.5664694509
 30
0.0
  0
SPLINE
  5
350
100
AcDbEntity
  8
0
100
AcDbSpline
 62
7
  6
CONTINUOUS
 70
0
 71
3
 72
9
 73
5
 74
0
 42
0.0000001
 43
0.0000001
 44
0.0000000001
 40
0.0
 40
0.0
 40
0.0
 40
0.0
 40
0.2227668922
 40
1.0
 40
1.0
 40
1.0
 40
1.0
 10
332.2729718667
 20
655.5664694509
 30
0.0
 10
332.2333931055
 20
655.600974642
 30
0.0
 10
332.0495840034
 20
655.7488375038
 30
0.0
 10
331.8480988938
 20
655.8732494355
 30
0.0
 10
331.6884419864
 20
655.9630935792
 30
0.0
  0
SPLINE
  5
351
100
AcDbEntity
  8
0
100
AcDbSpline
 62
7
  6
CONTINUOUS
 70
0
 71
3
 72
9
 73
5
 74
0
 42
0.0000001
 43
0.0000001
 44
0.0000000001
 40
0.0
 40
0.0
 40
0.0
 40
0.0
 40
0.2316315396
 40
1.0
 40
1.0
 40
1.0
 40
1.0
 10
331.6884419864
 20
655.9630935792
 30
0.0
 10
331.6248651302
 20
655.9988703476
 30
0.0
 10
331.3475690485
 20
656.1483187856
 30
0.0
 10
331.0619369695
 20
656.2817421198
 30
0.0
 10
330.8407451178
 20
656.3799075558
 30
0.0
  0
SPLINE
  5
352
100
AcDbEntity
  8
0
100
AcDbSpline
 62
7
  6
CONTINUOUS
 70
0
 71
3
 72
9
 73
5
 74
0
 42
0.0000001
 43
0.0000001
 44
0.0000000001
 40
0.0
 40
0.0
 40
0.0
 40
0.0
 40
0.2403144764
 40
1.0
 40
1.0
 40
1.0
 40
1.0
 10
330.8407451178
 20
656.3799075558
 30
0.0
 10
330.7286533675
 20
656.4296541241
 30
0.0
 10
330.2599737293
 20
656.6316224797
 30
0.0
 10
329.7856038403
 20
656.819942803
 30
0.0
 10
329.425395102
 20
656.9632653061
 30
0.0
  0
SPLINE
  5
353
100
AcDbEntity
  8
0
100
AcDbSpline
 62
7
  6
CONTINUOUS
 70
0
 71
3
 72
9
 73
5
 74
0
 42
0.0000001
 43
0.0000001
 44
0.0000000001
 40
0.0
 40
0.0
 40
0.0
 40
0.0
 40
0.2608064183
 40
1.0
 40
1.0
 40
1.0
 40
1.0
 10
334.3930044512
 20
637.9978302607
 30
0.0
 10
334.2987043567
 20
638.0824233377
 30
0.0
 10
333.9387738456
 20
638.4083234145
 30
0.0
 10
333.5886095837
 20
638.747115209
 30
0.0
 10
333.3535341064
 20
639.0185147358
 30
0.0
  0
SPLINE
  5
354
100
AcDbEntity
  8
0
100
AcDbSpline
 62
7
  6
CONTINUOUS
 70
0
 71
3
 72
9
 73
5
 74
0
 42
0.0000001
 43
0.0000001
 44
0.0000000001
 40
0.0
 40
0.0
 40
0.0
 40
0.0
 40
0.2846498464
 40
1.0
 40
1.0
 40
1.0
 40
1.0
 10
333.3535341064
 20
639.0185147358
 30
0.0
 10
333.2448482678
 20
639.1439947965
 30
0.0
 10
332.8824634398
 20
639.5952282459
 30
0.0
 10
332.625395102
 20
640.1722726251
 30
0.0
 10
332.625395102
 20
640.5894593143
 30
0.0
  0
SPLINE
  5
355
100
AcDbEntity
  8
0
100
AcDbSpline
 62
7
  6
CONTINUOUS
 70
0
 71
3
 72
8
 73
4
 74
0
 42
0.0000001
 43
0.0000001
 44
0.0000000001
 40
0.0
 40
0.0
 40
0.0
 40
0.0
 40
1.0
 40
1.0
 40
1.0
 40
1.0
 10
158.025395102
 20
656.9632653061
 30
0.0
 10
157.780534528
 20
656.8853237647
 30
0.0
 10
157.5356280213
 20
656.8074662901
 30
0.0
 10
157.2919172049
 20
656.7260008216
 30
0.0
  0
SPLINE
  5
356
100
AcDbEntity
  8
0
100
AcDbSpline
 62
7
  6
CONTINUOUS
 70
0
 71
3
 72
9
 73
5
 74
0
 42
0.0000001
 43
0.0000001
 44
0.0000000001
 40
0.0
 40
0.0
 40
0.0
 40
0.0
 40
0.2734095898
 40
1.0
 40
1.0
 40
1.0
 40
1.0
 10
157.2919172049
 20
656.7260008216
 30
0.0
 10
157.2014840224
 20
656.6957716275
 30
0.0
 10
156.8715162316
 20
656.5831194093
 30
0.0
 10
156.5440228126
 20
656.4612627584
 30
0.0
 10
156.3133080451
 20
656.3564690699
 30
0.0
  0
SPLINE
  5
357
100
AcDbEntity
  8
0
100
AcDbSpline
 62
7
  6
CONTINUOUS
 70
0
 71
3
 72
9
 73
5
 74
0
 42
0.0000001
 43
0.0000001
 44
0.0000000001
 40
0.0
 40
0.0
 40
0.0
 40
0.0
 40
0.6299447366
 40
1.0
 40
1.0
 40
1.0
 40
1.0
 10
156.3133080451
 20
656.3564690699
 30
0.0
 10
156.1344374114
 20
656.2752236704
 30
0.0
 10
155.8589985044
 20
656.1508037449
 30
0.0
 10
155.625395102
 20
655.8786724184
 30
0.0
 10
155.625395102
 20
655.7632653061
 30
0.0
  0
SPLINE
  5
358
100
AcDbEntity
  8
0
100
AcDbSpline
 62
7
  6
CONTINUOUS
 70
0
 71
3
 72
9
 73
5
 74
0
 42
0.0000001
 43
0.0000001
 44
0.0000000001
 40
0.0
 40
0.0
 40
0.0
 40
0.0
 40
0.3579456401
 40
1.0
 40
1.0
 40
1.0
 40
1.0
 10
155.625395102
 20
60.5632653061
 30
0.0
 10
155.625395102
 20
60.4244985701
 30
0.0
 10
155.9540207082
 20
60.1075879502
 30
0.0
 10
156.2955268452
 20
59.9727315612
 30
0.0
 10
156.5260294714
 20
59.8787949566
 30
0.0
  0
SPLINE
  5
359
100
AcDbEntity
  8
0
100
AcDbSpline
 62
7
  6
CONTINUOUS
 70
0
 71
3
 72
9
 73
5
 74
0
 42
0.0000001
 43
0.0000001
 44
0.0000000001
 40
0.0
 40
0.0
 40
0.0
 40
0.0
 40
0.2327042816
 40
1.0
 40
1.0
 40
1.0
 40
1.0
 10
156.5260294714
 20
59.8787949566
 30
0.0
 10
156.5845563992
 20
59.8549435109
 30
0.0
 10
156.8374060488
 20
59.7557334229
 30
0.0
 10
157.0941001409
 20
59.6666559604
 30
0.0
 10
157.2917407685
 20
59.6005888073
 30
0.0
  0
SPLINE
  5
35A
100
AcDbEntity
  8
0
100
AcDbSpline
 62
7
  6
CONTINUOUS
 70
0
 71
3
 72
8
 73
4
 74
0
 42
0.0000001
 43
0.0000001
 44
0.0000000001
 40
0.0
 40
0.0
 40
0.0
 40
0.0
 40
1.0
 40
1.0
 40
1.0
 40
1.0
 10
157.2917407685
 20
59.6005888073
 30
0.0
 10
157.5355097992
 20
59.5191018881
 30
0.0
 10
157.7804754374
 20
59.4412256567
 30
0.0
 10
158.025395102
 20
59.3632653061
 30
0.0
  0
ENDSEC
  0
SECTION
  2
OBJECTS
  0
DICTIONARY
  5
C
100
AcDbDictionary
280
0
281
1
  3
ACAD_GROUP
350
D
  3
ACAD_MLINESTYLE
350
17
  3
ACAD_LAYOUT
350
1A
  3
ACAD_PLOTSETTINGS
350
19
  3
ACAD_PLOTSTYLENAME
350
E
  0
DICTIONARY
  5
D
102
{ACAD_REACTORS
330
C
102
}
100
AcDbDictionary
280
0
281
1
  0
ACDBDICTIONARYWDFLT
  5
E
102
{ACAD_REACTORS
330
C
102
}
100
AcDbDictionary
281
1
  3
Normal
350
F
100
AcDbDictionaryWithDefault
340
F
  0
DICTIONARY
  5
17
102
{ACAD_REACTORS
330
C
102
}
100
AcDbDictionary
280
0
281
1
  3
Standard
350
18
  0
DICTIONARY
  5
19
102
{ACAD_REACTORS
330
C
102
}
100
AcDbDictionary
281
1
  0
DICTIONARY
  5
1A
102
{ACAD_REACTORS
330
C
102
}
100
AcDbDictionary
281
1
  3
Model
350
35B
  3
Layout1
350
35C
  0
ACDBPLACEHOLDER
  5
F
102
{ACAD_REACTORS
330
E
102
}
  0
MLINESTYLE
  5
18
102
{ACAD_REACTORS
330
17
102
}
100
AcDbMlineStyle
  2
STANDARD
 70
0
  3

 62
256
 51
90.0
 52
90.0
 71
2
 49
0.5
 62
256
  6
BYLAYER
 49
-0.5
 62
256
  6
BYLAYER
  0
LAYOUT
  5
35B
102
{ACAD_REACTORS
330
1A
102
}
100
AcDbPlotSettings
  1

  2
none_device
  4

  6

 40
0.0
 41
0.0
 42
0.0
 43
0.0
 44
210.0
 45
297.0
 46
0.0
 47
0.0
 48
0.0
 49
0.0
140
0.0
141
0.0
142
1.0
143
1.0
 70
1024
 72
1
 73
0
 74
0
  7

 75
0
147
1.0
148
0.0
149
0.0
100
AcDbLayout
  1
Model
 70
0
 71
0
 10
0.0
 20
0.0
 11
210.0
 21
297.0
 12
0.0
 22
0.0
 32
0.0
 14
0.0
 24
0.0
 34
0.0
 15
0.0
 25
0.0
 35
0.0
146
0.0
 13
0.0
 23
0.0
 33
0.0
 16
1.0
 26
0.0
 36
0.0
 17
0.0
 27
1.0
 37
0.0
 76
0
330
210
345
0
346
0
  0
LAYOUT
  5
35C
102
{ACAD_REACTORS
330
1A
102
}
100
AcDbPlotSettings
  1

  2
none_device
  4

  6

 40
0.0
 41
0.0
 42
0.0
 43
0.0
 44
210.0
 45
297.0
 46
0.0
 47
0.0
 48
0.0
 49
0.0
140
0.0
141
0.0
142
1.0
143
1.0
 70
0
 72
1
 73
0
 74
0
  7

 75
0
147
1.0
148
0.0
149
0.0
100
AcDbLayout
  1
Layout1
 70
0
 71
1
 10
0.0
 20
0.0
 11
210.0
 21
297.0
 12
0.0
 22
0.0
 32
0.0
 14
0.0
 24
0.0
 34
0.0
 15
0.0
 25
0.0
 35
0.0
146
0.0
 13
0.0
 23
0.0
 33
0.0
 16
1.0
 26
0.0
 36
0.0
 17
0.0
 27
1.0
 37
0.0
 76
0
330
211
345
0
346
0
  0
ENDSEC
  0
EOF
