999
DXF file: C:\Users\sesa63760\Dev\_Creo\CAD\MCADID0001385_3D-CAD\drw0001_7.dxf
999
Pro/ENGINEER 2019471 by Parametric Technology Corporation
  0
SECTION
  2
HEADER
  9
$ACADVER
  1
AC1024
  9
$DWGCODEPAGE
  3
ANSI_1252
  9
$EXTMAX
 10
197.6067171717
 20
279.4723571429
 30
0.0
  9
$EXTMIN
 10
0.0
 20
0.0
 30
0.0
  9
$LIMMIN
 10
0.0
 20
0.0
  9
$LIMMAX
 10
197.6067171717
 20
279.4723571429
  9
$VIEWCTR
 10
98.8033585859
 20
139.7361785714
  9
$VIEWSIZE
 40
279.4723571429
  9
$CLAYER
  8
0
  9
$LTSCALE
 40
18.2174573545
  9
$CELTYPE
  6
BYLAYER
  9
$DIMSCALE
 40
1.0
  9
$DIMASZ
 40
2.3524609187
  9
$DIMEXO
 40
1.0
  9
$DIMDLI
 40
12.5866068995
  9
$DIMEXE
 40
1.0
  9
$DIMCEN
 40
2.9810384762
  9
$DIMLFAC
 40
1.0
  9
$DIMBLK
  1
_FILLED
  9
$DIMALT
 70
0
  9
$DIMALTF
 40
0.0393700787
  9
$DIMTXT
 40
3.2934452862
  9
$DIMTOL
 70
1
  9
$DIMLIM
 70
0
  9
$DIMTFAC
 40
1.0
  9
$DIMTP
 40
0.01
  9
$DIMTM
 40
0.01
  9
$DIMGAP
 40
0.625
  9
$DIMDSEP
 70
46
  9
$AUNITS
 70
0
  9
$PDMODE
 70
3
  9
$PDSIZE
 40
0.3125
  9
$HANDSEED
  5
29E
  9
$TILEMODE
 70
1
  9
$MEASUREMENT
 70
1
  9
$INSUNITS
 70
4
  0
ENDSEC
  0
SECTION
  2
CLASSES
  0
CLASS
  1
ACDBDICTIONARYWDFLT
  2
AcDbDictionaryWithDefault
  3
AutoCAD 2000
 90
0
 91
1
280
0
281
0
  0
CLASS
  1
ACDBPLACEHOLDER
  2
AcDbPlaceHolder
  3
AutoCAD 2000
 90
0
 91
1
280
0
281
0
  0
CLASS
  1
LAYOUT
  2
AcDbLayout
  3
AutoCAD 2000
 90
0
 91
0
280
0
281
0
  0
ENDSEC
  0
SECTION
  2
TABLES
  0
TABLE
  2
VPORT
  5
8
100
AcDbSymbolTable
 70
2
  0
VPORT
  5
1F4
100
AcDbSymbolTableRecord
100
AcDbViewportTableRecord
  2
*ACTIVE
 70
0
 10
0.0
 20
0.0
 11
1.0
 21
1.0
 12
98.8033585859
 22
139.7361785714
 13
0.0
 23
0.0
 14
1.0
 24
1.0
 15
0.0
 25
0.0
 16
0.0
 26
0.0
 36
1.0
 17
0.0
 27
0.0
 37
0.0
 40
279.4723571429
 41
0.7070707071
 42
50.0
 43
0.0
 44
0.0
 50
0.0
 51
0.0
 71
0
 72
100
 73
1
 74
1
 75
0
 76
0
 77
0
 78
0
  0
ENDTAB
  0
TABLE
  2
LTYPE
  5
5
100
AcDbSymbolTable
 70
6
  0
LTYPE
  5
14
100
AcDbSymbolTableRecord
100
AcDbLinetypeTableRecord
  2
BYBLOCK
 70
0
  3

 72
65
 73
0
 40
0.0
  0
LTYPE
  5
15
100
AcDbSymbolTableRecord
100
AcDbLinetypeTableRecord
  2
BYLAYER
 70
0
  3

 72
65
 73
0
 40
0.0
  0
LTYPE
  5
16
100
AcDbSymbolTableRecord
100
AcDbLinetypeTableRecord
  2
CONTINUOUS
 70
64
  3
Solid line
 72
65
 73
0
 40
0.0
  0
LTYPE
  5
1F5
100
AcDbSymbolTableRecord
100
AcDbLinetypeTableRecord
  2
CENTER
 70
64
  3
____ _ ____ _ ____ _ ____ _ ____ _ ____ _ ____
 72
65
 73
4
 40
0.6
 49
0.375
 74
0
 49
-0.075
 74
0
 49
0.075
 74
0
 49
-0.075
 74
0
  0
LTYPE
  5
1F6
100
AcDbSymbolTableRecord
100
AcDbLinetypeTableRecord
  2
HIDDEN
 70
64
  3
- - - - - - - - - - - - - - - - - - - -
 72
65
 73
2
 40
0.2
 49
0.1
 74
0
 49
-0.1
 74
0
  0
LTYPE
  5
1F7
100
AcDbSymbolTableRecord
100
AcDbLinetypeTableRecord
  2
PHANTOM
 70
64
  3
_____ _ _ _____ _ _ _____ _ _ _____
 72
65
 73
6
 40
0.8
 49
0.45
 74
0
 49
-0.05
 74
0
 49
0.1
 74
0
 49
-0.05
 74
0
 49
0.1
 74
0
 49
-0.05
 74
0
  0
LTYPE
  5
1F8
100
AcDbSymbolTableRecord
100
AcDbLinetypeTableRecord
  2
DOT
 70
64
  3
. . . . . . . . . . . . . . . . . . . .
 72
65
 73
2
 40
0.2
 49
0.1
 74
0
 49
-0.1
 74
0
  0
LTYPE
  5
1F9
100
AcDbSymbolTableRecord
100
AcDbLinetypeTableRecord
  2
DASHED
 70
64
  3
- - - - - - - - - - - - - - - - - - - -
 72
65
 73
2
 40
0.2
 49
0.1
 74
0
 49
-0.1
 74
0
  0
ENDTAB
  0
TABLE
  2
LAYER
  5
2
100
AcDbSymbolTable
 70
36
  0
LAYER
  5
10
100
AcDbSymbolTableRecord
100
AcDbLayerTableRecord
  2
0
 70
0
 62
7
  6
CONTINUOUS
370
-3
390
F
  0
LAYER
  5
1FA
100
AcDbSymbolTableRecord
100
AcDbLayerTableRecord
  2
DEFAULT_1
 70
0
 62
7
  6
CENTER
370
-3
390
F
  0
LAYER
  5
1FB
100
AcDbSymbolTableRecord
100
AcDbLayerTableRecord
  2
DEFAULT_2
 70
0
 62
8
  6
HIDDEN
370
-3
390
F
  0
LAYER
  5
1FC
100
AcDbSymbolTableRecord
100
AcDbLayerTableRecord
  2
DEFAULT_3
 70
0
 62
7
  6
PHANTOM
370
-3
390
F
  0
LAYER
  5
1FD
100
AcDbSymbolTableRecord
100
AcDbLayerTableRecord
  2
00_COMPONENTS
 70
0
 62
7
  6
CONTINUOUS
370
-3
390
F
  0
LAYER
  5
1FE
100
AcDbSymbolTableRecord
100
AcDbLayerTableRecord
  2
01_1_DEFAULT_DATUMS
 70
0
 62
7
  6
CONTINUOUS
370
-3
390
F
  0
LAYER
  5
1FF
100
AcDbSymbolTableRecord
100
AcDbLayerTableRecord
  2
01_PLANES
 70
0
 62
7
  6
CONTINUOUS
370
-3
390
F
  0
LAYER
  5
200
100
AcDbSymbolTableRecord
100
AcDbLayerTableRecord
  2
02_COORD_SYS
 70
0
 62
7
  6
CONTINUOUS
370
-3
390
F
  0
LAYER
  5
201
100
AcDbSymbolTableRecord
100
AcDbLayerTableRecord
  2
03_AXES
 70
0
 62
7
  6
CONTINUOUS
370
-3
390
F
  0
LAYER
  5
202
100
AcDbSymbolTableRecord
100
AcDbLayerTableRecord
  2
04_POINTS
 70
0
 62
7
  6
CONTINUOUS
370
-3
390
F
  0
LAYER
  5
203
100
AcDbSymbolTableRecord
100
AcDbLayerTableRecord
  2
05_CURVES
 70
0
 62
7
  6
CONTINUOUS
370
-3
390
F
  0
LAYER
  5
204
100
AcDbSymbolTableRecord
100
AcDbLayerTableRecord
  2
06_SURFS
 70
0
 62
7
  6
CONTINUOUS
370
-3
390
F
  0
LAYER
  5
205
100
AcDbSymbolTableRecord
100
AcDbLayerTableRecord
  2
07_COSMETICS
 70
0
 62
7
  6
CONTINUOUS
370
-3
390
F
  0
LAYER
  5
206
100
AcDbSymbolTableRecord
100
AcDbLayerTableRecord
  2
10_NOTES
 70
0
 62
7
  6
CONTINUOUS
370
-3
390
F
  0
LAYER
  5
207
100
AcDbSymbolTableRecord
100
AcDbLayerTableRecord
  2
11_NOTES_PUB
 70
0
 62
7
  6
CONTINUOUS
370
-3
390
F
  0
LAYER
  5
208
100
AcDbSymbolTableRecord
100
AcDbLayerTableRecord
  2
13_REF_GTOL
 70
0
 62
7
  6
CONTINUOUS
370
-3
390
F
  0
LAYER
  5
209
100
AcDbSymbolTableRecord
100
AcDbLayerTableRecord
  2
16_MISC
 70
0
 62
7
  6
CONTINUOUS
370
-3
390
F
  0
LAYER
  5
20A
100
AcDbSymbolTableRecord
100
AcDbLayerTableRecord
  2
17_NO_PRINT
 70
0
 62
7
  6
CONTINUOUS
370
-3
390
F
  0
LAYER
  5
20B
100
AcDbSymbolTableRecord
100
AcDbLayerTableRecord
  2
18_DATUM_CAMS_JOINTS
 70
0
 62
7
  6
CONTINUOUS
370
-3
390
F
  0
LAYER
  5
20C
100
AcDbSymbolTableRecord
100
AcDbLayerTableRecord
  2
19_DATUM_FUNCTIONAL
 70
0
 62
7
  6
CONTINUOUS
370
-3
390
F
  0
LAYER
  5
20D
100
AcDbSymbolTableRecord
100
AcDbLayerTableRecord
  2
20_DATUM_KINEMATIC_SCHEME
 70
0
 62
7
  6
CONTINUOUS
370
-3
390
F
  0
LAYER
  5
20E
100
AcDbSymbolTableRecord
100
AcDbLayerTableRecord
  2
_1
 70
0
 62
7
  6
CONTINUOUS
370
-3
390
F
  0
ENDTAB
  0
TABLE
  2
STYLE
  5
3
100
AcDbSymbolTable
 70
1
  0
STYLE
  5
11
100
AcDbSymbolTableRecord
100
AcDbTextStyleTableRecord
  2
STANDARD
 70
0
 40
0.0
 41
0.8
 50
0.0
 71
0
 42
0.2
  3
txt
  4

  0
STYLE
  5
20F
100
AcDbSymbolTableRecord
100
AcDbTextStyleTableRecord
  2
TEXTSTYLE_1
 70
0
 40
0.0
 41
0.8
 50
0.0
 71
0
 42
0.2
  3
gdt
  4

  0
ENDTAB
  0
TABLE
  2
VIEW
  5
6
100
AcDbSymbolTable
 70
0
  0
ENDTAB
  0
TABLE
  2
UCS
  5
7
100
AcDbSymbolTable
 70
0
  0
ENDTAB
  0
TABLE
  2
APPID
  5
9
100
AcDbSymbolTable
 70
1
  0
APPID
  5
210
100
AcDbSymbolTableRecord
100
AcDbRegAppTableRecord
  2
ACAD
 70
0
  0
ENDTAB
  0
TABLE
  2
BLOCK_RECORD
  5
1
100
AcDbSymbolTable
 70
0
  0
BLOCK_RECORD
  5
211
100
AcDbSymbolTableRecord
100
AcDbBlockTableRecord
  2
*Model_Space
  0
BLOCK_RECORD
  5
212
100
AcDbSymbolTableRecord
100
AcDbBlockTableRecord
  2
*Paper_Space
  0
BLOCK_RECORD
  5
213
100
AcDbSymbolTableRecord
100
AcDbBlockTableRecord
  2
_FILLED
  0
ENDTAB
  0
TABLE
  2
DIMSTYLE
  5
A
100
AcDbSymbolTable
 70
1
100
AcDbDimStyleTable
 71
0
  0
DIMSTYLE
105
214
100
AcDbSymbolTableRecord
100
AcDbDimStyleTableRecord
  2
STANDARD
 70
0
  3

  4

 40
1.0
 41
2.3524609187
 42
1.0
 43
0.38
 44
1.0
 45
0.0
 46
0.0
 47
0.01
 48
0.01
140
3.2934452862
141
0.09
142
0.0
143
25.4
144
1.0
145
0.0
146
1.0
147
0.625
 71
1
 72
0
 73
0
 74
0
 75
0
 76
0
 77
1
 78
8
 79
2
170
0
171
1
172
0
173
0
174
0
175
0
176
0
177
0
178
0
270
2
179
2
271
2
272
2
273
2
274
2
275
0
280
0
281
0
282
0
283
1
284
8
285
0
286
0
287
3
288
0
340
11
278
46
341
213
342
213
343
213
344
213
  0
ENDTAB
  0
ENDSEC
  0
SECTION
  2
BLOCKS
  0
BLOCK
  5
20
100
AcDbEntity
  8
0
100
AcDbBlockBegin
  2
*Model_Space
 70
0
 10
0.0
 20
0.0
 30
0.0
  3
*Model_Space
  1

  0
ENDBLK
  5
21
100
AcDbEntity
  8
0
100
AcDbBlockEnd
  0
BLOCK
  5
1C
100
AcDbEntity
  8
0
100
AcDbBlockBegin
  2
*Paper_Space
 70
0
 10
0.0
 20
0.0
 30
0.0
  3
*Paper_Space
  1

  0
ENDBLK
  5
1D
100
AcDbEntity
  8
0
100
AcDbBlockEnd
  0
BLOCK
  5
215
100
AcDbEntity
  8
0
100
AcDbBlockBegin
  2
_FILLED
 70
64
 10
0.0
 20
0.0
  3
_FILLED
  1

  0
SOLID
  5
216
100
AcDbEntity
  8
0
  6
BYBLOCK
 62
0
100
AcDbTrace
 10
0.0
 20
0.0
 11
-1.0
 21
0.25
 12
-1.0
 22
-0.25
 13
-1.0
 23
-0.25
  0
ENDBLK
  5
217
100
AcDbEntity
  8
0
  6
BYBLOCK
 62
0
100
AcDbBlockEnd
  0
ENDSEC
  0
SECTION
  2
ENTITIES
  0
LINE
  5
218
100
AcDbEntity
  8
_1
100
AcDbLine
 62
7
  6
CONTINUOUS
 10
103.6454300144
 20
20.6953214286
 11
94.6454300144
 21
20.6953214286
  0
LINE
  5
219
100
AcDbEntity
  8
_1
100
AcDbLine
 62
7
  6
CONTINUOUS
 10
119.1454300144
 20
38.6953214286
 11
79.1454300144
 21
38.6953214286
  0
LINE
  5
21A
100
AcDbEntity
  8
_1
100
AcDbLine
 62
7
  6
CONTINUOUS
 10
71.6454300144
 20
40.6953214286
 11
126.6454300144
 21
40.6953214286
  0
LINE
  5
21B
100
AcDbEntity
  8
_1
100
AcDbLine
 62
7
  6
CONTINUOUS
 10
71.7153140836
 20
49.6953214286
 11
82.636741225
 21
49.6953214286
  0
LINE
  5
21C
100
AcDbEntity
  8
_1
100
AcDbLine
 62
7
  6
CONTINUOUS
 10
115.6541188038
 20
49.6953214286
 11
126.5755459452
 21
49.6953214286
  0
LINE
  5
21D
100
AcDbEntity
  8
_1
100
AcDbLine
 62
7
  6
CONTINUOUS
 10
95.6454300144
 20
45.1745954864
 11
99.1454300144
 21
43.1538695442
  0
LINE
  5
21E
100
AcDbEntity
  8
_1
100
AcDbLine
 62
7
  6
CONTINUOUS
 10
102.6454300144
 20
49.2160473707
 11
99.1454300144
 21
51.2367733129
  0
LINE
  5
21F
100
AcDbEntity
  8
_1
100
AcDbLine
 62
7
  6
CONTINUOUS
 10
92.1454300144
 20
69.6953214286
 11
106.1454300144
 21
69.6953214286
  0
LINE
  5
220
100
AcDbEntity
  8
_1
100
AcDbLine
 62
7
  6
CONTINUOUS
 10
94.9093544795
 20
205.5390714286
 11
94.9100938329
 21
205.5395350434
  0
LINE
  5
221
100
AcDbEntity
  8
_1
100
AcDbLine
 62
7
  6
CONTINUOUS
 10
71.3954300144
 20
210.1953214286
 11
71.3954300144
 21
215.1756822808
  0
LINE
  5
222
100
AcDbEntity
  8
_1
100
AcDbLine
 62
7
  6
CONTINUOUS
 10
71.6454300144
 20
40.6953214286
 11
71.6454300144
 21
209.1638450784
  0
LINE
  5
223
100
AcDbEntity
  8
_1
100
AcDbLine
 62
7
  6
CONTINUOUS
 10
71.7127492648
 20
206.6953214286
 11
71.7127492648
 21
168.6953214286
  0
LINE
  5
224
100
AcDbEntity
  8
_1
100
AcDbLine
 62
7
  6
CONTINUOUS
 10
71.7153140836
 20
168.6953214286
 11
71.7153140836
 21
49.6953214286
  0
LINE
  5
225
100
AcDbEntity
  8
_1
100
AcDbLine
 62
7
  6
CONTINUOUS
 10
71.8421653163
 20
49.6953214286
 11
71.8421653163
 21
40.6953214286
  0
LINE
  5
226
100
AcDbEntity
  8
_1
100
AcDbLine
 62
7
  6
CONTINUOUS
 10
71.8508160288
 20
208.738203002
 11
71.8508160288
 21
206.6953214286
  0
LINE
  5
227
100
AcDbEntity
  8
_1
100
AcDbLine
 62
7
  6
CONTINUOUS
 10
72.8125974243
 20
168.6953214286
 11
72.8125974243
 21
49.6953214286
  0
LINE
  5
228
100
AcDbEntity
  8
_1
100
AcDbLine
 62
7
  6
CONTINUOUS
 10
72.8954300144
 20
260.1453214286
 11
72.8954300144
 21
244.1953214286
  0
LINE
  5
229
100
AcDbEntity
  8
_1
100
AcDbLine
 62
7
  6
CONTINUOUS
 10
73.7915823552
 20
49.6953214286
 11
73.7915823552
 21
168.6953214286
  0
LINE
  5
22A
100
AcDbEntity
  8
_1
100
AcDbLine
 62
7
  6
CONTINUOUS
 10
71.2335284822
 20
244.1953214286
 11
70.3954300144
 21
220.1953214286
  0
LINE
  5
22B
100
AcDbEntity
  8
_1
100
AcDbLine
 62
7
  6
CONTINUOUS
 10
81.636779302
 20
168.6953214286
 11
80.8869157915
 21
206.6953214286
  0
LINE
  5
22C
100
AcDbEntity
  8
_1
100
AcDbLine
 62
7
  6
CONTINUOUS
 10
75.8506637225
 20
206.6953214286
 11
75.8506637225
 21
206.9453214286
  0
LINE
  5
22D
100
AcDbEntity
  8
_1
100
AcDbLine
 62
7
  6
CONTINUOUS
 10
76.6016052835
 20
168.6953214286
 11
76.6016052835
 21
49.6953214286
  0
LINE
  5
22E
100
AcDbEntity
  8
_1
100
AcDbLine
 62
7
  6
CONTINUOUS
 10
76.8419749317
 20
40.6953214286
 11
76.8419749317
 21
49.6953214286
  0
LINE
  5
22F
100
AcDbEntity
  8
_1
100
AcDbLine
 62
7
  6
CONTINUOUS
 10
79.1454300144
 20
40.6953214286
 11
79.1454300144
 21
38.6953214286
  0
LINE
  5
230
100
AcDbEntity
  8
_1
100
AcDbLine
 62
7
  6
CONTINUOUS
 10
81.6014148989
 20
49.6953214286
 11
81.6014148989
 21
168.6953214286
  0
LINE
  5
231
100
AcDbEntity
  8
_1
100
AcDbLine
 62
7
  6
CONTINUOUS
 10
81.636779302
 20
168.6953214286
 11
81.636779302
 21
49.6953214286
  0
LINE
  5
232
100
AcDbEntity
  8
_1
100
AcDbLine
 62
7
  6
CONTINUOUS
 10
82.636741225
 20
49.6953214286
 11
82.636741225
 21
206.3372755077
  0
LINE
  5
233
100
AcDbEntity
  8
_1
100
AcDbLine
 62
7
  6
CONTINUOUS
 10
76.6016052821
 20
168.6953214286
 11
71.8508160288
 21
206.6953214286
  0
LINE
  5
234
100
AcDbEntity
  8
_1
100
AcDbLine
 62
7
  6
CONTINUOUS
 10
81.6013866592
 20
168.6953171233
 11
75.8506637239
 21
206.695325479
  0
LINE
  5
235
100
AcDbEntity
  8
_1
100
AcDbLine
 62
7
  6
CONTINUOUS
 10
92.1454300144
 20
49.1953214286
 11
92.1454300144
 21
69.6953214286
  0
LINE
  5
236
100
AcDbEntity
  8
_1
100
AcDbLine
 62
7
  6
CONTINUOUS
 10
92.3677091586
 20
206.9461941154
 11
92.3677091586
 21
206.9453214286
  0
LINE
  5
237
100
AcDbEntity
  8
_1
100
AcDbLine
 62
7
  6
CONTINUOUS
 10
94.6454300144
 20
38.6953214286
 11
94.6454300144
 21
20.6953214286
  0
LINE
  5
238
100
AcDbEntity
  8
_1
100
AcDbLine
 62
7
  6
CONTINUOUS
 10
95.6454300144
 20
45.1745954864
 11
95.6454300144
 21
49.2160473707
  0
LINE
  5
239
100
AcDbEntity
  8
_1
100
AcDbLine
 62
7
  6
CONTINUOUS
 10
95.8954300144
 20
260.1453214286
 11
95.8954300144
 21
244.1953214286
  0
LINE
  5
23A
100
AcDbEntity
  8
_1
100
AcDbLine
 62
7
  6
CONTINUOUS
 10
97.3954300144
 20
215.1758181616
 11
97.3954300144
 21
210.1953214286
  0
LINE
  5
23B
100
AcDbEntity
  8
_1
100
AcDbLine
 62
7
  6
CONTINUOUS
 10
97.6454300144
 20
26.1953214286
 11
97.6454300144
 21
35.1953214286
  0
LINE
  5
23C
100
AcDbEntity
  8
_1
100
AcDbLine
 62
7
  6
CONTINUOUS
 10
100.6636869432
 20
242.1953214286
 11
99.8954300144
 21
220.1953214286
  0
LINE
  5
23D
100
AcDbEntity
  8
_1
100
AcDbLine
 62
7
  6
CONTINUOUS
 10
97.5573315466
 20
244.1953214286
 11
98.3954300144
 21
220.1953214286
  0
LINE
  5
23E
100
AcDbEntity
  8
_1
100
AcDbLine
 62
7
  6
CONTINUOUS
 10
100.6454300144
 20
35.1953214286
 11
100.6454300144
 21
26.1953214286
  0
LINE
  5
23F
100
AcDbEntity
  8
_1
100
AcDbLine
 62
7
  6
CONTINUOUS
 10
100.8954300144
 20
210.1953214286
 11
100.8954300144
 21
215.1752065091
  0
LINE
  5
240
100
AcDbEntity
  8
_1
100
AcDbLine
 62
7
  6
CONTINUOUS
 10
102.3954300144
 20
257.1453214286
 11
102.3954300144
 21
242.1953214286
  0
LINE
  5
241
100
AcDbEntity
  8
_1
100
AcDbLine
 62
7
  6
CONTINUOUS
 10
102.6454300144
 20
49.2160473707
 11
102.6454300144
 21
45.1745954864
  0
LINE
  5
242
100
AcDbEntity
  8
_1
100
AcDbLine
 62
7
  6
CONTINUOUS
 10
103.6454300144
 20
38.6953214286
 11
103.6454300144
 21
20.6953214286
  0
LINE
  5
243
100
AcDbEntity
  8
_1
100
AcDbLine
 62
7
  6
CONTINUOUS
 10
106.1454300144
 20
69.6953214286
 11
106.1454300144
 21
49.1953214286
  0
LINE
  5
244
100
AcDbEntity
  8
_1
100
AcDbLine
 62
7
  6
CONTINUOUS
 10
115.6541188038
 20
206.3372755077
 11
115.6541188038
 21
49.6953214286
  0
LINE
  5
245
100
AcDbEntity
  8
_1
100
AcDbLine
 62
7
  6
CONTINUOUS
 10
116.6540807269
 20
49.6953214286
 11
116.6540807269
 21
168.6953214286
  0
LINE
  5
246
100
AcDbEntity
  8
_1
100
AcDbLine
 62
7
  6
CONTINUOUS
 10
116.6540813505
 20
168.6953214161
 11
117.4039442373
 21
206.6953214286
  0
LINE
  5
247
100
AcDbEntity
  8
_1
100
AcDbLine
 62
7
  6
CONTINUOUS
 10
116.68944513
 20
168.6953214286
 11
122.4401962562
 21
206.6953214286
  0
LINE
  5
248
100
AcDbEntity
  8
_1
100
AcDbLine
 62
7
  6
CONTINUOUS
 10
116.68944513
 20
168.6953214286
 11
116.68944513
 21
49.6953214286
  0
LINE
  5
249
100
AcDbEntity
  8
_1
100
AcDbLine
 62
7
  6
CONTINUOUS
 10
119.1454300144
 20
40.6953214286
 11
119.1454300144
 21
38.6953214286
  0
LINE
  5
24A
100
AcDbEntity
  8
_1
100
AcDbLine
 62
7
  6
CONTINUOUS
 10
121.4488850972
 20
49.6953214286
 11
121.4488850972
 21
40.6953214286
  0
LINE
  5
24B
100
AcDbEntity
  8
_1
100
AcDbLine
 62
7
  6
CONTINUOUS
 10
121.6892547453
 20
49.6953214286
 11
121.6892547453
 21
168.6953214286
  0
LINE
  5
24C
100
AcDbEntity
  8
_1
100
AcDbLine
 62
7
  6
CONTINUOUS
 10
122.4401963064
 20
206.9453214286
 11
122.4401963064
 21
206.6953214286
  0
LINE
  5
24D
100
AcDbEntity
  8
_1
100
AcDbLine
 62
7
  6
CONTINUOUS
 10
124.4992776737
 20
168.6953214286
 11
124.4992776737
 21
49.6953214286
  0
LINE
  5
24E
100
AcDbEntity
  8
_1
100
AcDbLine
 62
7
  6
CONTINUOUS
 10
121.689254745
 20
168.695320525
 11
126.4400198112
 21
206.6952941246
  0
LINE
  5
24F
100
AcDbEntity
  8
_1
100
AcDbLine
 62
7
  6
CONTINUOUS
 10
127.1271730856
 20
242.1953214286
 11
127.8954300144
 21
220.1953214286
  0
LINE
  5
250
100
AcDbEntity
  8
_1
100
AcDbLine
 62
7
  6
CONTINUOUS
 10
125.3954300144
 20
257.1453214286
 11
125.3954300144
 21
242.1953214286
  0
LINE
  5
251
100
AcDbEntity
  8
_1
100
AcDbLine
 62
7
  6
CONTINUOUS
 10
125.4782626045
 20
49.6953214286
 11
125.4782626045
 21
168.6953214286
  0
LINE
  5
252
100
AcDbEntity
  8
_1
100
AcDbLine
 62
7
  6
CONTINUOUS
 10
126.4400440001
 20
206.6953214286
 11
126.4400440001
 21
208.738203002
  0
LINE
  5
253
100
AcDbEntity
  8
_1
100
AcDbLine
 62
7
  6
CONTINUOUS
 10
126.4486947125
 20
40.6953214286
 11
126.4486947125
 21
49.6953214286
  0
LINE
  5
254
100
AcDbEntity
  8
_1
100
AcDbLine
 62
7
  6
CONTINUOUS
 10
126.5755459452
 20
49.6953214286
 11
126.5755459452
 21
168.6953214286
  0
LINE
  5
255
100
AcDbEntity
  8
_1
100
AcDbLine
 62
7
  6
CONTINUOUS
 10
126.5781107641
 20
168.6953214286
 11
126.5781107641
 21
206.6953214286
  0
LINE
  5
256
100
AcDbEntity
  8
_1
100
AcDbLine
 62
7
  6
CONTINUOUS
 10
126.6454300144
 20
40.6953214286
 11
126.6454300144
 21
209.1638450784
  0
LINE
  5
257
100
AcDbEntity
  8
_1
100
AcDbLine
 62
7
  6
CONTINUOUS
 10
126.8954300144
 20
215.175342454
 11
126.8954300144
 21
210.1953214286
  0
LINE
  5
258
100
AcDbEntity
  8
_1
100
AcDbLine
 62
7
  6
CONTINUOUS
 10
71.6454300144
 20
168.6953214286
 11
126.6454300144
 21
168.6953214286
  0
LINE
  5
259
100
AcDbEntity
  8
_1
100
AcDbLine
 62
7
  6
CONTINUOUS
 10
126.5781107641
 20
206.6953214286
 11
117.4039442279
 21
206.6953214286
  0
LINE
  5
25A
100
AcDbEntity
  8
_1
100
AcDbLine
 62
7
  6
CONTINUOUS
 10
80.8869157915
 20
206.6953214286
 11
71.7127492648
 21
206.6953214286
  0
LINE
  5
25B
100
AcDbEntity
  8
_1
100
AcDbLine
 62
7
  6
CONTINUOUS
 10
124.4046446173
 20
206.9461941154
 11
117.96209214
 21
206.9461941154
  0
LINE
  5
25C
100
AcDbEntity
  8
_1
100
AcDbLine
 62
7
  6
CONTINUOUS
 10
109.8287678889
 20
206.9461941154
 11
105.9231508703
 21
206.9461941154
  0
LINE
  5
25D
100
AcDbEntity
  8
_1
100
AcDbLine
 62
7
  6
CONTINUOUS
 10
92.3677091586
 20
206.9461941154
 11
88.46209214
 21
206.9461941154
  0
LINE
  5
25E
100
AcDbEntity
  8
_1
100
AcDbLine
 62
7
  6
CONTINUOUS
 10
80.3287678889
 20
206.9461941154
 11
73.8862154116
 21
206.9461941154
  0
LINE
  5
25F
100
AcDbEntity
  8
_1
100
AcDbLine
 62
7
  6
CONTINUOUS
 10
123.8954300144
 20
207.1953214286
 11
118.8123017596
 21
207.1953214286
  0
LINE
  5
260
100
AcDbEntity
  8
_1
100
AcDbLine
 62
7
  6
CONTINUOUS
 10
108.9785582693
 20
207.1953214286
 11
103.8954300144
 21
207.1953214286
  0
LINE
  5
261
100
AcDbEntity
  8
_1
100
AcDbLine
 62
7
  6
CONTINUOUS
 10
94.3954300144
 20
207.1953214286
 11
89.3123017596
 21
207.1953214286
  0
LINE
  5
262
100
AcDbEntity
  8
_1
100
AcDbLine
 62
7
  6
CONTINUOUS
 10
79.4785582693
 20
207.1953214286
 11
74.3954300144
 21
207.1953214286
  0
LINE
  5
263
100
AcDbEntity
  8
_1
100
AcDbLine
 62
7
  6
CONTINUOUS
 10
99.1454300144
 20
51.2367733129
 11
95.6454300144
 21
49.2160473707
  0
LINE
  5
264
100
AcDbEntity
  8
_1
100
AcDbLine
 62
7
  6
CONTINUOUS
 10
99.1454300144
 20
43.1538695442
 11
102.6454300144
 21
45.1745954864
  0
LINE
  5
265
100
AcDbEntity
  8
_1
100
AcDbLine
 62
7
  6
CONTINUOUS
 10
97.9327602936
 20
233.4444487418
 11
100.3580997353
 21
233.4444487418
  0
LINE
  5
266
100
AcDbEntity
  8
_1
100
AcDbLine
 62
7
  6
CONTINUOUS
 10
100.4367019416
 20
235.6953214286
 11
97.8541580873
 21
235.6953214286
  0
LINE
  5
267
100
AcDbEntity
  8
_1
100
AcDbLine
 62
7
  6
CONTINUOUS
 10
100.6636869432
 20
242.1953214286
 11
127.1271730856
 21
242.1953214286
  0
LINE
  5
268
100
AcDbEntity
  8
_1
100
AcDbLine
 62
7
  6
CONTINUOUS
 10
71.2335284822
 20
244.1953214286
 11
97.5573315466
 21
244.1953214286
  0
LINE
  5
269
100
AcDbEntity
  8
_1
100
AcDbLine
 62
7
  6
CONTINUOUS
 10
102.3954300144
 20
257.1453214286
 11
125.3954300144
 21
257.1453214286
  0
LINE
  5
26A
100
AcDbEntity
  8
_1
100
AcDbLine
 62
7
  6
CONTINUOUS
 10
72.8954300144
 20
260.1453214286
 11
95.8954300144
 21
260.1453214286
  0
ARC
  5
26B
100
AcDbEntity
  8
_1
100
AcDbCircle
 62
7
  6
CONTINUOUS
 10
84.3954300144
 20
220.1953214286
 40
14.0
100
AcDbArc
 50
180.0
 51
360.0
  0
ARC
  5
26C
100
AcDbEntity
  8
_1
100
AcDbCircle
 62
7
  6
CONTINUOUS
 10
92.3677091586
 20
203.9453214286
 40
3.0008726868
100
AcDbArc
 50
32.0899512563
 51
90.0
  0
ARC
  5
26D
100
AcDbEntity
  8
_1
100
AcDbCircle
 62
7
  6
CONTINUOUS
 10
94.3954300144
 20
210.1953214286
 40
3.0
100
AcDbArc
 50
270.0
 51
360.0
  0
ARC
  5
26E
100
AcDbEntity
  8
_1
100
AcDbCircle
 62
7
  6
CONTINUOUS
 10
74.3954300144
 20
210.1953214286
 40
3.0
100
AcDbArc
 50
180.0
 51
270.0
  0
ARC
  5
26F
100
AcDbEntity
  8
_1
100
AcDbCircle
 62
7
  6
CONTINUOUS
 10
94.3954300144
 20
210.1953214286
 40
2.75
100
AcDbArc
 50
214.4897319741
 51
54.8941798304
  0
ARC
  5
270
100
AcDbEntity
  8
_1
100
AcDbCircle
 62
7
  6
CONTINUOUS
 10
74.3954300144
 20
210.1953214286
 40
2.75
100
AcDbArc
 50
125.1079698351
 51
325.5101561194
  0
ARC
  5
271
100
AcDbEntity
  8
_1
100
AcDbCircle
 62
7
  6
CONTINUOUS
 10
74.3954300144
 20
210.1953214286
 40
2.25
100
AcDbArc
 50
130.5748094414
 51
327.3353208224
  0
ARC
  5
272
100
AcDbEntity
  8
_1
100
AcDbCircle
 62
7
  6
CONTINUOUS
 10
94.3954300144
 20
210.1953214286
 40
2.25
100
AcDbArc
 50
212.6613762452
 51
49.4177373582
  0
ARC
  5
273
100
AcDbEntity
  8
_1
100
AcDbCircle
 62
7
  6
CONTINUOUS
 10
99.1454300144
 20
-36.5046785714
 40
280.0
100
AcDbArc
 50
84.4808964507
 51
84.6193391637
  0
ARC
  5
274
100
AcDbEntity
  8
_1
100
AcDbCircle
 62
7
  6
CONTINUOUS
 10
99.1454300144
 20
-36.5046785714
 40
279.9206633584
100
AcDbArc
 50
89.073561343
 51
90.347110575
  0
ARC
  5
275
100
AcDbEntity
  8
_1
100
AcDbCircle
 62
7
  6
CONTINUOUS
 10
99.1454300144
 20
-36.5046785714
 40
278.6462811523
100
AcDbArc
 50
89.7363769068
 51
90.2633410559
  0
ARC
  5
276
100
AcDbEntity
  8
_1
100
AcDbCircle
 62
7
  6
CONTINUOUS
 10
99.1454300144
 20
49.1953214286
 40
7.0
100
AcDbArc
 50
180.0
 51
360.0
  0
CIRCLE
  5
277
100
AcDbEntity
  8
_1
100
AcDbCircle
 62
7
  6
CONTINUOUS
 10
99.1454300144
 20
47.1953214286
 40
4.5
  0
ARC
  5
278
100
AcDbEntity
  8
_1
100
AcDbCircle
 62
7
  6
CONTINUOUS
 10
99.1454300144
 20
47.1953214286
 40
3.8
100
AcDbArc
 50
217.0804578484
 51
262.9195421516
  0
ARC
  5
279
100
AcDbEntity
  8
_1
100
AcDbCircle
 62
7
  6
CONTINUOUS
 10
99.1454300144
 20
47.1953214286
 40
3.8
100
AcDbArc
 50
157.0804578484
 51
202.9195421516
  0
ARC
  5
27A
100
AcDbEntity
  8
_1
100
AcDbCircle
 62
7
  6
CONTINUOUS
 10
99.1454300144
 20
47.1953214286
 40
3.8
100
AcDbArc
 50
97.0804578484
 51
142.9195421516
  0
ARC
  5
27B
100
AcDbEntity
  8
_1
100
AcDbCircle
 62
7
  6
CONTINUOUS
 10
99.1454300144
 20
47.1953214286
 40
3.8
100
AcDbArc
 50
37.0804578484
 51
82.9195421516
  0
ARC
  5
27C
100
AcDbEntity
  8
_1
100
AcDbCircle
 62
7
  6
CONTINUOUS
 10
99.1454300144
 20
47.1953214286
 40
3.8
100
AcDbArc
 50
337.0804578484
 51
22.9195421516
  0
ARC
  5
27D
100
AcDbEntity
  8
_1
100
AcDbCircle
 62
7
  6
CONTINUOUS
 10
99.1454300144
 20
47.1953214286
 40
3.8
100
AcDbArc
 50
277.0804578484
 51
322.9195421516
  0
CIRCLE
  5
27E
100
AcDbEntity
  8
_1
100
AcDbCircle
 62
7
  6
CONTINUOUS
 10
99.1454300144
 20
47.1953214286
 40
2.0
  0
ARC
  5
27F
100
AcDbEntity
  8
_1
100
AcDbCircle
 62
7
  6
CONTINUOUS
 10
99.1454300144
 20
26.1953214286
 40
1.5
100
AcDbArc
 50
180.0
 51
360.0
  0
ARC
  5
280
100
AcDbEntity
  8
_1
100
AcDbCircle
 62
7
  6
CONTINUOUS
 10
99.1454300144
 20
35.1953214286
 40
1.5
100
AcDbArc
 50
0.0
 51
180.0
  0
ARC
  5
281
100
AcDbEntity
  8
_1
100
AcDbCircle
 62
7
  6
CONTINUOUS
 10
113.8954300144
 20
220.1953214286
 40
14.0
100
AcDbArc
 50
180.0
 51
360.0
  0
ARC
  5
282
100
AcDbEntity
  8
_1
100
AcDbCircle
 62
7
  6
CONTINUOUS
 10
99.1454300144
 20
208.1953214286
 40
4.9991273132
100
AcDbArc
 50
212.0899512563
 51
327.9100487437
  0
ARC
  5
283
100
AcDbEntity
  8
_1
100
AcDbCircle
 62
7
  6
CONTINUOUS
 10
105.9231508703
 20
203.9453214286
 40
3.0008726868
100
AcDbArc
 50
90.0
 51
147.9100487437
  0
ARC
  5
284
100
AcDbEntity
  8
_1
100
AcDbCircle
 62
7
  6
CONTINUOUS
 10
123.8954300144
 20
210.1953214286
 40
3.0
100
AcDbArc
 50
270.0
 51
360.0
  0
ARC
  5
285
100
AcDbEntity
  8
_1
100
AcDbCircle
 62
7
  6
CONTINUOUS
 10
103.8954300144
 20
210.1953214286
 40
3.0
100
AcDbArc
 50
180.0
 51
270.0
  0
ARC
  5
286
100
AcDbEntity
  8
_1
100
AcDbCircle
 62
7
  6
CONTINUOUS
 10
123.8954300144
 20
210.1953214286
 40
2.75
100
AcDbArc
 50
214.4951529539
 51
54.902359309
  0
ARC
  5
287
100
AcDbEntity
  8
_1
100
AcDbCircle
 62
7
  6
CONTINUOUS
 10
103.8954300144
 20
210.1953214286
 40
2.75
100
AcDbArc
 50
125.0997983399
 51
325.5047344122
  0
ARC
  5
288
100
AcDbEntity
  8
_1
100
AcDbCircle
 62
7
  6
CONTINUOUS
 10
103.8954300144
 20
210.1953214286
 40
2.25
100
AcDbArc
 50
130.5879155205
 51
327.3297209884
  0
ARC
  5
289
100
AcDbEntity
  8
_1
100
AcDbCircle
 62
7
  6
CONTINUOUS
 10
123.8954300144
 20
210.1953214286
 40
2.25
100
AcDbArc
 50
212.6660295507
 51
49.4039463535
  0
SPLINE
  5
28A
100
AcDbEntity
  8
_1
100
AcDbSpline
 62
7
  6
CONTINUOUS
 70
0
 71
3
 72
14
 73
10
 74
0
 42
0.0000001
 43
0.0000001
 44
0.0000000001
 40
0.0
 40
0.0
 40
0.0
 40
0.0
 40
0.1247155698
 40
0.2495599353
 40
0.3745732505
 40
0.4996979572
 40
0.6248365831
 40
0.7499397601
 40
1.0
 40
1.0
 40
1.0
 40
1.0
 10
124.4914528613
 20
168.6953190184
 30
0.0
 10
124.5762650088
 20
170.2750524776
 30
0.0
 10
124.7613300671
 20
173.435336993
 30
0.0
 10
125.0733167552
 20
178.1765374219
 30
0.0
 10
125.4008903059
 20
182.9218684491
 30
0.0
 10
125.7010247181
 20
187.6728197579
 30
0.0
 10
125.9504399676
 20
192.4278733636
 30
0.0
 10
126.2230326278
 20
198.7683840866
 30
0.0
 10
126.3783110164
 20
203.5248600627
 30
0.0
 10
126.4770041282
 20
206.6953214286
 30
0.0
  0
SPLINE
  5
28B
100
AcDbEntity
  8
_1
100
AcDbSpline
 62
7
  6
CONTINUOUS
 70
0
 71
3
 72
10
 73
6
 74
0
 42
0.0000001
 43
0.0000001
 44
0.0000000001
 40
0.0
 40
0.0
 40
0.0
 40
0.0
 40
0.2374500603
 40
0.6091554886
 40
1.0
 40
1.0
 40
1.0
 40
1.0
 10
116.288200212
 20
168.6953214286
 30
0.0
 10
116.2746583784
 20
168.6982826921
 30
0.0
 10
116.2395326906
 20
168.7039973075
 30
0.0
 10
116.181058381
 20
168.708310964
 30
0.0
 10
116.1365504138
 20
168.701383692
 30
0.0
 10
116.1145538343
 20
168.6953214286
 30
0.0
  0
SPLINE
  5
28C
100
AcDbEntity
  8
_1
100
AcDbSpline
 62
7
  6
CONTINUOUS
 70
0
 71
3
 72
8
 73
4
 74
0
 42
0.0000001
 43
0.0000001
 44
0.0000000001
 40
0.0
 40
0.0
 40
0.0
 40
0.0
 40
1.0
 40
1.0
 40
1.0
 40
1.0
 10
115.9395189097
 20
168.6953214286
 30
0.0
 10
115.8938854276
 20
168.7311342353
 30
0.0
 10
115.8546382843
 20
168.7760953826
 30
0.0
 10
115.8235302461
 20
168.8250572227
 30
0.0
  0
SPLINE
  5
28D
100
AcDbEntity
  8
_1
100
AcDbSpline
 62
7
  6
CONTINUOUS
 70
0
 71
3
 72
10
 73
6
 74
0
 42
0.0000001
 43
0.0000001
 44
0.0000000001
 40
0.0
 40
0.0
 40
0.0
 40
0.0
 40
0.2498593103
 40
0.4998407416
 40
1.0
 40
1.0
 40
1.0
 40
1.0
 10
115.8235302461
 20
168.8250572227
 30
0.0
 10
115.80485295
 20
168.8544539587
 30
0.0
 10
115.7721073237
 20
168.9161459929
 30
0.0
 10
115.7145437246
 20
169.0430893449
 30
0.0
 10
115.6770557159
 20
169.1408425381
 30
0.0
 10
115.6541188038
 20
169.2066794315
 30
0.0
  0
SPLINE
  5
28E
100
AcDbEntity
  8
_1
100
AcDbSpline
 62
7
  6
CONTINUOUS
 70
0
 71
3
 72
10
 73
6
 74
0
 42
0.0000001
 43
0.0000001
 44
0.0000000001
 40
0.0
 40
0.0
 40
0.0
 40
0.0
 40
0.5001594416
 40
0.7501408034
 40
1.0
 40
1.0
 40
1.0
 40
1.0
 10
82.636741225
 20
169.2066794315
 30
0.0
 10
82.6137948308
 20
169.1408449678
 30
0.0
 10
82.5763131412
 20
169.0430885807
 30
0.0
 10
82.5187522214
 20
168.9161420569
 30
0.0
 10
82.486005324
 20
168.8544496927
 30
0.0
 10
82.4673267258
 20
168.8250533291
 30
0.0
  0
SPLINE
  5
28F
100
AcDbEntity
  8
_1
100
AcDbSpline
 62
7
  6
CONTINUOUS
 70
0
 71
3
 72
8
 73
4
 74
0
 42
0.0000001
 43
0.0000001
 44
0.0000000001
 40
0.0
 40
0.0
 40
0.0
 40
0.0
 40
1.0
 40
1.0
 40
1.0
 40
1.0
 10
82.4673267258
 20
168.8250533291
 30
0.0
 10
82.4362177321
 20
168.7760940182
 30
0.0
 10
82.3969692574
 20
168.7311382758
 30
0.0
 10
82.3513410088
 20
168.6953214286
 30
0.0
  0
SPLINE
  5
290
100
AcDbEntity
  8
_1
100
AcDbSpline
 62
7
  6
CONTINUOUS
 70
0
 71
3
 72
11
 73
7
 74
0
 42
0.0000001
 43
0.0000001
 44
0.0000000001
 40
0.0
 40
0.0
 40
0.0
 40
0.0
 40
0.2166218997
 40
0.4482737616
 40
0.7054675332
 40
1.0
 40
1.0
 40
1.0
 40
1.0
 10
71.9155654734
 20
208.4351756798
 30
0.0
 10
71.9643295317
 20
208.2505950093
 30
0.0
 10
72.1218350901
 20
207.8812250877
 30
0.0
 10
72.5295824774
 20
207.3993292282
 30
0.0
 10
73.1291198656
 20
207.0325289229
 30
0.0
 10
73.6212401505
 20
206.9395115244
 30
0.0
 10
73.8808147042
 20
206.9407934079
 30
0.0
  0
SPLINE
  5
291
100
AcDbEntity
  8
_1
100
AcDbSpline
 62
7
  6
CONTINUOUS
 70
0
 71
3
 72
14
 73
10
 74
0
 42
0.0000001
 43
0.0000001
 44
0.0000000001
 40
0.0
 40
0.0
 40
0.0
 40
0.0
 40
0.2500602399
 40
0.3751634169
 40
0.5003020427
 40
0.6254267494
 40
0.7504400646
 40
0.8752844301
 40
1.0
 40
1.0
 40
1.0
 40
1.0
 10
71.8138559007
 20
206.6953214286
 30
0.0
 10
71.9125490124
 20
203.5248600629
 30
0.0
 10
72.0678273988
 20
198.768384087
 30
0.0
 10
72.3404200382
 20
192.4278733643
 30
0.0
 10
72.5898352606
 20
187.6728197583
 30
0.0
 10
72.8899696351
 20
182.9218684482
 30
0.0
 10
73.2175431462
 20
178.1765374187
 30
0.0
 10
73.5295298041
 20
173.4353369869
 30
0.0
 10
73.7145948495
 20
170.2750524697
 30
0.0
 10
73.7994069922
 20
168.695319009
 30
0.0
  0
SPLINE
  5
292
100
AcDbEntity
  8
_1
100
AcDbSpline
 62
7
  6
CONTINUOUS
 70
0
 71
3
 72
11
 73
7
 74
0
 42
0.0000001
 43
0.0000001
 44
0.0000000001
 40
0.0
 40
0.0
 40
0.0
 40
0.0
 40
0.2499249916
 40
0.4998079197
 40
0.7498259301
 40
1.0
 40
1.0
 40
1.0
 40
1.0
 10
72.8218266244
 20
168.6953169768
 30
0.0
 10
72.7532671495
 20
171.8614199744
 30
0.0
 10
72.6140060284
 20
178.1930499825
 30
0.0
 10
72.3770991335
 20
187.691298035
 30
0.0
 10
72.1056979791
 20
197.1917739009
 30
0.0
 10
71.9119876279
 20
203.5268393657
 30
0.0
 10
71.8138559007
 20
206.6953214286
 30
0.0
  0
SPLINE
  5
293
100
AcDbEntity
  8
_1
100
AcDbSpline
 62
7
  6
CONTINUOUS
 70
0
 71
3
 72
11
 73
7
 74
0
 42
0.0000001
 43
0.0000001
 44
0.0000000001
 40
0.0
 40
0.0
 40
0.0
 40
0.0
 40
0.2945350275
 40
0.5517297502
 40
0.7833993095
 40
1.0
 40
1.0
 40
1.0
 40
1.0
 10
124.4100453247
 20
206.9407934079
 30
0.0
 10
124.6696054854
 20
206.9395115955
 30
0.0
 10
125.161696034
 20
207.0325200454
 30
0.0
 10
125.7612234627
 20
207.3992835001
 30
0.0
 10
126.1689617217
 20
207.8811313736
 30
0.0
 10
126.326481092
 20
208.2504623078
 30
0.0
 10
126.3752490301
 20
208.4350099551
 30
0.0
  0
SPLINE
  5
294
100
AcDbEntity
  8
_1
100
AcDbSpline
 62
7
  6
CONTINUOUS
 70
0
 71
3
 72
10
 73
6
 74
0
 42
0.0000001
 43
0.0000001
 44
0.0000000001
 40
0.0
 40
0.0
 40
0.0
 40
0.0
 40
0.2631460217
 40
0.6408487595
 40
1.0
 40
1.0
 40
1.0
 40
1.0
 10
82.1763062755
 20
168.6953214286
 30
0.0
 10
82.1614935355
 20
168.6994043362
 30
0.0
 10
82.1245982447
 20
168.7068257223
 30
0.0
 10
82.065830223
 20
168.7059285692
 30
0.0
 10
82.0231465331
 20
168.6998012241
 30
0.0
 10
82.0026597113
 20
168.6953214286
 30
0.0
  0
SPLINE
  5
295
100
AcDbEntity
  8
_1
100
AcDbSpline
 62
7
  6
CONTINUOUS
 70
0
 71
3
 72
11
 73
7
 74
0
 42
0.0000001
 43
0.0000001
 44
0.0000000001
 40
0.0
 40
0.0
 40
0.0
 40
0.0
 40
0.2501740699
 40
0.5001920803
 40
0.7500750084
 40
1.0
 40
1.0
 40
1.0
 40
1.0
 10
126.4770041282
 20
206.6953214286
 30
0.0
 10
126.378872401
 20
203.5268393658
 30
0.0
 10
126.1851620495
 20
197.1917739011
 30
0.0
 10
125.9137608936
 20
187.6912980352
 30
0.0
 10
125.6768539954
 20
178.1930499828
 30
0.0
 10
125.5375928719
 20
171.8614199749
 30
0.0
 10
125.4690333958
 20
168.6953169775
 30
0.0
  0
ELLIPSE
  5
296
100
AcDbEntity
  8
_1
100
AcDbEllipse
 62
7
  6
CONTINUOUS
 10
113.8954300144
 20
61.2835771398
 30
0.0
 11
-0.0
 21
-160.6319854394
 31
0.0
 40
0.0871557427
 41
2.7140339507
 42
3.1415926536
  0
ELLIPSE
  5
297
100
AcDbEntity
  8
_1
100
AcDbEllipse
 62
7
  6
CONTINUOUS
 10
113.8954300144
 20
61.2835771398
 30
0.0
 11
0.0
 21
160.6319854394
 31
0.0
 40
0.0871557427
 41
-0.0
 42
0.4275587029
  0
ELLIPSE
  5
298
100
AcDbEntity
  8
_1
100
AcDbEllipse
 62
7
  6
CONTINUOUS
 10
84.3954300144
 20
61.2835771398
 30
0.0
 11
-0.0
 21
-160.6319854394
 31
0.0
 40
0.0871557427
 41
2.7140339507
 42
3.1415926536
  0
ELLIPSE
  5
299
100
AcDbEntity
  8
_1
100
AcDbEllipse
 62
7
  6
CONTINUOUS
 10
84.3954300144
 20
61.2835771398
 30
0.0
 11
0.0
 21
160.6319854394
 31
0.0
 40
0.0871557427
 41
0.0
 42
0.4275587029
  0
ELLIPSE
  5
29A
100
AcDbEntity
  8
_1
100
AcDbEllipse
 62
7
  6
CONTINUOUS
 10
73.8863677222
 20
208.9462702721
 30
0.0
 11
1.4143212623
 21
1.4143212623
 31
0.0
 40
0.9999238505
 41
-3.598068205
 42
-2.3562325664
  0
ELLIPSE
  5
29B
100
AcDbEntity
  8
_1
100
AcDbEllipse
 62
7
  6
CONTINUOUS
 10
124.4044923066
 20
208.9462702721
 30
0.0
 11
1.4143212623
 21
-1.4143212623
 31
0.0
 40
0.9999238505
 41
-0.7853600872
 42
0.456475526
  0
ENDSEC
  0
SECTION
  2
OBJECTS
  0
DICTIONARY
  5
C
100
AcDbDictionary
280
0
281
1
  3
ACAD_GROUP
350
D
  3
ACAD_MLINESTYLE
350
17
  3
ACAD_LAYOUT
350
1A
  3
ACAD_PLOTSETTINGS
350
19
  3
ACAD_PLOTSTYLENAME
350
E
  0
DICTIONARY
  5
D
102
{ACAD_REACTORS
330
C
102
}
100
AcDbDictionary
280
0
281
1
  0
ACDBDICTIONARYWDFLT
  5
E
102
{ACAD_REACTORS
330
C
102
}
100
AcDbDictionary
281
1
  3
Normal
350
F
100
AcDbDictionaryWithDefault
340
F
  0
DICTIONARY
  5
17
102
{ACAD_REACTORS
330
C
102
}
100
AcDbDictionary
280
0
281
1
  3
Standard
350
18
  0
DICTIONARY
  5
19
102
{ACAD_REACTORS
330
C
102
}
100
AcDbDictionary
281
1
  0
DICTIONARY
  5
1A
102
{ACAD_REACTORS
330
C
102
}
100
AcDbDictionary
281
1
  3
Model
350
29C
  3
Layout1
350
29D
  0
ACDBPLACEHOLDER
  5
F
102
{ACAD_REACTORS
330
E
102
}
  0
MLINESTYLE
  5
18
102
{ACAD_REACTORS
330
17
102
}
100
AcDbMlineStyle
  2
STANDARD
 70
0
  3

 62
256
 51
90.0
 52
90.0
 71
2
 49
0.5
 62
256
  6
BYLAYER
 49
-0.5
 62
256
  6
BYLAYER
  0
LAYOUT
  5
29C
102
{ACAD_REACTORS
330
1A
102
}
100
AcDbPlotSettings
  1

  2
none_device
  4

  6

 40
0.0
 41
0.0
 42
0.0
 43
0.0
 44
210.0
 45
297.0
 46
0.0
 47
0.0
 48
0.0
 49
0.0
140
0.0
141
0.0
142
1.0
143
1.0
 70
1024
 72
1
 73
0
 74
0
  7

 75
0
147
1.0
148
0.0
149
0.0
100
AcDbLayout
  1
Model
 70
0
 71
0
 10
0.0
 20
0.0
 11
210.0
 21
297.0
 12
0.0
 22
0.0
 32
0.0
 14
0.0
 24
0.0
 34
0.0
 15
0.0
 25
0.0
 35
0.0
146
0.0
 13
0.0
 23
0.0
 33
0.0
 16
1.0
 26
0.0
 36
0.0
 17
0.0
 27
1.0
 37
0.0
 76
0
330
211
345
0
346
0
  0
LAYOUT
  5
29D
102
{ACAD_REACTORS
330
1A
102
}
100
AcDbPlotSettings
  1

  2
none_device
  4

  6

 40
0.0
 41
0.0
 42
0.0
 43
0.0
 44
210.0
 45
297.0
 46
0.0
 47
0.0
 48
0.0
 49
0.0
140
0.0
141
0.0
142
1.0
143
1.0
 70
0
 72
1
 73
0
 74
0
  7

 75
0
147
1.0
148
0.0
149
0.0
100
AcDbLayout
  1
Layout1
 70
0
 71
1
 10
0.0
 20
0.0
 11
210.0
 21
297.0
 12
0.0
 22
0.0
 32
0.0
 14
0.0
 24
0.0
 34
0.0
 15
0.0
 25
0.0
 35
0.0
146
0.0
 13
0.0
 23
0.0
 33
0.0
 16
1.0
 26
0.0
 36
0.0
 17
0.0
 27
1.0
 37
0.0
 76
0
330
212
345
0
346
0
  0
ENDSEC
  0
EOF
