999
DXF file: C:\Users\sesa63760\Dev\_Creo\CAD\MCADID0005791_3D-CAD\mcadid0005791_3d-simplified_2.dxf
999
Pro/ENGINEER 2019471 by Parametric Technology Corporation
  0
SECTION
  2
HEADER
  9
$ACADVER
  1
AC1024
  9
$DWGCODEPAGE
  3
ANSI_1252
  9
$EXTMAX
 10
37.6307959772
 20
53.2206971678
 30
0.0
  9
$EXTMIN
 10
0.0
 20
0.0
 30
0.0
  9
$LIMMIN
 10
0.0
 20
0.0
  9
$LIMMAX
 10
37.6307959772
 20
53.2206971678
  9
$VIEWCTR
 10
18.8153979886
 20
26.6103485839
  9
$VIEWSIZE
 40
53.2206971678
  9
$CLAYER
  8
0
  9
$LTSCALE
 40
3.4692010006
  9
$CELTYPE
  6
BYLAYER
  9
$DIMSCALE
 40
1.0
  9
$DIMASZ
 40
0.4479856664
  9
$DIMEXO
 40
1.0
  9
$DIMDLI
 40
2.3969025095
  9
$DIMEXE
 40
1.0
  9
$DIMCEN
 40
0.5676874365
  9
$DIMLFAC
 40
1.0
  9
$DIMBLK
  1
_FILLED
  9
$DIMALT
 70
0
  9
$DIMALTF
 40
0.0393700787
  9
$DIMTXT
 40
0.627179933
  9
$DIMTOL
 70
1
  9
$DIMLIM
 70
0
  9
$DIMTFAC
 40
1.0
  9
$DIMTP
 40
0.01
  9
$DIMTM
 40
0.01
  9
$DIMGAP
 40
0.625
  9
$DIMDSEP
 70
46
  9
$AUNITS
 70
0
  9
$PDMODE
 70
3
  9
$PDSIZE
 40
0.3125
  9
$HANDSEED
  5
291
  9
$TILEMODE
 70
1
  9
$MEASUREMENT
 70
1
  9
$INSUNITS
 70
4
  0
ENDSEC
  0
SECTION
  2
CLASSES
  0
CLASS
  1
ACDBDICTIONARYWDFLT
  2
AcDbDictionaryWithDefault
  3
AutoCAD 2000
 90
0
 91
1
280
0
281
0
  0
CLASS
  1
ACDBPLACEHOLDER
  2
AcDbPlaceHolder
  3
AutoCAD 2000
 90
0
 91
1
280
0
281
0
  0
CLASS
  1
LAYOUT
  2
AcDbLayout
  3
AutoCAD 2000
 90
0
 91
0
280
0
281
0
  0
ENDSEC
  0
SECTION
  2
TABLES
  0
TABLE
  2
VPORT
  5
8
100
AcDbSymbolTable
 70
2
  0
VPORT
  5
1F4
100
AcDbSymbolTableRecord
100
AcDbViewportTableRecord
  2
*ACTIVE
 70
0
 10
0.0
 20
0.0
 11
1.0
 21
1.0
 12
18.8153979886
 22
26.6103485839
 13
0.0
 23
0.0
 14
1.0
 24
1.0
 15
0.0
 25
0.0
 16
0.0
 26
0.0
 36
1.0
 17
0.0
 27
0.0
 37
0.0
 40
53.2206971678
 41
0.7070707071
 42
50.0
 43
0.0
 44
0.0
 50
0.0
 51
0.0
 71
0
 72
100
 73
1
 74
1
 75
0
 76
0
 77
0
 78
0
  0
ENDTAB
  0
TABLE
  2
LTYPE
  5
5
100
AcDbSymbolTable
 70
6
  0
LTYPE
  5
14
100
AcDbSymbolTableRecord
100
AcDbLinetypeTableRecord
  2
BYBLOCK
 70
0
  3

 72
65
 73
0
 40
0.0
  0
LTYPE
  5
15
100
AcDbSymbolTableRecord
100
AcDbLinetypeTableRecord
  2
BYLAYER
 70
0
  3

 72
65
 73
0
 40
0.0
  0
LTYPE
  5
16
100
AcDbSymbolTableRecord
100
AcDbLinetypeTableRecord
  2
CONTINUOUS
 70
64
  3
Solid line
 72
65
 73
0
 40
0.0
  0
LTYPE
  5
1F5
100
AcDbSymbolTableRecord
100
AcDbLinetypeTableRecord
  2
CENTER
 70
64
  3
____ _ ____ _ ____ _ ____ _ ____ _ ____ _ ____
 72
65
 73
4
 40
0.6
 49
0.375
 74
0
 49
-0.075
 74
0
 49
0.075
 74
0
 49
-0.075
 74
0
  0
LTYPE
  5
1F6
100
AcDbSymbolTableRecord
100
AcDbLinetypeTableRecord
  2
HIDDEN
 70
64
  3
- - - - - - - - - - - - - - - - - - - -
 72
65
 73
2
 40
0.2
 49
0.1
 74
0
 49
-0.1
 74
0
  0
LTYPE
  5
1F7
100
AcDbSymbolTableRecord
100
AcDbLinetypeTableRecord
  2
PHANTOM
 70
64
  3
_____ _ _ _____ _ _ _____ _ _ _____
 72
65
 73
6
 40
0.8
 49
0.45
 74
0
 49
-0.05
 74
0
 49
0.1
 74
0
 49
-0.05
 74
0
 49
0.1
 74
0
 49
-0.05
 74
0
  0
LTYPE
  5
1F8
100
AcDbSymbolTableRecord
100
AcDbLinetypeTableRecord
  2
DOT
 70
64
  3
. . . . . . . . . . . . . . . . . . . .
 72
65
 73
2
 40
0.2
 49
0.1
 74
0
 49
-0.1
 74
0
  0
LTYPE
  5
1F9
100
AcDbSymbolTableRecord
100
AcDbLinetypeTableRecord
  2
DASHED
 70
64
  3
- - - - - - - - - - - - - - - - - - - -
 72
65
 73
2
 40
0.2
 49
0.1
 74
0
 49
-0.1
 74
0
  0
ENDTAB
  0
TABLE
  2
LAYER
  5
2
100
AcDbSymbolTable
 70
36
  0
LAYER
  5
10
100
AcDbSymbolTableRecord
100
AcDbLayerTableRecord
  2
0
 70
0
 62
7
  6
CONTINUOUS
370
-3
390
F
  0
LAYER
  5
1FA
100
AcDbSymbolTableRecord
100
AcDbLayerTableRecord
  2
DEFAULT_1
 70
0
 62
7
  6
CENTER
370
-3
390
F
  0
LAYER
  5
1FB
100
AcDbSymbolTableRecord
100
AcDbLayerTableRecord
  2
DEFAULT_2
 70
0
 62
7
  6
HIDDEN
370
-3
390
F
  0
LAYER
  5
1FC
100
AcDbSymbolTableRecord
100
AcDbLayerTableRecord
  2
DEFAULT_3
 70
0
 62
7
  6
PHANTOM
370
-3
390
F
  0
LAYER
  5
1FD
100
AcDbSymbolTableRecord
100
AcDbLayerTableRecord
  2
00_COMPONENTS
 70
0
 62
7
  6
CONTINUOUS
370
-3
390
F
  0
LAYER
  5
1FE
100
AcDbSymbolTableRecord
100
AcDbLayerTableRecord
  2
01_1_DEFAULT_DATUMS
 70
0
 62
7
  6
CONTINUOUS
370
-3
390
F
  0
LAYER
  5
1FF
100
AcDbSymbolTableRecord
100
AcDbLayerTableRecord
  2
01_PLANES
 70
0
 62
7
  6
CONTINUOUS
370
-3
390
F
  0
LAYER
  5
200
100
AcDbSymbolTableRecord
100
AcDbLayerTableRecord
  2
02_COORD_SYS
 70
0
 62
7
  6
CONTINUOUS
370
-3
390
F
  0
LAYER
  5
201
100
AcDbSymbolTableRecord
100
AcDbLayerTableRecord
  2
03_AXES
 70
0
 62
7
  6
CONTINUOUS
370
-3
390
F
  0
LAYER
  5
202
100
AcDbSymbolTableRecord
100
AcDbLayerTableRecord
  2
04_POINTS
 70
0
 62
7
  6
CONTINUOUS
370
-3
390
F
  0
LAYER
  5
203
100
AcDbSymbolTableRecord
100
AcDbLayerTableRecord
  2
05_CURVES
 70
0
 62
7
  6
CONTINUOUS
370
-3
390
F
  0
LAYER
  5
204
100
AcDbSymbolTableRecord
100
AcDbLayerTableRecord
  2
06_SURFS
 70
0
 62
7
  6
CONTINUOUS
370
-3
390
F
  0
LAYER
  5
205
100
AcDbSymbolTableRecord
100
AcDbLayerTableRecord
  2
07_COSMETICS
 70
0
 62
7
  6
CONTINUOUS
370
-3
390
F
  0
LAYER
  5
206
100
AcDbSymbolTableRecord
100
AcDbLayerTableRecord
  2
10_NOTES
 70
0
 62
7
  6
CONTINUOUS
370
-3
390
F
  0
LAYER
  5
207
100
AcDbSymbolTableRecord
100
AcDbLayerTableRecord
  2
11_NOTES_PUB
 70
0
 62
7
  6
CONTINUOUS
370
-3
390
F
  0
LAYER
  5
208
100
AcDbSymbolTableRecord
100
AcDbLayerTableRecord
  2
13_REF_GTOL
 70
0
 62
7
  6
CONTINUOUS
370
-3
390
F
  0
LAYER
  5
209
100
AcDbSymbolTableRecord
100
AcDbLayerTableRecord
  2
16_MISC
 70
0
 62
7
  6
CONTINUOUS
370
-3
390
F
  0
LAYER
  5
20A
100
AcDbSymbolTableRecord
100
AcDbLayerTableRecord
  2
17_NO_PRINT
 70
0
 62
7
  6
CONTINUOUS
370
-3
390
F
  0
LAYER
  5
20B
100
AcDbSymbolTableRecord
100
AcDbLayerTableRecord
  2
18_DATUM_CAMS_JOINTS
 70
0
 62
7
  6
CONTINUOUS
370
-3
390
F
  0
LAYER
  5
20C
100
AcDbSymbolTableRecord
100
AcDbLayerTableRecord
  2
19_DATUM_FUNCTIONAL
 70
0
 62
7
  6
CONTINUOUS
370
-3
390
F
  0
LAYER
  5
20D
100
AcDbSymbolTableRecord
100
AcDbLayerTableRecord
  2
20_DATUM_KINEMATIC_SCHEME
 70
0
 62
7
  6
CONTINUOUS
370
-3
390
F
  0
ENDTAB
  0
TABLE
  2
STYLE
  5
3
100
AcDbSymbolTable
 70
1
  0
STYLE
  5
11
100
AcDbSymbolTableRecord
100
AcDbTextStyleTableRecord
  2
STANDARD
 70
0
 40
0.0
 41
1.0
 50
0.0
 71
0
 42
0.2
  3
ARIAL.TTF
  4

  0
STYLE
  5
20E
100
AcDbSymbolTableRecord
100
AcDbTextStyleTableRecord
  2
TEXTSTYLE_1
 70
0
 40
0.0
 41
0.8
 50
0.0
 71
0
 42
0.2
  3
gdt
  4

  0
ENDTAB
  0
TABLE
  2
VIEW
  5
6
100
AcDbSymbolTable
 70
0
  0
ENDTAB
  0
TABLE
  2
UCS
  5
7
100
AcDbSymbolTable
 70
0
  0
ENDTAB
  0
TABLE
  2
APPID
  5
9
100
AcDbSymbolTable
 70
1
  0
APPID
  5
20F
100
AcDbSymbolTableRecord
100
AcDbRegAppTableRecord
  2
ACAD
 70
0
  0
ENDTAB
  0
TABLE
  2
BLOCK_RECORD
  5
1
100
AcDbSymbolTable
 70
0
  0
BLOCK_RECORD
  5
210
100
AcDbSymbolTableRecord
100
AcDbBlockTableRecord
  2
*Model_Space
  0
BLOCK_RECORD
  5
211
100
AcDbSymbolTableRecord
100
AcDbBlockTableRecord
  2
*Paper_Space
  0
BLOCK_RECORD
  5
212
100
AcDbSymbolTableRecord
100
AcDbBlockTableRecord
  2
_FILLED
  0
ENDTAB
  0
TABLE
  2
DIMSTYLE
  5
A
100
AcDbSymbolTable
 70
1
100
AcDbDimStyleTable
 71
0
  0
DIMSTYLE
105
213
100
AcDbSymbolTableRecord
100
AcDbDimStyleTableRecord
  2
STANDARD
 70
0
  3

  4

 40
1.0
 41
0.4479856664
 42
1.0
 43
0.38
 44
1.0
 45
0.0
 46
0.0
 47
0.01
 48
0.01
140
0.627179933
141
0.09
142
0.0
143
25.4
144
1.0
145
0.0
146
1.0
147
0.625
 71
1
 72
0
 73
0
 74
0
 75
0
 76
0
 77
1
 78
8
 79
2
170
0
171
1
172
0
173
0
174
0
175
0
176
0
177
0
178
0
270
2
179
2
271
2
272
2
273
2
274
2
275
0
280
0
281
0
282
0
283
1
284
8
285
0
286
0
287
3
288
0
340
11
278
46
341
212
342
212
343
212
344
212
  0
ENDTAB
  0
ENDSEC
  0
SECTION
  2
BLOCKS
  0
BLOCK
  5
20
100
AcDbEntity
  8
0
100
AcDbBlockBegin
  2
*Model_Space
 70
0
 10
0.0
 20
0.0
 30
0.0
  3
*Model_Space
  1

  0
ENDBLK
  5
21
100
AcDbEntity
  8
0
100
AcDbBlockEnd
  0
BLOCK
  5
1C
100
AcDbEntity
  8
0
100
AcDbBlockBegin
  2
*Paper_Space
 70
0
 10
0.0
 20
0.0
 30
0.0
  3
*Paper_Space
  1

  0
ENDBLK
  5
1D
100
AcDbEntity
  8
0
100
AcDbBlockEnd
  0
BLOCK
  5
214
100
AcDbEntity
  8
0
100
AcDbBlockBegin
  2
_FILLED
 70
64
 10
0.0
 20
0.0
  3
_FILLED
  1

  0
SOLID
  5
215
100
AcDbEntity
  8
0
  6
BYBLOCK
 62
0
100
AcDbTrace
 10
0.0
 20
0.0
 11
-1.0
 21
0.25
 12
-1.0
 22
-0.25
 13
-1.0
 23
-0.25
  0
ENDBLK
  5
216
100
AcDbEntity
  8
0
  6
BYBLOCK
 62
0
100
AcDbBlockEnd
  0
ENDSEC
  0
SECTION
  2
ENTITIES
  0
LINE
  5
217
100
AcDbEntity
  8
0
100
AcDbLine
 62
7
  6
BYLAYER
 10
22.0259644374
 20
3.7705309024
 11
16.1259644374
 21
3.7705309024
  0
LINE
  5
218
100
AcDbEntity
  8
0
100
AcDbLine
 62
7
  6
BYLAYER
 10
15.3259644374
 20
5.5547414287
 11
17.2601971962
 21
5.5547414287
  0
LINE
  5
219
100
AcDbEntity
  8
0
100
AcDbLine
 62
7
  6
BYLAYER
 10
20.0926245066
 20
5.5547414287
 11
22.8259644374
 21
5.5547414287
  0
LINE
  5
21A
100
AcDbEntity
  8
0
100
AcDbLine
 62
7
  6
BYLAYER
 10
21.3025616018
 20
6.6046144098
 11
21.0750599776
 21
6.6046144098
  0
LINE
  5
21B
100
AcDbEntity
  8
0
100
AcDbLine
 62
7
  6
BYLAYER
 10
16.1977256607
 20
6.9066326158
 11
12.4259644374
 21
8.6547414287
  0
LINE
  5
21C
100
AcDbEntity
  8
0
100
AcDbLine
 62
7
  6
BYLAYER
 10
12.4259644374
 20
8.6547414287
 11
10.4259644374
 21
8.6547414287
  0
LINE
  5
21D
100
AcDbEntity
  8
0
100
AcDbLine
 62
7
  6
BYLAYER
 10
14.4259644374
 20
9.3547414287
 11
24.8259644374
 21
9.3547414287
  0
LINE
  5
21E
100
AcDbEntity
  8
0
100
AcDbLine
 62
7
  6
BYLAYER
 10
27.7259644374
 20
9.6547414287
 11
25.7259644374
 21
9.6547414287
  0
LINE
  5
21F
100
AcDbEntity
  8
0
100
AcDbLine
 62
7
  6
BYLAYER
 10
34.0259644374
 20
10.1547414287
 11
27.7259644374
 21
10.1547414287
  0
LINE
  5
220
100
AcDbEntity
  8
0
100
AcDbLine
 62
7
  6
BYLAYER
 10
10.4259644374
 20
10.1547414287
 11
4.1259644374
 21
10.1547414287
  0
LINE
  5
221
100
AcDbEntity
  8
0
100
AcDbLine
 62
7
  6
BYLAYER
 10
33.9009644374
 20
10.3547414287
 11
24.1009644374
 21
10.3547414287
  0
LINE
  5
222
100
AcDbEntity
  8
0
100
AcDbLine
 62
7
  6
BYLAYER
 10
14.0509644374
 20
10.3547414287
 11
4.2509644374
 21
10.3547414287
  0
LINE
  5
223
100
AcDbEntity
  8
0
100
AcDbLine
 62
7
  6
BYLAYER
 10
4.1259644374
 20
42.8547414287
 11
4.1259644374
 21
10.1547414287
  0
LINE
  5
224
100
AcDbEntity
  8
0
100
AcDbLine
 62
7
  6
BYLAYER
 10
4.2509644374
 20
42.3547414287
 11
4.2509644374
 21
10.3547414287
  0
LINE
  5
225
100
AcDbEntity
  8
0
100
AcDbLine
 62
7
  6
BYLAYER
 10
4.3259644374
 20
42.3547414287
 11
4.3259644374
 21
43.1547414287
  0
LINE
  5
226
100
AcDbEntity
  8
0
100
AcDbLine
 62
7
  6
BYLAYER
 10
4.4109644374
 20
49.2547414287
 11
4.4109644374
 21
43.1547414287
  0
LINE
  5
227
100
AcDbEntity
  8
0
100
AcDbLine
 62
7
  6
BYLAYER
 10
14.0509644374
 20
10.5547414287
 11
24.1009644374
 21
10.5547414287
  0
LINE
  5
228
100
AcDbEntity
  8
0
100
AcDbLine
 62
7
  6
BYLAYER
 10
34.0259644374
 20
10.9347414287
 11
33.9009644374
 21
10.9347414287
  0
LINE
  5
229
100
AcDbEntity
  8
0
100
AcDbLine
 62
7
  6
BYLAYER
 10
4.2509644374
 20
10.9347414287
 11
4.1259644374
 21
10.9347414287
  0
LINE
  5
22A
100
AcDbEntity
  8
0
100
AcDbLine
 62
7
  6
BYLAYER
 10
33.9009644374
 20
11.8547414287
 11
24.1009644374
 21
11.8547414287
  0
LINE
  5
22B
100
AcDbEntity
  8
0
100
AcDbLine
 62
7
  6
BYLAYER
 10
14.0509644374
 20
11.8547414287
 11
4.2509644374
 21
11.8547414287
  0
LINE
  5
22C
100
AcDbEntity
  8
0
100
AcDbLine
 62
7
  6
BYLAYER
 10
6.9109644374
 20
43.1547414287
 11
6.9109644374
 21
49.2547414287
  0
LINE
  5
22D
100
AcDbEntity
  8
0
100
AcDbLine
 62
7
  6
BYLAYER
 10
6.573585497
 20
33.6699719277
 11
6.2442142483
 21
34.6878943492
  0
LINE
  5
22E
100
AcDbEntity
  8
0
100
AcDbLine
 62
7
  6
BYLAYER
 10
10.4259644374
 20
10.1547414287
 11
10.4259644374
 21
8.6547414287
  0
LWPOLYLINE
  5
22F
100
AcDbEntity
  8
0
100
AcDbPolyline
 62
7
  6
BYLAYER
 90
3
 70
0
 10
12.1173629873
 20
35.1287706796
 10
11.7970482345
 20
33.8049248596
 10
10.7479791168
 20
32.6967351407
  0
LINE
  5
230
100
AcDbEntity
  8
0
100
AcDbLine
 62
7
  6
BYLAYER
 10
4.1259644374
 20
19.1547414287
 11
4.2509644374
 21
19.1547414287
  0
LINE
  5
231
100
AcDbEntity
  8
0
100
AcDbLine
 62
7
  6
BYLAYER
 10
33.9009644374
 20
19.1547414287
 11
34.0259644374
 21
19.1547414287
  0
LINE
  5
232
100
AcDbEntity
  8
0
100
AcDbLine
 62
7
  6
BYLAYER
 10
12.3259644374
 20
7.5705309024
 11
12.3259644374
 21
8.6547414287
  0
LINE
  5
233
100
AcDbEntity
  8
0
100
AcDbLine
 62
7
  6
BYLAYER
 10
22.3259644374
 20
20.3547414287
 11
15.8259644374
 21
20.3547414287
  0
LINE
  5
234
100
AcDbEntity
  8
0
100
AcDbLine
 62
7
  6
BYLAYER
 10
22.3259644374
 20
21.2207668325
 11
15.8259644374
 21
21.2207668325
  0
LINE
  5
235
100
AcDbEntity
  8
0
100
AcDbLine
 62
7
  6
BYLAYER
 10
14.0509644374
 20
10.3547414287
 11
14.0509644374
 21
42.3547414287
  0
LINE
  5
236
100
AcDbEntity
  8
0
100
AcDbLine
 62
7
  6
BYLAYER
 10
14.4259644374
 20
9.3547414287
 11
14.4259644374
 21
10.5547414287
  0
LINE
  5
237
100
AcDbEntity
  8
0
100
AcDbLine
 62
7
  6
BYLAYER
 10
14.8259644374
 20
7.5424066592
 11
14.8259644374
 21
6.0547414287
  0
LINE
  5
238
100
AcDbEntity
  8
0
100
AcDbLine
 62
7
  6
BYLAYER
 10
15.8259644374
 20
22.3547414287
 11
22.3259644374
 21
22.3547414287
  0
LINE
  5
239
100
AcDbEntity
  8
0
100
AcDbLine
 62
7
  6
BYLAYER
 10
34.0259644374
 20
22.6047414287
 11
33.9009644374
 21
22.6047414287
  0
LINE
  5
23A
100
AcDbEntity
  8
0
100
AcDbLine
 62
7
  6
BYLAYER
 10
4.2509644374
 20
22.6047414287
 11
4.1259644374
 21
22.6047414287
  0
LWPOLYLINE
  5
23B
100
AcDbEntity
  8
0
100
AcDbPolyline
 62
7
  6
BYLAYER
 90
3
 70
0
 10
29.0009705084
 20
20.0552418716
 10
30.5039730733
 20
19.657705351
 10
31.5968400247
 20
18.581752149
  0
LINE
  5
23C
100
AcDbEntity
  8
0
100
AcDbLine
 62
7
  6
BYLAYER
 10
15.8259644374
 20
20.3547414287
 11
15.8259644374
 21
24.8547414287
  0
LINE
  5
23D
100
AcDbEntity
  8
0
100
AcDbLine
 62
7
  6
BYLAYER
 10
15.8259644374
 20
35.8547414287
 11
15.8259644374
 21
40.3547414287
  0
LINE
  5
23E
100
AcDbEntity
  8
0
100
AcDbLine
 62
7
  6
BYLAYER
 10
15.9439611605
 20
8.2706671064
 11
15.9439611605
 21
7.8365466623
  0
LINE
  5
23F
100
AcDbEntity
  8
0
100
AcDbLine
 62
7
  6
BYLAYER
 10
22.3259644374
 20
24.8547414287
 11
15.8259644374
 21
24.8547414287
  0
LINE
  5
240
100
AcDbEntity
  8
0
100
AcDbLine
 62
7
  6
BYLAYER
 10
21.4059156347
 20
8.2706671064
 11
21.4059156347
 21
7.8365466623
  0
LINE
  5
241
100
AcDbEntity
  8
0
100
AcDbLine
 62
7
  6
BYLAYER
 10
22.3259644374
 20
20.3547414287
 11
22.3259644374
 21
24.8547414287
  0
LINE
  5
242
100
AcDbEntity
  8
0
100
AcDbLine
 62
7
  6
BYLAYER
 10
22.3259644374
 20
35.8547414287
 11
22.3259644374
 21
40.3547414287
  0
LINE
  5
243
100
AcDbEntity
  8
0
100
AcDbLine
 62
7
  6
BYLAYER
 10
34.0259644374
 20
29.5233000823
 11
33.9009644374
 21
29.5233000823
  0
LINE
  5
244
100
AcDbEntity
  8
0
100
AcDbLine
 62
7
  6
BYLAYER
 10
4.2509644374
 20
29.5233000823
 11
4.1259644374
 21
29.5233000823
  0
LINE
  5
245
100
AcDbEntity
  8
0
100
AcDbLine
 62
7
  6
BYLAYER
 10
34.0259644374
 20
30.235046884
 11
33.9009644374
 21
30.235046884
  0
LINE
  5
246
100
AcDbEntity
  8
0
100
AcDbLine
 62
7
  6
BYLAYER
 10
4.2509644374
 20
30.235046884
 11
4.1259644374
 21
30.235046884
  0
LWPOLYLINE
  5
247
100
AcDbEntity
  8
0
100
AcDbPolyline
 62
7
  6
BYLAYER
 90
3
 70
0
 10
9.1508816536
 20
32.2401808437
 10
7.6633558216
 20
32.6232636347
 10
6.573585497
 20
33.6699719277
  0
LINE
  5
248
100
AcDbEntity
  8
0
100
AcDbLine
 62
7
  6
BYLAYER
 10
23.3259644374
 20
6.0547414287
 11
23.3259644374
 21
7.542406643
  0
LINE
  5
249
100
AcDbEntity
  8
0
100
AcDbLine
 62
7
  6
BYLAYER
 10
24.1009644374
 20
42.3547414287
 11
24.1009644374
 21
10.3547414287
  0
LINE
  5
24A
100
AcDbEntity
  8
0
100
AcDbLine
 62
7
  6
BYLAYER
 10
24.8259644374
 20
10.3547414287
 11
24.8259644374
 21
9.3547414287
  0
LINE
  5
24B
100
AcDbEntity
  8
0
100
AcDbLine
 62
7
  6
BYLAYER
 10
25.7259644374
 20
8.6547414287
 11
25.7259644374
 21
9.6547414287
  0
LINE
  5
24C
100
AcDbEntity
  8
0
100
AcDbLine
 62
7
  6
BYLAYER
 10
25.8259644374
 20
9.6547414287
 11
25.8259644374
 21
7.5705309024
  0
LINE
  5
24D
100
AcDbEntity
  8
0
100
AcDbLine
 62
7
  6
BYLAYER
 10
27.7259644374
 20
9.6547414287
 11
27.7259644374
 21
10.1547414287
  0
LWPOLYLINE
  5
24E
100
AcDbEntity
  8
0
100
AcDbPolyline
 62
7
  6
BYLAYER
 90
4
 70
0
 10
26.1168050299
 20
17.5321016357
 10
26.3932292581
 20
18.5614001866
 10
27.4889913591
 20
19.6525726329
 10
29.0009705084
 20
20.0552418716
  0
LWPOLYLINE
  5
24F
100
AcDbEntity
  8
0
100
AcDbPolyline
 62
7
  6
BYLAYER
 90
4
 70
0
 10
31.9369438859
 20
34.7722740806
 10
31.6088712201
 20
33.7213465979
 10
30.5130787986
 20
32.6370743768
 10
29.0010471976
 20
32.2401808367
  0
LINE
  5
250
100
AcDbEntity
  8
0
100
AcDbLine
 62
7
  6
BYLAYER
 10
15.8259644374
 20
35.8547414287
 11
22.3259644374
 21
35.8547414287
  0
LINE
  5
251
100
AcDbEntity
  8
0
100
AcDbLine
 62
7
  6
BYLAYER
 10
34.0259644374
 20
36.5547414287
 11
33.9009644374
 21
36.5547414287
  0
LINE
  5
252
100
AcDbEntity
  8
0
100
AcDbLine
 62
7
  6
BYLAYER
 10
4.2509644374
 20
36.5547414287
 11
4.1259644374
 21
36.5547414287
  0
LINE
  5
253
100
AcDbEntity
  8
0
100
AcDbLine
 62
7
  6
BYLAYER
 10
31.5968400247
 20
18.581752149
 11
31.8807920399
 21
17.5411524858
  0
LINE
  5
254
100
AcDbEntity
  8
0
100
AcDbLine
 62
7
  6
BYLAYER
 10
31.2409644374
 20
49.2547414287
 11
31.2409644374
 21
43.1547414287
  0
LINE
  5
255
100
AcDbEntity
  8
0
100
AcDbLine
 62
7
  6
BYLAYER
 10
22.3259644374
 20
38.3547414287
 11
15.8259644374
 21
38.3547414287
  0
LINE
  5
256
100
AcDbEntity
  8
0
100
AcDbLine
 62
7
  6
BYLAYER
 10
33.7409644374
 20
43.1547414287
 11
33.7409644374
 21
49.2547414287
  0
LINE
  5
257
100
AcDbEntity
  8
0
100
AcDbLine
 62
7
  6
BYLAYER
 10
33.8259644374
 20
42.3547414287
 11
33.8259644374
 21
43.1547414287
  0
LINE
  5
258
100
AcDbEntity
  8
0
100
AcDbLine
 62
7
  6
BYLAYER
 10
15.8259644374
 20
39.488716025
 11
22.3259644374
 21
39.488716025
  0
LINE
  5
259
100
AcDbEntity
  8
0
100
AcDbLine
 62
7
  6
BYLAYER
 10
15.8259644374
 20
40.3547414287
 11
22.3259644374
 21
40.3547414287
  0
LINE
  5
25A
100
AcDbEntity
  8
0
100
AcDbLine
 62
7
  6
BYLAYER
 10
4.2509644374
 20
40.8547414287
 11
14.0509644374
 21
40.8547414287
  0
LINE
  5
25B
100
AcDbEntity
  8
0
100
AcDbLine
 62
7
  6
BYLAYER
 10
24.1009644374
 20
40.8547414287
 11
33.9009644374
 21
40.8547414287
  0
LINE
  5
25C
100
AcDbEntity
  8
0
100
AcDbLine
 62
7
  6
BYLAYER
 10
33.9009644374
 20
10.3547414287
 11
33.9009644374
 21
42.3547414287
  0
LINE
  5
25D
100
AcDbEntity
  8
0
100
AcDbLine
 62
7
  6
BYLAYER
 10
34.0259644374
 20
10.1547414287
 11
34.0259644374
 21
42.8547414287
  0
LINE
  5
25E
100
AcDbEntity
  8
0
100
AcDbLine
 62
7
  6
BYLAYER
 10
14.0509644374
 20
41.9547414287
 11
24.1009644374
 21
41.9547414287
  0
LINE
  5
25F
100
AcDbEntity
  8
0
100
AcDbLine
 62
7
  6
BYLAYER
 10
33.9009644374
 20
42.3547414287
 11
24.1009644374
 21
42.3547414287
  0
LINE
  5
260
100
AcDbEntity
  8
0
100
AcDbLine
 62
7
  6
BYLAYER
 10
14.0509644374
 20
42.3547414287
 11
4.2509644374
 21
42.3547414287
  0
LINE
  5
261
100
AcDbEntity
  8
0
100
AcDbLine
 62
7
  6
BYLAYER
 10
4.1259644374
 20
42.8547414287
 11
4.3259644374
 21
42.8547414287
  0
LINE
  5
262
100
AcDbEntity
  8
0
100
AcDbLine
 62
7
  6
BYLAYER
 10
33.8259644374
 20
42.8547414287
 11
34.0259644374
 21
42.8547414287
  0
LINE
  5
263
100
AcDbEntity
  8
0
100
AcDbLine
 62
7
  6
BYLAYER
 10
4.3259644374
 20
43.1547414287
 11
33.8259644374
 21
43.1547414287
  0
LINE
  5
264
100
AcDbEntity
  8
0
100
AcDbLine
 62
7
  6
BYLAYER
 10
4.4109644374
 20
44.2547414287
 11
6.9109644374
 21
44.2547414287
  0
LINE
  5
265
100
AcDbEntity
  8
0
100
AcDbLine
 62
7
  6
BYLAYER
 10
31.2409644374
 20
44.2547414287
 11
33.7409644374
 21
44.2547414287
  0
LINE
  5
266
100
AcDbEntity
  8
0
100
AcDbLine
 62
7
  6
BYLAYER
 10
25.7259644374
 20
8.6547414287
 11
21.0113867441
 21
6.4696627753
  0
LINE
  5
267
100
AcDbEntity
  8
0
100
AcDbLine
 62
7
  6
BYLAYER
 10
33.7409644374
 20
49.2547414287
 11
31.2409644374
 21
49.2547414287
  0
LINE
  5
268
100
AcDbEntity
  8
0
100
AcDbLine
 62
7
  6
BYLAYER
 10
6.9109644374
 20
49.2547414287
 11
4.4109644374
 21
49.2547414287
  0
ARC
  5
269
100
AcDbEntity
  8
0
100
AcDbCircle
 62
7
  6
BYLAYER
 10
16.1259644374
 20
7.5705309024
 40
3.8
100
AcDbArc
 50
180.0
 51
270.0
  0
ARC
  5
26A
100
AcDbEntity
  8
0
100
AcDbCircle
 62
7
  6
BYLAYER
 10
22.0259644374
 20
7.5705309024
 40
3.8
100
AcDbArc
 50
270.0
 51
360.0
  0
ARC
  5
26B
100
AcDbEntity
  8
0
100
AcDbCircle
 62
7
  6
BYLAYER
 10
9.1431634844
 20
35.2889041696
 40
3.0487330956
100
AcDbArc
 50
270.1450500831
 51
301.7617102655
  0
ARC
  5
26C
100
AcDbEntity
  8
0
100
AcDbCircle
 62
7
  6
BYLAYER
 10
9.180773086
 20
34.8013128997
 40
2.947836541
100
AcDbArc
 50
89.9893427146
 51
94.5048618752
  0
ARC
  5
26D
100
AcDbEntity
  8
0
100
AcDbCircle
 62
7
  6
BYLAYER
 10
9.1988955822
 20
34.5793758722
 40
2.9453038228
100
AcDbArc
 50
269.9966304377
 51
274.5060771861
  0
ARC
  5
26E
100
AcDbEntity
  8
0
100
AcDbCircle
 62
7
  6
BYLAYER
 10
9.0942582454
 20
17.0896492818
 40
2.9451233703
100
AcDbArc
 50
134.5091985095
 51
164.0338594765
  0
ARC
  5
26F
100
AcDbEntity
  8
0
100
AcDbCircle
 62
7
  6
BYLAYER
 10
9.0645484496
 20
17.1009872546
 40
2.913444191
100
AcDbArc
 50
164.8577866854
 51
168.4931971486
  0
ARC
  5
270
100
AcDbEntity
  8
0
100
AcDbCircle
 62
7
  6
BYLAYER
 10
9.0582742556
 20
17.1025768765
 40
2.9069726019
100
AcDbArc
 50
164.0837413101
 51
164.8557272617
  0
ARC
  5
271
100
AcDbEntity
  8
0
100
AcDbCircle
 62
7
  6
BYLAYER
 10
9.2443991718
 20
17.1024031739
 40
2.9062916095
100
AcDbArc
 50
15.2431670916
 51
16.3016231385
  0
ARC
  5
272
100
AcDbEntity
  8
0
100
AcDbCircle
 62
7
  6
BYLAYER
 10
28.8926883514
 20
35.1937844897
 40
2.891727712
100
AcDbArc
 50
181.9060581571
 51
184.8548685777
  0
ARC
  5
273
100
AcDbEntity
  8
0
100
AcDbCircle
 62
7
  6
BYLAYER
 10
18.7315978368
 20
8.2625416867
 40
2.6756531752
100
AcDbArc
 50
23.5311015107
 51
24.6082705868
  0
ARC
  5
274
100
AcDbEntity
  8
0
100
AcDbCircle
 62
7
  6
BYLAYER
 10
18.6054708554
 20
7.8346222807
 40
2.6615326888
100
AcDbArc
 50
144.3137347727
 51
179.9585725651
  0
ARC
  5
275
100
AcDbEntity
  8
0
100
AcDbCircle
 62
7
  6
BYLAYER
 10
18.7444929512
 20
7.8346518865
 40
2.6614437355
100
AcDbArc
 50
0.0407914719
 51
35.6135216722
  0
ARC
  5
276
100
AcDbEntity
  8
0
100
AcDbCircle
 62
7
  6
BYLAYER
 10
18.6009237608
 20
8.2696828492
 40
2.6569385599
100
AcDbArc
 50
155.2907420363
 51
179.9787717404
  0
ARC
  5
277
100
AcDbEntity
  8
0
100
AcDbCircle
 62
7
  6
BYLAYER
 10
18.751675987
 20
8.2701086901
 40
2.654223771
100
AcDbArc
 50
0.0120543093
 51
23.5543801064
  0
ARC
  5
278
100
AcDbEntity
  8
0
100
AcDbCircle
 62
7
  6
BYLAYER
 10
22.8259644374
 20
6.0547414287
 40
0.5
100
AcDbArc
 50
270.0
 51
360.0
  0
ARC
  5
279
100
AcDbEntity
  8
0
100
AcDbCircle
 62
7
  6
BYLAYER
 10
15.3259644374
 20
6.0547414287
 40
0.5
100
AcDbArc
 50
180.0
 51
270.0
  0
SPLINE
  5
27A
100
AcDbEntity
  8
0
100
AcDbSpline
 62
7
  6
BYLAYER
 70
0
 71
3
 72
16
 73
12
 74
0
 42
0.0000001
 43
0.0000001
 44
0.0000000001
 40
0.0
 40
0.0
 40
0.0
 40
0.0
 40
0.1249993771
 40
0.2499803035
 40
0.3749560974
 40
0.4999199641
 40
0.6248995267
 40
0.7498938908
 40
0.8124631673
 40
0.8750653915
 40
1.0
 40
1.0
 40
1.0
 40
1.0
 10
26.0008167632
 20
17.968396237
 30
0.0
 10
26.0008139429
 20
17.7708298178
 30
0.0
 10
26.039030355
 20
17.3746803015
 30
0.0
 10
26.208651945
 20
16.8031965266
 30
0.0
 10
26.4844853161
 20
16.274539528
 30
0.0
 10
26.857315485
 20
15.8089741315
 30
0.0
 10
27.3148184036
 20
15.4263898106
 30
0.0
 10
27.75101655
 20
15.1873558695
 30
0.0
 10
28.1226172671
 20
15.0504842208
 30
0.0
 10
28.5059674127
 20
14.9520133454
 30
0.0
 10
28.8035003875
 20
14.9221157128
 30
0.0
 10
29.0009644374
 20
14.9221157128
 30
0.0
  0
SPLINE
  5
27B
100
AcDbEntity
  8
0
100
AcDbSpline
 62
7
  6
BYLAYER
 70
0
 71
3
 72
17
 73
13
 74
0
 42
0.0000001
 43
0.0000001
 44
0.0000000001
 40
0.0
 40
0.0
 40
0.0
 40
0.0
 40
0.1249602841
 40
0.2499189514
 40
0.3748771747
 40
0.437443971
 40
0.5000115704
 40
0.6249795031
 40
0.7499134776
 40
0.8124763642
 40
0.8750804402
 40
1.0
 40
1.0
 40
1.0
 40
1.0
 10
31.9532764668
 20
34.4556124754
 30
0.0
 10
31.9696273845
 20
34.6625450531
 30
0.0
 10
31.9606932748
 20
35.080911703
 30
0.0
 10
31.8228217233
 20
35.692188418
 30
0.0
 10
31.6077999041
 20
36.1689639256
 30
0.0
 10
31.3808346866
 20
36.5176681623
 30
0.0
 10
31.1195608285
 20
36.841507046
 30
0.0
 10
30.7322067278
 20
37.1929569268
 30
0.0
 10
30.2803934485
 20
37.4565579116
 30
0.0
 10
29.8924264664
 20
37.6071488038
 30
0.0
 10
29.4909039799
 20
37.7158791688
 30
0.0
 10
29.1781105286
 20
37.7491904904
 30
0.0
 10
28.9706006168
 20
37.7491697092
 30
0.0
  0
SPLINE
  5
27C
100
AcDbEntity
  8
0
100
AcDbSpline
 62
7
  6
BYLAYER
 70
0
 71
3
 72
16
 73
12
 74
0
 42
0.0000001
 43
0.0000001
 44
0.0000000001
 40
0.0
 40
0.0
 40
0.0
 40
0.0
 40
0.1249993771
 40
0.2499803035
 40
0.3749560974
 40
0.4999199641
 40
0.6248995267
 40
0.7498938908
 40
0.8124631673
 40
0.8750653915
 40
1.0
 40
1.0
 40
1.0
 40
1.0
 10
6.1508167632
 20
17.968396237
 30
0.0
 10
6.1508139429
 20
17.7708298178
 30
0.0
 10
6.189030355
 20
17.3746803015
 30
0.0
 10
6.358651945
 20
16.8031965266
 30
0.0
 10
6.6344853162
 20
16.274539528
 30
0.0
 10
7.007315485
 20
15.8089741315
 30
0.0
 10
7.4648184036
 20
15.4263898106
 30
0.0
 10
7.90101655
 20
15.1873558695
 30
0.0
 10
8.2726172671
 20
15.0504842208
 30
0.0
 10
8.6559674127
 20
14.9520133454
 30
0.0
 10
8.9535003875
 20
14.9221157128
 30
0.0
 10
9.1509644374
 20
14.9221157128
 30
0.0
  0
SPLINE
  5
27D
100
AcDbEntity
  8
0
100
AcDbSpline
 62
7
  6
BYLAYER
 70
0
 71
3
 72
15
 73
11
 74
0
 42
0.0000001
 43
0.0000001
 44
0.0000000001
 40
0.0
 40
0.0
 40
0.0
 40
0.0
 40
0.1249928906
 40
0.2499841912
 40
0.374982942
 40
0.4999926862
 40
0.6250041439
 40
0.7499868629
 40
0.8750452484
 40
1.0
 40
1.0
 40
1.0
 40
1.0
 10
12.1809079632
 20
34.9276110293
 30
0.0
 10
12.1660769151
 20
35.11532477
 30
0.0
 10
12.1022330326
 20
35.488952287
 30
0.0
 10
11.9067488721
 20
36.0221434933
 30
0.0
 10
11.6175500588
 20
36.5111661836
 30
0.0
 10
11.2435900122
 20
36.9389547499
 30
0.0
 10
10.7967882642
 20
37.290038226
 30
0.0
 10
10.2920459919
 20
37.5514801678
 30
0.0
 10
9.7471740536
 20
37.712621905
 30
0.0
 10
9.3695626624
 20
37.7491307564
 30
0.0
 10
9.1813213975
 20
37.7491493896
 30
0.0
  0
SPLINE
  5
27E
100
AcDbEntity
  8
0
100
AcDbSpline
 62
7
  6
BYLAYER
 70
0
 71
3
 72
17
 73
13
 74
0
 42
0.0000001
 43
0.0000001
 44
0.0000000001
 40
0.0
 40
0.0
 40
0.0
 40
0.0
 40
0.124016984
 40
0.2481774223
 40
0.3104283145
 40
0.3727560409
 40
0.435173074
 40
0.497683476
 40
0.6228425253
 40
0.7483191548
 40
0.8741397959
 40
1.0
 40
1.0
 40
1.0
 40
1.0
 10
21.4058996992
 20
7.8365466634
 30
0.0
 10
21.4058958473
 20
7.6607857624
 30
0.0
 10
21.3706750458
 20
7.3081123323
 30
0.0
 10
21.2400553465
 20
6.8848419783
 30
0.0
 10
21.0872605782
 20
6.5666098988
 30
0.0
 10
20.9492181149
 20
6.3398614662
 30
0.0
 10
20.7892794173
 20
6.1275328505
 30
0.0
 10
20.5489878502
 20
5.8663459981
 30
0.0
 10
20.2013330867
 20
5.5855487499
 30
0.0
 10
19.7262332338
 20
5.3355364656
 30
0.0
 10
19.2109426304
 20
5.1817758224
 30
0.0
 10
18.8533115699
 20
5.1470591058
 30
0.0
 10
18.6749383976
 20
5.1470591058
 30
0.0
  0
SPLINE
  5
27F
100
AcDbEntity
  8
0
100
AcDbSpline
 62
7
  6
BYLAYER
 70
0
 71
3
 72
16
 73
12
 74
0
 42
0.0000001
 43
0.0000001
 44
0.0000000001
 40
0.0
 40
0.0
 40
0.0
 40
0.0
 40
0.1249186724
 40
0.1875010758
 40
0.2500503624
 40
0.375005045
 40
0.499964361
 40
0.6249449688
 40
0.7499560679
 40
0.8749825901
 40
1.0
 40
1.0
 40
1.0
 40
1.0
 10
9.1509644374
 20
14.9221157128
 30
0.0
 10
9.3484038462
 20
14.9221157128
 30
0.0
 10
9.6458811813
 20
14.9520386663
 30
0.0
 10
10.0291350676
 20
15.0505208571
 30
0.0
 10
10.400662727
 20
15.1872064878
 30
0.0
 10
10.8368989962
 20
15.4259638633
 30
0.0
 10
11.2941688355
 20
15.8087175163
 30
0.0
 10
11.6672622094
 20
16.274111936
 30
0.0
 10
11.943218069
 20
16.8029096803
 30
0.0
 10
12.1128316502
 20
17.3745547694
 30
0.0
 10
12.151109291
 20
17.7707993922
 30
0.0
 10
12.1511121117
 20
17.9683948599
 30
0.0
  0
SPLINE
  5
280
100
AcDbEntity
  8
0
100
AcDbSpline
 62
7
  6
BYLAYER
 70
0
 71
3
 72
17
 73
13
 74
0
 42
0.0000001
 43
0.0000001
 44
0.0000000001
 40
0.0
 40
0.0
 40
0.0
 40
0.0
 40
0.1249252785
 40
0.1875246462
 40
0.2500846189
 40
0.3750260611
 40
0.4999993045
 40
0.5625601933
 40
0.6251205148
 40
0.7500797478
 40
0.8750373205
 40
1.0
 40
1.0
 40
1.0
 40
1.0
 10
8.9492391278
 20
37.740042608
 30
0.0
 10
8.7519669231
 20
37.7244767546
 30
0.0
 10
8.4571212391
 20
37.6707866127
 30
0.0
 10
8.0820150701
 20
37.5419430282
 30
0.0
 10
7.7216137348
 20
37.3759668099
 30
0.0
 10
7.3051618313
 20
37.1020678019
 30
0.0
 10
6.9509254522
 20
36.7514748124
 30
0.0
 10
6.7130517311
 20
36.4339940992
 30
0.0
 10
6.5070628645
 20
36.0950006937
 30
0.0
 10
6.3129339511
 20
35.6359868417
 30
0.0
 10
6.1897146256
 20
35.0516359543
 30
0.0
 10
6.1830537658
 20
34.6529415152
 30
0.0
 10
6.1986445165
 20
34.4556118476
 30
0.0
  0
SPLINE
  5
281
100
AcDbEntity
  8
0
100
AcDbSpline
 62
7
  6
BYLAYER
 70
0
 71
3
 72
15
 73
11
 74
0
 42
0.0000001
 43
0.0000001
 44
0.0000000001
 40
0.0
 40
0.0
 40
0.0
 40
0.0
 40
0.1249536652
 40
0.2500140226
 40
0.374988286
 40
0.49999367
 40
0.625001868
 40
0.750002723
 40
0.8749984622
 40
1.0
 40
1.0
 40
1.0
 40
1.0
 10
28.9706006168
 20
37.7491697092
 30
0.0
 10
28.7823611845
 20
37.7491508578
 30
0.0
 10
28.4047519203
 20
37.7126117431
 30
0.0
 10
27.8598897583
 20
37.5514872559
 30
0.0
 10
27.3551642145
 20
37.2900533971
 30
0.0
 10
26.9083800697
 20
36.9389891743
 30
0.0
 10
26.534417308
 20
36.5112151853
 30
0.0
 10
26.2452013463
 20
36.0221950098
 30
0.0
 10
26.0496964671
 20
35.4889857479
 30
0.0
 10
25.9858619751
 20
35.1153368511
 30
0.0
 10
25.9710285778
 20
34.9276104253
 30
0.0
  0
SPLINE
  5
282
100
AcDbEntity
  8
0
100
AcDbSpline
 62
7
  6
BYLAYER
 70
0
 71
3
 72
16
 73
12
 74
0
 42
0.0000001
 43
0.0000001
 44
0.0000000001
 40
0.0
 40
0.0
 40
0.0
 40
0.0
 40
0.1249186724
 40
0.1875010758
 40
0.2500503624
 40
0.375005045
 40
0.499964361
 40
0.6249449688
 40
0.7499560679
 40
0.8749825901
 40
1.0
 40
1.0
 40
1.0
 40
1.0
 10
29.0009644374
 20
14.9221157128
 30
0.0
 10
29.1984038462
 20
14.9221157128
 30
0.0
 10
29.4958811813
 20
14.9520386663
 30
0.0
 10
29.8791350676
 20
15.0505208571
 30
0.0
 10
30.250662727
 20
15.1872064878
 30
0.0
 10
30.6868989962
 20
15.4259638633
 30
0.0
 10
31.1441688355
 20
15.8087175163
 30
0.0
 10
31.5172622094
 20
16.274111936
 30
0.0
 10
31.7932180691
 20
16.8029096803
 30
0.0
 10
31.9628316502
 20
17.3745547694
 30
0.0
 10
32.001109291
 20
17.7707993922
 30
0.0
 10
32.0011121116
 20
17.9683948599
 30
0.0
  0
SPLINE
  5
283
100
AcDbEntity
  8
0
100
AcDbSpline
 62
7
  6
BYLAYER
 70
0
 71
3
 72
16
 73
12
 74
0
 42
0.0000001
 43
0.0000001
 44
0.0000000001
 40
0.0
 40
0.0
 40
0.0
 40
0.0
 40
0.1258817916
 40
0.2517187201
 40
0.3772109714
 40
0.5023855528
 40
0.5649042544
 40
0.6273301577
 40
0.7517768204
 40
0.8759601375
 40
1.0
 40
1.0
 40
1.0
 40
1.0
 10
18.6749383976
 20
5.1470591058
 30
0.0
 10
18.4965618681
 20
5.1470591058
 30
0.0
 10
18.1389315815
 20
5.1817757754
 30
0.0
 10
17.6236462165
 20
5.3355325834
 30
0.0
 10
17.1485599425
 20
5.5855444352
 30
0.0
 10
16.8009099249
 20
5.8663117714
 30
0.0
 10
16.5606183993
 20
6.1275207479
 30
0.0
 10
16.3476549726
 20
6.4101443578
 30
0.0
 10
16.1358075651
 20
6.800282404
 30
0.0
 10
15.9792644424
 20
7.3080260619
 30
0.0
 10
15.9439732439
 20
7.6607801749
 30
0.0
 10
15.943977096
 20
7.8365466612
 30
0.0
  0
SPLINE
  5
284
100
AcDbEntity
  8
0
100
AcDbSpline
 62
7
  6
BYLAYER
 70
0
 71
3
 72
16
 73
12
 74
0
 42
0.0000001
 43
0.0000001
 44
0.0000000001
 40
0.0
 40
0.0
 40
0.0
 40
0.0
 40
0.1249993774
 40
0.2499803036
 40
0.3749560984
 40
0.499919965
 40
0.6248995248
 40
0.7498938992
 40
0.8124631744
 40
0.8750653884
 40
1.0
 40
1.0
 40
1.0
 40
1.0
 10
12.1511121117
 20
17.9683948599
 30
0.0
 10
12.1511149319
 20
18.1659612792
 30
0.0
 10
12.1128985202
 20
18.5621107949
 30
0.0
 10
11.9432769288
 20
19.1335945708
 30
0.0
 10
11.6674435585
 20
19.6622515674
 30
0.0
 10
11.2946134
 20
20.127816974
 30
0.0
 10
10.8371104356
 20
20.5104012466
 30
0.0
 10
10.4009123446
 20
20.7494352976
 30
0.0
 10
10.0293116338
 20
20.8863069695
 30
0.0
 10
9.645961403
 20
20.9847775497
 30
0.0
 10
9.3484284918
 20
21.0146749228
 30
0.0
 10
9.1509644374
 20
21.0146753841
 30
0.0
  0
SPLINE
  5
285
100
AcDbEntity
  8
0
100
AcDbSpline
 62
7
  6
BYLAYER
 70
0
 71
3
 72
16
 73
12
 74
0
 42
0.0000001
 43
0.0000001
 44
0.0000000001
 40
0.0
 40
0.0
 40
0.0
 40
0.0
 40
0.1249186699
 40
0.1875010825
 40
0.2500503691
 40
0.3750050428
 40
0.4999643622
 40
0.6249449694
 40
0.7499560679
 40
0.8749825903
 40
1.0
 40
1.0
 40
1.0
 40
1.0
 10
9.1509644374
 20
21.0146753841
 30
0.0
 10
8.9535250324
 20
21.0146758453
 30
0.0
 10
8.6560476391
 20
20.9847525944
 30
0.0
 10
8.2727938346
 20
20.8862701409
 30
0.0
 10
7.9012661593
 20
20.7495845606
 30
0.0
 10
7.4650298458
 20
20.5108272692
 30
0.0
 10
7.0077600521
 20
20.12807357
 30
0.0
 10
6.6346666633
 20
19.6626791628
 30
0.0
 10
6.3587108053
 20
19.133881416
 30
0.0
 10
6.1890972249
 20
18.5622363278
 30
0.0
 10
6.1508195838
 20
18.1659917045
 30
0.0
 10
6.1508167632
 20
17.968396237
 30
0.0
  0
SPLINE
  5
286
100
AcDbEntity
  8
0
100
AcDbSpline
 62
7
  6
BYLAYER
 70
0
 71
3
 72
16
 73
12
 74
0
 42
0.0000001
 43
0.0000001
 44
0.0000000001
 40
0.0
 40
0.0
 40
0.0
 40
0.0
 40
0.1259297687
 40
0.2518838614
 40
0.3775028429
 40
0.5027895994
 40
0.6276464409
 40
0.7520653734
 40
0.814197133
 40
0.8762427348
 40
1.0
 40
1.0
 40
1.0
 40
1.0
 10
29.0010471976
 20
32.2401808367
 30
0.0
 10
28.8153904387
 20
32.2407229861
 30
0.0
 10
28.4432702691
 20
32.2759397467
 30
0.0
 10
27.9049956908
 20
32.4286171352
 30
0.0
 10
27.4042367528
 20
32.6765243973
 30
0.0
 10
26.9585088153
 20
33.0107869468
 30
0.0
 10
26.5831350299
 20
33.4200409288
 30
0.0
 10
26.3393578015
 20
33.8125114368
 30
0.0
 10
26.1914796013
 20
34.1483894643
 30
0.0
 10
26.0759454516
 20
34.4955876
 30
0.0
 10
26.0267740288
 20
34.7672512621
 30
0.0
 10
26.0113353797
 20
34.9490515483
 30
0.0
  0
SPLINE
  5
287
100
AcDbEntity
  8
0
100
AcDbSpline
 62
7
  6
BYLAYER
 70
0
 71
3
 72
17
 73
13
 74
0
 42
0.0000001
 43
0.0000001
 44
0.0000000001
 40
0.0
 40
0.0
 40
0.0
 40
0.0
 40
0.1249255594
 40
0.1875250176
 40
0.2500850119
 40
0.375026419
 40
0.4999995919
 40
0.5625604613
 40
0.6251207335
 40
0.7500798552
 40
0.8750373467
 40
1.0
 40
1.0
 40
1.0
 40
1.0
 10
9.4302928917
 20
31.6431759652
 30
0.0
 10
9.6275665302
 20
31.6587405182
 30
0.0
 10
9.922414261
 20
31.7124309529
 30
0.0
 10
10.297522915
 20
31.8412744441
 30
0.0
 10
10.6579268746
 20
32.0072494271
 30
0.0
 10
11.0743820854
 20
32.2811473656
 30
0.0
 10
11.4286207696
 20
32.6317409439
 30
0.0
 10
11.6664965604
 20
32.9492220251
 30
0.0
 10
11.8724872078
 20
33.2882161018
 30
0.0
 10
12.0666175551
 20
33.7472313923
 30
0.0
 10
12.1898378031
 20
34.3315844617
 30
0.0
 10
12.1964988208
 20
34.7302805268
 30
0.0
 10
12.1809079632
 20
34.9276110293
 30
0.0
  0
SPLINE
  5
288
100
AcDbEntity
  8
0
100
AcDbSpline
 62
7
  6
BYLAYER
 70
0
 71
3
 72
16
 73
12
 74
0
 42
0.0000001
 43
0.0000001
 44
0.0000000001
 40
0.0
 40
0.0
 40
0.0
 40
0.0
 40
0.1249993772
 40
0.2499803035
 40
0.3749560977
 40
0.4999199643
 40
0.6248995262
 40
0.7498938933
 40
0.8124631694
 40
0.8750653906
 40
1.0
 40
1.0
 40
1.0
 40
1.0
 10
32.0011121116
 20
17.9683948599
 30
0.0
 10
32.0011149319
 20
18.1659612791
 30
0.0
 10
31.9628985199
 20
18.5621107952
 30
0.0
 10
31.7932769295
 20
19.1335945704
 30
0.0
 10
31.5174435586
 20
19.6622515684
 30
0.0
 10
31.1446133928
 20
20.1278169679
 30
0.0
 10
30.6871104608
 20
20.5104012746
 30
0.0
 10
30.2509123306
 20
20.7494352479
 30
0.0
 10
29.8793116154
 20
20.8863069034
 30
0.0
 10
29.4959614448
 20
20.9847776925
 30
0.0
 10
29.1984284886
 20
21.0146752491
 30
0.0
 10
29.0009644374
 20
21.0146753841
 30
0.0
  0
SPLINE
  5
289
100
AcDbEntity
  8
0
100
AcDbSpline
 62
7
  6
BYLAYER
 70
0
 71
3
 72
15
 73
11
 74
0
 42
0.0000001
 43
0.0000001
 44
0.0000000001
 40
0.0
 40
0.0
 40
0.0
 40
0.0
 40
0.1249934808
 40
0.2499853416
 40
0.3749838311
 40
0.4999925518
 40
0.6250027504
 40
0.7499830174
 40
0.8750421039
 40
1.0
 40
1.0
 40
1.0
 40
1.0
 10
6.1986445165
 20
34.4556118476
 30
0.0
 10
6.2134772003
 20
34.2678769121
 30
0.0
 10
6.2773328299
 20
33.894207407
 30
0.0
 10
6.4728558704
 20
33.360963032
 30
0.0
 10
6.762108504
 20
32.8719013519
 30
0.0
 10
7.1361384751
 20
32.4440956273
 30
0.0
 10
7.5830176804
 20
32.0930234525
 30
0.0
 10
8.0878324117
 20
31.8315954475
 30
0.0
 10
8.6327940071
 20
31.6705227826
 30
0.0
 10
9.0104560032
 20
31.6340720544
 30
0.0
 10
9.198722369
 20
31.6340720544
 30
0.0
  0
SPLINE
  5
28A
100
AcDbEntity
  8
0
100
AcDbSpline
 62
7
  6
BYLAYER
 70
0
 71
3
 72
15
 73
11
 74
0
 42
0.0000001
 43
0.0000001
 44
0.0000000001
 40
0.0
 40
0.0
 40
0.0
 40
0.0
 40
0.1256707966
 40
0.2514142357
 40
0.3768659288
 40
0.5020636464
 40
0.6269856826
 40
0.751596321
 40
0.875915406
 40
1.0
 40
1.0
 40
1.0
 40
1.0
 10
9.1509851045
 20
20.055239971
 30
0.0
 10
9.3120093251
 20
20.0552396062
 30
0.0
 10
9.6347188843
 20
20.0294436203
 30
0.0
 10
10.1058810711
 20
19.9151619126
 30
0.0
 10
10.5524452622
 20
19.7275589898
 30
0.0
 10
10.9624772172
 20
19.4717695619
 30
0.0
 10
11.3256948857
 20
19.1545776873
 30
0.0
 10
11.6323853658
 20
18.7838415391
 30
0.0
 10
11.8746632605
 20
18.3695260805
 30
0.0
 10
11.9892226957
 20
18.0707815694
 30
0.0
 10
12.0338501295
 20
17.9181814981
 30
0.0
  0
SPLINE
  5
28B
100
AcDbEntity
  8
0
100
AcDbSpline
 62
7
  6
BYLAYER
 70
0
 71
3
 72
11
 73
7
 74
0
 42
0.0000001
 43
0.0000001
 44
0.0000000001
 40
0.0
 40
0.0
 40
0.0
 40
0.0
 40
0.2490853756
 40
0.4989940694
 40
0.7494260687
 40
1.0
 40
1.0
 40
1.0
 40
1.0
 10
7.0296567762
 20
19.1899284155
 30
0.0
 10
7.1684416034
 20
19.3266029028
 30
0.0
 10
7.4743420239
 20
19.5735593491
 30
0.0
 10
7.9960778203
 20
19.8482647745
 30
0.0
 10
8.562230432
 20
20.0170722734
 30
0.0
 10
8.9550361882
 20
20.0552404149
 30
0.0
 10
9.1509851045
 20
20.055239971
 30
0.0
  0
SPLINE
  5
28C
100
AcDbEntity
  8
0
100
AcDbSpline
 62
7
  6
BYLAYER
 70
0
 71
3
 72
15
 73
11
 74
0
 42
0.0000001
 43
0.0000001
 44
0.0000000001
 40
0.0
 40
0.0
 40
0.0
 40
0.0
 40
0.1249546082
 40
0.2500156785
 40
0.3749901195
 40
0.4999952658
 40
0.6250031064
 40
0.7500036199
 40
0.8749989151
 40
1.0
 40
1.0
 40
1.0
 40
1.0
 10
28.9532239656
 20
31.6340546138
 30
0.0
 10
29.1414847153
 20
31.6340546138
 30
0.0
 10
29.5191409296
 20
31.6705325499
 30
0.0
 10
30.0640900168
 20
31.8315936017
 30
0.0
 10
30.5688951185
 20
32.0930087111
 30
0.0
 10
31.015757526
 20
32.4440698965
 30
0.0
 10
31.389788245
 20
32.8718635397
 30
0.0
 10
31.679057142
 20
33.3609209185
 30
0.0
 10
31.8745970791
 20
33.8941799247
 30
0.0
 10
31.9384416218
 20
34.267866883
 30
0.0
 10
31.9532764668
 20
34.4556124754
 30
0.0
  0
SPLINE
  5
28D
100
AcDbEntity
  8
0
100
AcDbSpline
 62
7
  6
BYLAYER
 70
0
 71
3
 72
16
 73
12
 74
0
 42
0.0000001
 43
0.0000001
 44
0.0000000001
 40
0.0
 40
0.0
 40
0.0
 40
0.0
 40
0.1249186717
 40
0.1875010777
 40
0.2500503644
 40
0.3750050444
 40
0.4999643614
 40
0.624944969
 40
0.7499560679
 40
0.8749825902
 40
1.0
 40
1.0
 40
1.0
 40
1.0
 10
29.0009644374
 20
21.0146753841
 30
0.0
 10
28.8035250297
 20
21.014675519
 30
0.0
 10
28.5060476776
 20
20.9847524785
 30
0.0
 10
28.1227938152
 20
20.8862702108
 30
0.0
 10
27.7512661512
 20
20.7495845949
 30
0.0
 10
27.315029869
 20
20.510827244
 30
0.0
 10
26.8577600431
 20
20.1280735775
 30
0.0
 10
26.4846666648
 20
19.6626791615
 30
0.0
 10
26.2087108056
 20
19.1338814164
 30
0.0
 10
26.0390972247
 20
18.5622363276
 30
0.0
 10
26.0008195838
 20
18.1659917046
 30
0.0
 10
26.0008167632
 20
17.968396237
 30
0.0
  0
SPLINE
  5
28E
100
AcDbEntity
  8
0
100
AcDbSpline
 62
7
  6
BYLAYER
 70
0
 71
3
 72
17
 73
13
 74
0
 42
0.0000001
 43
0.0000001
 44
0.0000000001
 40
0.0
 40
0.0
 40
0.0
 40
0.0
 40
0.1249604786
 40
0.2499193399
 40
0.3748777796
 40
0.4374446818
 40
0.5000124228
 40
0.6249807119
 40
0.7499143454
 40
0.8124769442
 40
0.8750809082
 40
1.0
 40
1.0
 40
1.0
 40
1.0
 10
25.9710285778
 20
34.9276104253
 30
0.0
 10
25.954679134
 20
34.7206974303
 30
0.0
 10
25.9636086787
 20
34.3023708922
 30
0.0
 10
26.1014494909
 20
33.6911488002
 30
0.0
 10
26.3164275876
 20
33.2144086064
 30
0.0
 10
26.5433496307
 20
32.865723216
 30
0.0
 10
26.8045753631
 20
32.5418958451
 30
0.0
 10
27.1918600627
 20
32.1904449699
 30
0.0
 10
27.6436016001
 20
31.9268228067
 30
0.0
 10
28.0315120353
 20
31.7762009517
 30
0.0
 10
28.4329766494
 20
31.6674189308
 30
0.0
 10
28.7457347846
 20
31.6340546138
 30
0.0
 10
28.9532239656
 20
31.6340546138
 30
0.0
  0
ENDSEC
  0
SECTION
  2
OBJECTS
  0
DICTIONARY
  5
C
100
AcDbDictionary
280
0
281
1
  3
ACAD_GROUP
350
D
  3
ACAD_MLINESTYLE
350
17
  3
ACAD_LAYOUT
350
1A
  3
ACAD_PLOTSETTINGS
350
19
  3
ACAD_PLOTSTYLENAME
350
E
  0
DICTIONARY
  5
D
102
{ACAD_REACTORS
330
C
102
}
100
AcDbDictionary
280
0
281
1
  0
ACDBDICTIONARYWDFLT
  5
E
102
{ACAD_REACTORS
330
C
102
}
100
AcDbDictionary
281
1
  3
Normal
350
F
100
AcDbDictionaryWithDefault
340
F
  0
DICTIONARY
  5
17
102
{ACAD_REACTORS
330
C
102
}
100
AcDbDictionary
280
0
281
1
  3
Standard
350
18
  0
DICTIONARY
  5
19
102
{ACAD_REACTORS
330
C
102
}
100
AcDbDictionary
281
1
  0
DICTIONARY
  5
1A
102
{ACAD_REACTORS
330
C
102
}
100
AcDbDictionary
281
1
  3
Model
350
28F
  3
Layout1
350
290
  0
ACDBPLACEHOLDER
  5
F
102
{ACAD_REACTORS
330
E
102
}
  0
MLINESTYLE
  5
18
102
{ACAD_REACTORS
330
17
102
}
100
AcDbMlineStyle
  2
STANDARD
 70
0
  3

 62
256
 51
90.0
 52
90.0
 71
2
 49
0.5
 62
256
  6
BYLAYER
 49
-0.5
 62
256
  6
BYLAYER
  0
LAYOUT
  5
28F
102
{ACAD_REACTORS
330
1A
102
}
100
AcDbPlotSettings
  1

  2
none_device
  4

  6

 40
0.0
 41
0.0
 42
0.0
 43
0.0
 44
210.0
 45
297.0
 46
0.0
 47
0.0
 48
0.0
 49
0.0
140
0.0
141
0.0
142
1.0
143
1.0
 70
1024
 72
1
 73
0
 74
0
  7

 75
0
147
1.0
148
0.0
149
0.0
100
AcDbLayout
  1
Model
 70
0
 71
0
 10
0.0
 20
0.0
 11
210.0
 21
297.0
 12
0.0
 22
0.0
 32
0.0
 14
0.0
 24
0.0
 34
0.0
 15
0.0
 25
0.0
 35
0.0
146
0.0
 13
0.0
 23
0.0
 33
0.0
 16
1.0
 26
0.0
 36
0.0
 17
0.0
 27
1.0
 37
0.0
 76
0
330
210
345
0
346
0
  0
LAYOUT
  5
290
102
{ACAD_REACTORS
330
1A
102
}
100
AcDbPlotSettings
  1

  2
none_device
  4

  6

 40
0.0
 41
0.0
 42
0.0
 43
0.0
 44
210.0
 45
297.0
 46
0.0
 47
0.0
 48
0.0
 49
0.0
140
0.0
141
0.0
142
1.0
143
1.0
 70
0
 72
1
 73
0
 74
0
  7

 75
0
147
1.0
148
0.0
149
0.0
100
AcDbLayout
  1
Layout1
 70
0
 71
1
 10
0.0
 20
0.0
 11
210.0
 21
297.0
 12
0.0
 22
0.0
 32
0.0
 14
0.0
 24
0.0
 34
0.0
 15
0.0
 25
0.0
 35
0.0
146
0.0
 13
0.0
 23
0.0
 33
0.0
 16
1.0
 26
0.0
 36
0.0
 17
0.0
 27
1.0
 37
0.0
 76
0
330
211
345
0
346
0
  0
ENDSEC
  0
EOF
