999
DXF file: C:\Users\sesa63760\Dev\_Creo\CAD\MCADPD0004678_3D-CAD\drw0001_7.dxf
999
Pro/ENGINEER 2019471 by Parametric Technology Corporation
  0
SECTION
  2
HEADER
  9
$ACADVER
  1
AC1024
  9
$DWGCODEPAGE
  3
ANSI_1252
  9
$EXTMAX
 10
58.3445233793
 20
82.5158259221
 30
0.0
  9
$EXTMIN
 10
0.0
 20
0.0
 30
0.0
  9
$LIMMIN
 10
0.0
 20
0.0
  9
$LIMMAX
 10
58.3445233793
 20
82.5158259221
  9
$VIEWCTR
 10
29.1722616896
 20
41.257912961
  9
$VIEWSIZE
 40
82.5158259221
  9
$CLAYER
  8
0
  9
$LTSCALE
 40
5.3788093934
  9
$CELTYPE
  6
BYLAYER
  9
$DIMSCALE
 40
1.0
  9
$DIMASZ
 40
0.6945776593
  9
$DIMEXO
 40
1.0
  9
$DIMDLI
 40
3.7162683082
  9
$DIMEXE
 40
1.0
  9
$DIMCEN
 40
0.8801688098
  9
$DIMLFAC
 40
1.0
  9
$DIMBLK
  1
_FILLED
  9
$DIMALT
 70
0
  9
$DIMALTF
 40
0.0393700787
  9
$DIMTXT
 40
0.972408723
  9
$DIMTOL
 70
1
  9
$DIMLIM
 70
0
  9
$DIMTFAC
 40
1.0
  9
$DIMTP
 40
0.01
  9
$DIMTM
 40
0.01
  9
$DIMGAP
 40
0.625
  9
$DIMDSEP
 70
46
  9
$AUNITS
 70
0
  9
$PDMODE
 70
3
  9
$PDSIZE
 40
0.3125
  9
$HANDSEED
  5
2B7
  9
$TILEMODE
 70
1
  9
$MEASUREMENT
 70
1
  9
$INSUNITS
 70
4
  0
ENDSEC
  0
SECTION
  2
CLASSES
  0
CLASS
  1
ACDBDICTIONARYWDFLT
  2
AcDbDictionaryWithDefault
  3
AutoCAD 2000
 90
0
 91
1
280
0
281
0
  0
CLASS
  1
ACDBPLACEHOLDER
  2
AcDbPlaceHolder
  3
AutoCAD 2000
 90
0
 91
1
280
0
281
0
  0
CLASS
  1
LAYOUT
  2
AcDbLayout
  3
AutoCAD 2000
 90
0
 91
0
280
0
281
0
  0
ENDSEC
  0
SECTION
  2
TABLES
  0
TABLE
  2
VPORT
  5
8
100
AcDbSymbolTable
 70
2
  0
VPORT
  5
1F4
100
AcDbSymbolTableRecord
100
AcDbViewportTableRecord
  2
*ACTIVE
 70
0
 10
0.0
 20
0.0
 11
1.0
 21
1.0
 12
29.1722616896
 22
41.257912961
 13
0.0
 23
0.0
 14
1.0
 24
1.0
 15
0.0
 25
0.0
 16
0.0
 26
0.0
 36
1.0
 17
0.0
 27
0.0
 37
0.0
 40
82.5158259221
 41
0.7070707071
 42
50.0
 43
0.0
 44
0.0
 50
0.0
 51
0.0
 71
0
 72
100
 73
1
 74
1
 75
0
 76
0
 77
0
 78
0
  0
ENDTAB
  0
TABLE
  2
LTYPE
  5
5
100
AcDbSymbolTable
 70
6
  0
LTYPE
  5
14
100
AcDbSymbolTableRecord
100
AcDbLinetypeTableRecord
  2
BYBLOCK
 70
0
  3

 72
65
 73
0
 40
0.0
  0
LTYPE
  5
15
100
AcDbSymbolTableRecord
100
AcDbLinetypeTableRecord
  2
BYLAYER
 70
0
  3

 72
65
 73
0
 40
0.0
  0
LTYPE
  5
16
100
AcDbSymbolTableRecord
100
AcDbLinetypeTableRecord
  2
CONTINUOUS
 70
64
  3
Solid line
 72
65
 73
0
 40
0.0
  0
LTYPE
  5
1F5
100
AcDbSymbolTableRecord
100
AcDbLinetypeTableRecord
  2
CENTER
 70
64
  3
____ _ ____ _ ____ _ ____ _ ____ _ ____ _ ____
 72
65
 73
4
 40
0.6
 49
0.375
 74
0
 49
-0.075
 74
0
 49
0.075
 74
0
 49
-0.075
 74
0
  0
LTYPE
  5
1F6
100
AcDbSymbolTableRecord
100
AcDbLinetypeTableRecord
  2
HIDDEN
 70
64
  3
- - - - - - - - - - - - - - - - - - - -
 72
65
 73
2
 40
0.2
 49
0.1
 74
0
 49
-0.1
 74
0
  0
LTYPE
  5
1F7
100
AcDbSymbolTableRecord
100
AcDbLinetypeTableRecord
  2
PHANTOM
 70
64
  3
_____ _ _ _____ _ _ _____ _ _ _____
 72
65
 73
6
 40
0.8
 49
0.45
 74
0
 49
-0.05
 74
0
 49
0.1
 74
0
 49
-0.05
 74
0
 49
0.1
 74
0
 49
-0.05
 74
0
  0
LTYPE
  5
1F8
100
AcDbSymbolTableRecord
100
AcDbLinetypeTableRecord
  2
DOT
 70
64
  3
. . . . . . . . . . . . . . . . . . . .
 72
65
 73
2
 40
0.2
 49
0.1
 74
0
 49
-0.1
 74
0
  0
LTYPE
  5
1F9
100
AcDbSymbolTableRecord
100
AcDbLinetypeTableRecord
  2
DASHED
 70
64
  3
- - - - - - - - - - - - - - - - - - - -
 72
65
 73
2
 40
0.2
 49
0.1
 74
0
 49
-0.1
 74
0
  0
ENDTAB
  0
TABLE
  2
LAYER
  5
2
100
AcDbSymbolTable
 70
36
  0
LAYER
  5
10
100
AcDbSymbolTableRecord
100
AcDbLayerTableRecord
  2
0
 70
0
 62
7
  6
CONTINUOUS
370
-3
390
F
  0
LAYER
  5
1FA
100
AcDbSymbolTableRecord
100
AcDbLayerTableRecord
  2
DEFAULT_1
 70
0
 62
7
  6
CENTER
370
-3
390
F
  0
LAYER
  5
1FB
100
AcDbSymbolTableRecord
100
AcDbLayerTableRecord
  2
DEFAULT_2
 70
0
 62
7
  6
HIDDEN
370
-3
390
F
  0
LAYER
  5
1FC
100
AcDbSymbolTableRecord
100
AcDbLayerTableRecord
  2
DEFAULT_3
 70
0
 62
7
  6
PHANTOM
370
-3
390
F
  0
LAYER
  5
1FD
100
AcDbSymbolTableRecord
100
AcDbLayerTableRecord
  2
00_COMPONENTS
 70
0
 62
7
  6
CONTINUOUS
370
-3
390
F
  0
LAYER
  5
1FE
100
AcDbSymbolTableRecord
100
AcDbLayerTableRecord
  2
01_1_DEFAULT_DATUMS
 70
0
 62
7
  6
CONTINUOUS
370
-3
390
F
  0
LAYER
  5
1FF
100
AcDbSymbolTableRecord
100
AcDbLayerTableRecord
  2
01_PLANES
 70
0
 62
7
  6
CONTINUOUS
370
-3
390
F
  0
LAYER
  5
200
100
AcDbSymbolTableRecord
100
AcDbLayerTableRecord
  2
02_COORD_SYS
 70
0
 62
7
  6
CONTINUOUS
370
-3
390
F
  0
LAYER
  5
201
100
AcDbSymbolTableRecord
100
AcDbLayerTableRecord
  2
03_AXES
 70
0
 62
7
  6
CONTINUOUS
370
-3
390
F
  0
LAYER
  5
202
100
AcDbSymbolTableRecord
100
AcDbLayerTableRecord
  2
04_POINTS
 70
0
 62
7
  6
CONTINUOUS
370
-3
390
F
  0
LAYER
  5
203
100
AcDbSymbolTableRecord
100
AcDbLayerTableRecord
  2
05_CURVES
 70
0
 62
7
  6
CONTINUOUS
370
-3
390
F
  0
LAYER
  5
204
100
AcDbSymbolTableRecord
100
AcDbLayerTableRecord
  2
06_SURFS
 70
0
 62
7
  6
CONTINUOUS
370
-3
390
F
  0
LAYER
  5
205
100
AcDbSymbolTableRecord
100
AcDbLayerTableRecord
  2
07_COSMETICS
 70
0
 62
7
  6
CONTINUOUS
370
-3
390
F
  0
LAYER
  5
206
100
AcDbSymbolTableRecord
100
AcDbLayerTableRecord
  2
10_NOTES
 70
0
 62
7
  6
CONTINUOUS
370
-3
390
F
  0
LAYER
  5
207
100
AcDbSymbolTableRecord
100
AcDbLayerTableRecord
  2
11_NOTES_PUB
 70
0
 62
7
  6
CONTINUOUS
370
-3
390
F
  0
LAYER
  5
208
100
AcDbSymbolTableRecord
100
AcDbLayerTableRecord
  2
13_REF_GTOL
 70
0
 62
7
  6
CONTINUOUS
370
-3
390
F
  0
LAYER
  5
209
100
AcDbSymbolTableRecord
100
AcDbLayerTableRecord
  2
16_MISC
 70
0
 62
7
  6
CONTINUOUS
370
-3
390
F
  0
LAYER
  5
20A
100
AcDbSymbolTableRecord
100
AcDbLayerTableRecord
  2
17_NO_PRINT
 70
0
 62
7
  6
CONTINUOUS
370
-3
390
F
  0
LAYER
  5
20B
100
AcDbSymbolTableRecord
100
AcDbLayerTableRecord
  2
18_DATUM_CAMS_JOINTS
 70
0
 62
7
  6
CONTINUOUS
370
-3
390
F
  0
LAYER
  5
20C
100
AcDbSymbolTableRecord
100
AcDbLayerTableRecord
  2
19_DATUM_FUNCTIONAL
 70
0
 62
7
  6
CONTINUOUS
370
-3
390
F
  0
LAYER
  5
20D
100
AcDbSymbolTableRecord
100
AcDbLayerTableRecord
  2
20_DATUM_KINEMATIC_SCHEME
 70
0
 62
7
  6
CONTINUOUS
370
-3
390
F
  0
ENDTAB
  0
TABLE
  2
STYLE
  5
3
100
AcDbSymbolTable
 70
1
  0
STYLE
  5
11
100
AcDbSymbolTableRecord
100
AcDbTextStyleTableRecord
  2
STANDARD
 70
0
 40
0.0
 41
1.0
 50
0.0
 71
0
 42
0.2
  3
ARIAL.TTF
  4

  0
STYLE
  5
20E
100
AcDbSymbolTableRecord
100
AcDbTextStyleTableRecord
  2
TEXTSTYLE_1
 70
0
 40
0.0
 41
0.8
 50
0.0
 71
0
 42
0.2
  3
gdt
  4

  0
ENDTAB
  0
TABLE
  2
VIEW
  5
6
100
AcDbSymbolTable
 70
0
  0
ENDTAB
  0
TABLE
  2
UCS
  5
7
100
AcDbSymbolTable
 70
0
  0
ENDTAB
  0
TABLE
  2
APPID
  5
9
100
AcDbSymbolTable
 70
1
  0
APPID
  5
20F
100
AcDbSymbolTableRecord
100
AcDbRegAppTableRecord
  2
ACAD
 70
0
  0
ENDTAB
  0
TABLE
  2
BLOCK_RECORD
  5
1
100
AcDbSymbolTable
 70
0
  0
BLOCK_RECORD
  5
210
100
AcDbSymbolTableRecord
100
AcDbBlockTableRecord
  2
*Model_Space
  0
BLOCK_RECORD
  5
211
100
AcDbSymbolTableRecord
100
AcDbBlockTableRecord
  2
*Paper_Space
  0
BLOCK_RECORD
  5
212
100
AcDbSymbolTableRecord
100
AcDbBlockTableRecord
  2
_FILLED
  0
ENDTAB
  0
TABLE
  2
DIMSTYLE
  5
A
100
AcDbSymbolTable
 70
1
100
AcDbDimStyleTable
 71
0
  0
DIMSTYLE
105
213
100
AcDbSymbolTableRecord
100
AcDbDimStyleTableRecord
  2
STANDARD
 70
0
  3

  4

 40
1.0
 41
0.6945776593
 42
1.0
 43
0.38
 44
1.0
 45
0.0
 46
0.0
 47
0.01
 48
0.01
140
0.972408723
141
0.09
142
0.0
143
25.4
144
1.0
145
0.0
146
1.0
147
0.625
 71
1
 72
0
 73
0
 74
0
 75
0
 76
0
 77
1
 78
8
 79
2
170
0
171
1
172
0
173
0
174
0
175
0
176
0
177
0
178
0
270
2
179
2
271
2
272
2
273
2
274
2
275
0
280
0
281
0
282
0
283
1
284
8
285
0
286
0
287
3
288
0
340
11
278
46
341
212
342
212
343
212
344
212
  0
ENDTAB
  0
ENDSEC
  0
SECTION
  2
BLOCKS
  0
BLOCK
  5
20
100
AcDbEntity
  8
0
100
AcDbBlockBegin
  2
*Model_Space
 70
0
 10
0.0
 20
0.0
 30
0.0
  3
*Model_Space
  1

  0
ENDBLK
  5
21
100
AcDbEntity
  8
0
100
AcDbBlockEnd
  0
BLOCK
  5
1C
100
AcDbEntity
  8
0
100
AcDbBlockBegin
  2
*Paper_Space
 70
0
 10
0.0
 20
0.0
 30
0.0
  3
*Paper_Space
  1

  0
ENDBLK
  5
1D
100
AcDbEntity
  8
0
100
AcDbBlockEnd
  0
BLOCK
  5
214
100
AcDbEntity
  8
0
100
AcDbBlockBegin
  2
_FILLED
 70
64
 10
0.0
 20
0.0
  3
_FILLED
  1

  0
SOLID
  5
215
100
AcDbEntity
  8
0
  6
BYBLOCK
 62
0
100
AcDbTrace
 10
0.0
 20
0.0
 11
-1.0
 21
0.25
 12
-1.0
 22
-0.25
 13
-1.0
 23
-0.25
  0
ENDBLK
  5
216
100
AcDbEntity
  8
0
  6
BYBLOCK
 62
0
100
AcDbBlockEnd
  0
ENDSEC
  0
SECTION
  2
ENTITIES
  0
LINE
  5
217
100
AcDbEntity
  8
0
100
AcDbLine
 62
7
  6
BYLAYER
 10
29.8661438688
 20
9.8410062623
 11
28.6844182709
 21
9.8410062623
  0
LINE
  5
218
100
AcDbEntity
  8
0
100
AcDbLine
 62
7
  6
BYLAYER
 10
27.5678996891
 20
9.8527607473
 11
30.9826624506
 21
9.8527607473
  0
LINE
  5
219
100
AcDbEntity
  8
0
100
AcDbLine
 62
7
  6
BYLAYER
 10
13.7232602526
 20
14.639407116
 11
50.2732602526
 21
14.639407116
  0
LINE
  5
21A
100
AcDbEntity
  8
0
100
AcDbLine
 62
7
  6
BYLAYER
 10
34.5232602526
 20
14.659407116
 11
13.7232602526
 21
14.659407116
  0
LINE
  5
21B
100
AcDbEntity
  8
0
100
AcDbLine
 62
7
  6
BYLAYER
 10
6.8732602526
 20
13.659407116
 11
6.8732602526
 21
76.7381965897
  0
LINE
  5
21C
100
AcDbEntity
  8
0
100
AcDbLine
 62
7
  6
BYLAYER
 10
50.2732602526
 20
17.159407116
 11
34.5232602526
 21
17.159407116
  0
LINE
  5
21D
100
AcDbEntity
  8
0
100
AcDbLine
 62
7
  6
BYLAYER
 10
34.5232602526
 20
18.059407116
 11
13.7232602526
 21
18.059407116
  0
LINE
  5
21E
100
AcDbEntity
  8
0
100
AcDbLine
 62
7
  6
BYLAYER
 10
9.5732602526
 20
44.729407116
 11
9.5732602526
 21
49.729407116
  0
LINE
  5
21F
100
AcDbEntity
  8
0
100
AcDbLine
 62
7
  6
BYLAYER
 10
50.2732602526
 20
19.859407116
 11
34.5232602526
 21
19.859407116
  0
LINE
  5
220
100
AcDbEntity
  8
0
100
AcDbLine
 62
7
  6
BYLAYER
 10
11.5732602526
 20
49.729407116
 11
11.5732602526
 21
44.729407116
  0
LINE
  5
221
100
AcDbEntity
  8
0
100
AcDbLine
 62
7
  6
BYLAYER
 10
13.7232602526
 20
18.059407116
 11
13.7232602526
 21
14.639407116
  0
LINE
  5
222
100
AcDbEntity
  8
0
100
AcDbLine
 62
7
  6
BYLAYER
 10
36.2595560599
 20
29.1214051678
 11
36.2337576339
 21
29.1140795834
  0
LINE
  5
223
100
AcDbEntity
  8
0
100
AcDbLine
 62
7
  6
BYLAYER
 10
37.9432602526
 20
25.709407116
 11
38.4432602526
 21
25.709407116
  0
LINE
  5
224
100
AcDbEntity
  8
0
100
AcDbLine
 62
7
  6
BYLAYER
 10
49.2732602526
 20
25.8240500088
 11
49.7732602526
 21
25.8240500088
  0
LINE
  5
225
100
AcDbEntity
  8
0
100
AcDbLine
 62
7
  6
BYLAYER
 10
15.372172649
 20
36.5520374006
 11
12.6476644295
 21
57.634606822
  0
LINE
  5
226
100
AcDbEntity
  8
0
100
AcDbLine
 62
7
  6
BYLAYER
 10
16.2881946632
 20
73.9094071157
 11
16.2881946632
 21
76.8093980967
  0
LINE
  5
227
100
AcDbEntity
  8
0
100
AcDbLine
 62
7
  6
BYLAYER
 10
36.2337576339
 20
29.1140795834
 11
36.1614134742
 21
29.1094135725
  0
LINE
  5
228
100
AcDbEntity
  8
0
100
AcDbLine
 62
7
  6
BYLAYER
 10
47.4602234003
 20
29.1169099308
 11
47.2216864361
 21
29.109407116
  0
LINE
  5
229
100
AcDbEntity
  8
0
100
AcDbLine
 62
7
  6
BYLAYER
 10
35.7932602526
 20
28.609407116
 11
36.2932602526
 21
28.609407116
  0
LINE
  5
22A
100
AcDbEntity
  8
0
100
AcDbLine
 62
7
  6
BYLAYER
 10
40.0932602526
 20
28.609407116
 11
40.5932602526
 21
28.609407116
  0
LINE
  5
22B
100
AcDbEntity
  8
0
100
AcDbLine
 62
7
  6
BYLAYER
 10
47.0077108104
 20
28.609407116
 11
47.2902299746
 21
28.609407116
  0
LINE
  5
22C
100
AcDbEntity
  8
0
100
AcDbLine
 62
7
  6
BYLAYER
 10
36.1614134742
 20
29.1094135725
 11
35.7932602526
 21
29.109407116
  0
LINE
  5
22D
100
AcDbEntity
  8
0
100
AcDbLine
 62
7
  6
BYLAYER
 10
47.2216864361
 20
29.109407116
 11
47.0077108104
 21
29.109407116
  0
LINE
  5
22E
100
AcDbEntity
  8
0
100
AcDbLine
 62
7
  6
BYLAYER
 10
50.2832602526
 20
29.599407116
 11
47.9470542643
 21
29.599407116
  0
LINE
  5
22F
100
AcDbEntity
  8
0
100
AcDbLine
 62
7
  6
BYLAYER
 10
40.0932602526
 20
29.599407116
 11
36.2932602526
 21
29.599407116
  0
LINE
  5
230
100
AcDbEntity
  8
0
100
AcDbLine
 62
7
  6
BYLAYER
 10
47.9570698736
 20
29.609407116
 11
40.0932602526
 21
29.609407116
  0
LINE
  5
231
100
AcDbEntity
  8
0
100
AcDbLine
 62
7
  6
BYLAYER
 10
36.2932602526
 20
29.609407116
 11
34.5232602526
 21
29.609407116
  0
LINE
  5
232
100
AcDbEntity
  8
0
100
AcDbLine
 62
7
  6
BYLAYER
 10
40.5932602526
 20
29.109407116
 11
40.1661878563
 21
29.1096099799
  0
LINE
  5
233
100
AcDbEntity
  8
0
100
AcDbLine
 62
7
  6
BYLAYER
 10
19.4703916149
 20
76.8084417552
 11
19.4703916149
 21
73.659407116
  0
LINE
  5
234
100
AcDbEntity
  8
0
100
AcDbLine
 62
7
  6
BYLAYER
 10
20.6232603115
 20
10.1828310388
 11
20.6232603115
 21
9.4398678158
  0
LINE
  5
235
100
AcDbEntity
  8
0
100
AcDbLine
 62
7
  6
BYLAYER
 10
21.2372593679
 20
73.9094071162
 11
21.2372593679
 21
76.559407116
  0
LINE
  5
236
100
AcDbEntity
  8
0
100
AcDbLine
 62
7
  6
BYLAYER
 10
21.567227167
 20
76.559407116
 11
21.567227167
 21
73.9094071162
  0
LINE
  5
237
100
AcDbEntity
  8
0
100
AcDbLine
 62
7
  6
BYLAYER
 10
21.6232602526
 20
9.4394989853
 11
21.6232602526
 21
10.1079406565
  0
LINE
  5
238
100
AcDbEntity
  8
0
100
AcDbLine
 62
7
  6
BYLAYER
 10
21.7262024996
 20
73.8054031563
 11
21.7262024996
 21
76.6603875096
  0
LINE
  5
239
100
AcDbEntity
  8
0
100
AcDbLine
 62
7
  6
BYLAYER
 10
23.2232602526
 20
10.007305566
 11
23.2232602526
 21
9.4394989842
  0
LINE
  5
23A
100
AcDbEntity
  8
0
100
AcDbLine
 62
7
  6
BYLAYER
 10
16.3640279596
 20
35.679407116
 11
24.3732602526
 21
35.679407116
  0
LINE
  5
23B
100
AcDbEntity
  8
0
100
AcDbLine
 62
7
  6
BYLAYER
 10
30.3640279596
 20
35.679407116
 11
38.3732602526
 21
35.679407116
  0
LINE
  5
23C
100
AcDbEntity
  8
0
100
AcDbLine
 62
7
  6
BYLAYER
 10
44.3640279556
 20
35.679407116
 11
51.1732602526
 21
35.679407116
  0
LINE
  5
23D
100
AcDbEntity
  8
0
100
AcDbLine
 62
7
  6
BYLAYER
 10
20.6105514564
 20
57.3584503671
 11
23.7453279169
 21
36.8303617341
  0
LINE
  5
23E
100
AcDbEntity
  8
0
100
AcDbLine
 62
7
  6
BYLAYER
 10
24.2232602368
 20
9.4398628456
 11
24.2232602368
 21
9.9563771858
  0
LINE
  5
23F
100
AcDbEntity
  8
0
100
AcDbLine
 62
7
  6
BYLAYER
 10
24.3732602526
 20
35.679407116
 11
24.3732602526
 21
43.279407116
  0
LINE
  5
240
100
AcDbEntity
  8
0
100
AcDbLine
 62
7
  6
BYLAYER
 10
29.3721726489
 20
36.5520374009
 11
26.6645627544
 21
57.6367768316
  0
LINE
  5
241
100
AcDbEntity
  8
0
100
AcDbLine
 62
7
  6
BYLAYER
 10
38.3732602526
 20
43.279407116
 11
36.760515545
 21
43.279407116
  0
LINE
  5
242
100
AcDbEntity
  8
0
100
AcDbLine
 62
7
  6
BYLAYER
 10
24.3732602526
 20
43.279407116
 11
22.760515545
 21
43.279407116
  0
LINE
  5
243
100
AcDbEntity
  8
0
100
AcDbLine
 62
7
  6
BYLAYER
 10
34.5132602526
 20
29.599407116
 11
34.5132602526
 21
19.859407116
  0
LINE
  5
244
100
AcDbEntity
  8
0
100
AcDbLine
 62
7
  6
BYLAYER
 10
34.5232602526
 20
14.639407116
 11
34.5232602526
 21
19.859407116
  0
LINE
  5
245
100
AcDbEntity
  8
0
100
AcDbLine
 62
7
  6
BYLAYER
 10
9.5732602526
 20
44.729407116
 11
11.5732602526
 21
44.729407116
  0
LINE
  5
246
100
AcDbEntity
  8
0
100
AcDbLine
 62
7
  6
BYLAYER
 10
38.6732602526
 20
44.729407116
 11
40.6732602526
 21
44.729407116
  0
LINE
  5
247
100
AcDbEntity
  8
0
100
AcDbLine
 62
7
  6
BYLAYER
 10
40.6732602526
 20
46.9132285216
 11
38.6732602526
 21
46.9132285216
  0
LINE
  5
248
100
AcDbEntity
  8
0
100
AcDbLine
 62
7
  6
BYLAYER
 10
11.5732602526
 20
46.9132285216
 11
9.5732602526
 21
46.9132285216
  0
LINE
  5
249
100
AcDbEntity
  8
0
100
AcDbLine
 62
7
  6
BYLAYER
 10
47.1164518726
 20
26.7993685874
 11
47.4319533877
 21
26.4114784045
  0
LINE
  5
24A
100
AcDbEntity
  8
0
100
AcDbLine
 62
7
  6
BYLAYER
 10
35.7932602526
 20
29.109407116
 11
35.7932602526
 21
28.609407116
  0
LINE
  5
24B
100
AcDbEntity
  8
0
100
AcDbLine
 62
7
  6
BYLAYER
 10
36.2932602526
 20
29.599407116
 11
36.2932602526
 21
29.15963241
  0
LINE
  5
24C
100
AcDbEntity
  8
0
100
AcDbLine
 62
7
  6
BYLAYER
 10
36.2932602526
 20
28.609407116
 11
36.2932602526
 21
28.109407116
  0
LINE
  5
24D
100
AcDbEntity
  8
0
100
AcDbLine
 62
7
  6
BYLAYER
 10
36.7903068018
 20
73.8053957415
 11
36.7903068018
 21
76.6603944394
  0
LINE
  5
24E
100
AcDbEntity
  8
0
100
AcDbLine
 62
7
  6
BYLAYER
 10
36.9492821346
 20
73.9094071162
 11
36.9492821346
 21
76.559407116
  0
LINE
  5
24F
100
AcDbEntity
  8
0
100
AcDbLine
 62
7
  6
BYLAYER
 10
37.2792499337
 20
76.559407116
 11
37.2792499337
 21
73.9094071162
  0
LINE
  5
250
100
AcDbEntity
  8
0
100
AcDbLine
 62
7
  6
BYLAYER
 10
37.9432602526
 20
26.2259262983
 11
37.9432602526
 21
25.709407116
  0
LINE
  5
251
100
AcDbEntity
  8
0
100
AcDbLine
 62
7
  6
BYLAYER
 10
40.6732602526
 20
49.729407116
 11
38.6732602526
 21
49.729407116
  0
LINE
  5
252
100
AcDbEntity
  8
0
100
AcDbLine
 62
7
  6
BYLAYER
 10
11.5732602526
 20
49.729407116
 11
9.5732602526
 21
49.729407116
  0
LINE
  5
253
100
AcDbEntity
  8
0
100
AcDbLine
 62
7
  6
BYLAYER
 10
34.6105514561
 20
57.3584503693
 11
37.7453279169
 21
36.8303617341
  0
LINE
  5
254
100
AcDbEntity
  8
0
100
AcDbLine
 62
7
  6
BYLAYER
 10
42.2232620693
 20
10.089386351
 11
42.5187537421
 21
6.711901075
  0
LINE
  5
255
100
AcDbEntity
  8
0
100
AcDbLine
 62
7
  6
BYLAYER
 10
42.2301315344
 20
10.6108680055
 11
42.5452509988
 21
7.0090360459
  0
LINE
  5
256
100
AcDbEntity
  8
0
100
AcDbLine
 62
7
  6
BYLAYER
 10
40.0936494934
 20
29.1543537217
 11
40.093454873
 21
29.169537458
  0
LINE
  5
257
100
AcDbEntity
  8
0
100
AcDbLine
 62
7
  6
BYLAYER
 10
40.093454873
 20
29.169537458
 11
40.0932646771
 21
29.599407116
  0
LINE
  5
258
100
AcDbEntity
  8
0
100
AcDbLine
 62
7
  6
BYLAYER
 10
38.3732602526
 20
35.679407116
 11
38.3732602526
 21
43.279407116
  0
LINE
  5
259
100
AcDbEntity
  8
0
100
AcDbLine
 62
7
  6
BYLAYER
 10
38.4432602526
 20
25.709407116
 11
38.4432602526
 21
26.2259262983
  0
LINE
  5
25A
100
AcDbEntity
  8
0
100
AcDbLine
 62
7
  6
BYLAYER
 10
38.6732602526
 20
44.729407116
 11
38.6732602526
 21
49.729407116
  0
LINE
  5
25B
100
AcDbEntity
  8
0
100
AcDbLine
 62
7
  6
BYLAYER
 10
39.0461176867
 20
73.659407116
 11
39.0461176867
 21
76.8084417552
  0
LINE
  5
25C
100
AcDbEntity
  8
0
100
AcDbLine
 62
7
  6
BYLAYER
 10
40.0932602526
 20
28.1097766623
 11
40.0932602526
 21
28.609407116
  0
LINE
  5
25D
100
AcDbEntity
  8
0
100
AcDbLine
 62
7
  6
BYLAYER
 10
40.5932602526
 20
28.609407116
 11
40.5932602526
 21
29.109407116
  0
LINE
  5
25E
100
AcDbEntity
  8
0
100
AcDbLine
 62
7
  6
BYLAYER
 10
40.6732602526
 20
49.729407116
 11
40.6732602526
 21
44.729407116
  0
LINE
  5
25F
100
AcDbEntity
  8
0
100
AcDbLine
 62
7
  6
BYLAYER
 10
42.2232620693
 20
10.6100471618
 11
42.2232620693
 21
10.089386351
  0
LINE
  5
260
100
AcDbEntity
  8
0
100
AcDbLine
 62
7
  6
BYLAYER
 10
42.2583258419
 20
73.772572867
 11
42.2583258419
 21
76.809407116
  0
LINE
  5
261
100
AcDbEntity
  8
0
100
AcDbLine
 62
7
  6
BYLAYER
 10
42.2883370455
 20
76.7937191252
 11
42.2883370455
 21
73.9094071157
  0
LINE
  5
262
100
AcDbEntity
  8
0
100
AcDbLine
 62
7
  6
BYLAYER
 10
43.3721726489
 20
36.552037401
 11
40.6645627544
 21
57.6367768317
  0
LINE
  5
263
100
AcDbEntity
  8
0
100
AcDbLine
 62
7
  6
BYLAYER
 10
46.0232602526
 20
10.089407116
 11
46.0232584239
 21
11.1318613079
  0
LINE
  5
264
100
AcDbEntity
  8
0
100
AcDbLine
 62
7
  6
BYLAYER
 10
6.8732602526
 20
58.009407116
 11
12.5319414321
 21
58.009407116
  0
LINE
  5
265
100
AcDbEntity
  8
0
100
AcDbLine
 62
7
  6
BYLAYER
 10
20.7413921768
 20
58.009407116
 11
26.5336119235
 21
58.009407116
  0
LINE
  5
266
100
AcDbEntity
  8
0
100
AcDbLine
 62
7
  6
BYLAYER
 10
34.733066421
 20
58.009407116
 11
40.5387328484
 21
58.009407116
  0
LINE
  5
267
100
AcDbEntity
  8
0
100
AcDbLine
 62
7
  6
BYLAYER
 10
39.6727074447
 20
58.509407116
 11
35.5990918244
 21
58.509407116
  0
LINE
  5
268
100
AcDbEntity
  8
0
100
AcDbLine
 62
7
  6
BYLAYER
 10
25.6727074447
 20
58.509407116
 11
21.5990918247
 21
58.509407116
  0
LINE
  5
269
100
AcDbEntity
  8
0
100
AcDbLine
 62
7
  6
BYLAYER
 10
11.6978492758
 20
58.509407116
 11
7.3732602526
 21
58.509407116
  0
LINE
  5
26A
100
AcDbEntity
  8
0
100
AcDbLine
 62
7
  6
BYLAYER
 10
47.0077108104
 20
29.109407116
 11
47.0077108104
 21
28.609407116
  0
LINE
  5
26B
100
AcDbEntity
  8
0
100
AcDbLine
 62
7
  6
BYLAYER
 10
45.7012695332
 20
7.0090363531
 11
46.0232584239
 21
10.689386214
  0
LINE
  5
26C
100
AcDbEntity
  8
0
100
AcDbLine
 62
7
  6
BYLAYER
 10
45.7276739292
 20
6.7108399797
 11
46.0232602526
 21
10.089407116
  0
LINE
  5
26D
100
AcDbEntity
  8
0
100
AcDbLine
 62
7
  6
BYLAYER
 10
49.2732602526
 20
26.2153374235
 11
49.2732602526
 21
25.8240500088
  0
LINE
  5
26E
100
AcDbEntity
  8
0
100
AcDbLine
 62
7
  6
BYLAYER
 10
50.2732602526
 20
14.639407116
 11
50.2732602526
 21
19.859407116
  0
LINE
  5
26F
100
AcDbEntity
  8
0
100
AcDbLine
 62
7
  6
BYLAYER
 10
50.2832602526
 20
19.859407116
 11
50.2832602526
 21
29.599407116
  0
LINE
  5
270
100
AcDbEntity
  8
0
100
AcDbLine
 62
7
  6
BYLAYER
 10
51.6732602526
 20
13.6544998223
 11
51.6732602526
 21
76.7381965897
  0
LINE
  5
271
100
AcDbEntity
  8
0
100
AcDbLine
 62
7
  6
BYLAYER
 10
49.7732602526
 20
25.8240500088
 11
49.7736453124
 21
26.2803226701
  0
LINE
  5
272
100
AcDbEntity
  8
0
100
AcDbLine
 62
7
  6
BYLAYER
 10
47.6251022969
 20
29.2779569083
 11
47.5389276251
 21
29.1589971572
  0
LINE
  5
273
100
AcDbEntity
  8
0
100
AcDbLine
 62
7
  6
BYLAYER
 10
47.9570698736
 20
29.609407116
 11
47.6251022969
 21
29.2779569083
  0
LINE
  5
274
100
AcDbEntity
  8
0
100
AcDbLine
 62
7
  6
BYLAYER
 10
47.5043420583
 20
27.1148701048
 11
47.1164518726
 21
26.7993685874
  0
LINE
  5
275
100
AcDbEntity
  8
0
100
AcDbLine
 62
7
  6
BYLAYER
 10
49.8180962289
 20
26.3403579418
 11
49.8718634867
 21
26.3631081483
  0
LINE
  5
276
100
AcDbEntity
  8
0
100
AcDbLine
 62
7
  6
BYLAYER
 10
47.4319533877
 20
26.4114784045
 11
47.8198435774
 21
26.7269799252
  0
LINE
  5
277
100
AcDbEntity
  8
0
100
AcDbLine
 62
7
  6
BYLAYER
 10
49.8718634867
 20
26.3631081483
 11
50.2832602526
 21
26.6027846917
  0
LINE
  5
278
100
AcDbEntity
  8
0
100
AcDbLine
 62
7
  6
BYLAYER
 10
35.211865933
 20
73.659407116
 11
17.477084336
 21
73.659407116
  0
LINE
  5
279
100
AcDbEntity
  8
0
100
AcDbLine
 62
7
  6
BYLAYER
 10
42.0788050969
 20
73.6602093745
 11
38.0932144868
 21
73.659407116
  0
LINE
  5
27A
100
AcDbEntity
  8
0
100
AcDbLine
 62
7
  6
BYLAYER
 10
17.477084336
 20
73.6611577736
 11
16.5041654586
 21
73.6611952798
  0
LINE
  5
27B
100
AcDbEntity
  8
0
100
AcDbLine
 62
7
  6
BYLAYER
 10
37.2792499337
 20
73.9094071162
 11
36.9492821346
 21
73.9094071162
  0
LINE
  5
27C
100
AcDbEntity
  8
0
100
AcDbLine
 62
7
  6
BYLAYER
 10
21.567227167
 20
73.9094071162
 11
21.2372593679
 21
73.9094071162
  0
LINE
  5
27D
100
AcDbEntity
  8
0
100
AcDbLine
 62
7
  6
BYLAYER
 10
35.2117967948
 20
73.659407116
 11
38.0869735926
 21
73.659407116
  0
LINE
  5
27E
100
AcDbEntity
  8
0
100
AcDbLine
 62
7
  6
BYLAYER
 10
37.2792499337
 20
76.559407116
 11
36.9492821346
 21
76.559407116
  0
LINE
  5
27F
100
AcDbEntity
  8
0
100
AcDbLine
 62
7
  6
BYLAYER
 10
21.567227167
 20
76.559407116
 11
21.2372593679
 21
76.559407116
  0
LINE
  5
280
100
AcDbEntity
  8
0
100
AcDbLine
 62
7
  6
BYLAYER
 10
51.6732602526
 20
76.7381965897
 11
42.2883370455
 21
76.7381965897
  0
LINE
  5
281
100
AcDbEntity
  8
0
100
AcDbLine
 62
7
  6
BYLAYER
 10
16.2881946632
 20
76.7381965897
 11
6.8732602526
 21
76.7381965897
  0
LINE
  5
282
100
AcDbEntity
  8
0
100
AcDbLine
 62
7
  6
BYLAYER
 10
16.2881946632
 20
76.8093980967
 11
42.2583258419
 21
76.809407116
  0
LINE
  5
283
100
AcDbEntity
  8
0
100
AcDbLine
 62
7
  6
BYLAYER
 10
42.2583258419
 20
76.809407116
 11
42.2883370455
 21
76.7937191252
  0
ARC
  5
284
100
AcDbEntity
  8
0
100
AcDbCircle
 62
7
  6
BYLAYER
 10
8.7032602526
 20
13.659407116
 40
1.83
100
AcDbArc
 50
180.0
 51
258.9495593416
  0
ARC
  5
285
100
AcDbEntity
  8
0
100
AcDbCircle
 62
7
  6
BYLAYER
 10
22.4232602917
 20
9.4525802618
 40
1.8000448703
100
AcDbArc
 50
180.4046430013
 51
359.5951987943
  0
CIRCLE
  5
286
100
AcDbEntity
  8
0
100
AcDbCircle
 62
7
  6
BYLAYER
 10
26.1732602526
 20
39.709407116
 40
1.15
  0
CIRCLE
  5
287
100
AcDbEntity
  8
0
100
AcDbCircle
 62
7
  6
BYLAYER
 10
12.1732602526
 20
39.709407116
 40
1.15
  0
ARC
  5
288
100
AcDbEntity
  8
0
100
AcDbCircle
 62
7
  6
BYLAYER
 10
25.6575950833
 20
57.4922299952
 40
1.0172893779
100
AcDbArc
 50
8.1688143775
 51
89.1488101667
  0
ARC
  5
289
100
AcDbEntity
  8
0
100
AcDbCircle
 62
7
  6
BYLAYER
 10
21.6158473264
 20
57.4950160542
 40
1.0145294343
100
AcDbArc
 50
90.9463137743
 51
187.7360618436
  0
ARC
  5
28A
100
AcDbEntity
  8
0
100
AcDbCircle
 62
7
  6
BYLAYER
 10
16.3640279588
 20
36.679407116
 40
1.0
100
AcDbArc
 50
187.317624531
 51
270.0000000445
  0
ARC
  5
28B
100
AcDbEntity
  8
0
100
AcDbCircle
 62
7
  6
BYLAYER
 10
22.7567878901
 20
36.679406543
 40
0.9999994271
100
AcDbArc
 50
270.0
 51
8.6822903384
  0
ARC
  5
28C
100
AcDbEntity
  8
0
100
AcDbCircle
 62
7
  6
BYLAYER
 10
11.6852783602
 20
57.5427267866
 40
0.9667620634
100
AcDbArc
 50
5.4535606773
 51
89.2549555566
  0
ARC
  5
28D
100
AcDbEntity
  8
0
100
AcDbCircle
 62
7
  6
BYLAYER
 10
22.4232602526
 20
9.4394992144
 40
0.8000000408
100
AcDbArc
 50
180.0000164049
 51
359.9999835136
  0
ARC
  5
28E
100
AcDbEntity
  8
0
100
AcDbCircle
 62
7
  6
BYLAYER
 10
7.3732602526
 20
58.009407116
 40
0.5
100
AcDbArc
 50
90.0
 51
180.0
  0
ARC
  5
28F
100
AcDbEntity
  8
0
100
AcDbCircle
 62
7
  6
BYLAYER
 10
16.5141069493
 20
73.8879101801
 40
0.2269327637
100
AcDbArc
 50
174.5643228752
 51
267.4891778285
  0
ARC
  5
290
100
AcDbEntity
  8
0
100
AcDbCircle
 62
7
  6
BYLAYER
 10
44.123260253
 20
10.3835464927
 40
4.2940098083
100
AcDbArc
 50
253.0449509569
 51
286.9550311993
  0
ARC
  5
291
100
AcDbEntity
  8
0
100
AcDbCircle
 62
7
  6
BYLAYER
 10
44.1232602526
 20
10.5443849927
 40
4.1549521148
100
AcDbArc
 50
252.8142312412
 51
287.1857687588
  0
ARC
  5
292
100
AcDbEntity
  8
0
100
AcDbCircle
 62
7
  6
BYLAYER
 10
49.1766323229
 20
28.1170533716
 40
1.949596376
100
AcDbArc
 50
165.3720513803
 51
210.9337455049
  0
ARC
  5
293
100
AcDbEntity
  8
0
100
AcDbCircle
 62
7
  6
BYLAYER
 10
38.2057598206
 20
28.1203572099
 40
1.9125309153
100
AcDbArc
 50
180.3280457287
 51
262.1111111709
  0
ARC
  5
294
100
AcDbEntity
  8
0
100
AcDbCircle
 62
7
  6
BYLAYER
 10
38.1928381342
 20
28.10977691
 40
1.9004221543
100
AcDbArc
 50
277.5719920118
 51
359.999992533
  0
ARC
  5
295
100
AcDbEntity
  8
0
100
AcDbCircle
 62
7
  6
BYLAYER
 10
49.1223915366
 20
28.1069393326
 40
1.8976087985
100
AcDbArc
 50
226.6529753926
 51
274.5600933566
  0
ARC
  5
296
100
AcDbEntity
  8
0
100
AcDbCircle
 62
7
  6
BYLAYER
 10
49.8482602525
 20
13.6544998219
 40
1.8250000001
100
AcDbArc
 50
281.0504406522
 51
360.0
  0
CIRCLE
  5
297
100
AcDbEntity
  8
0
100
AcDbCircle
 62
7
  6
BYLAYER
 10
40.1732602526
 20
39.709407116
 40
1.15
  0
ARC
  5
298
100
AcDbEntity
  8
0
100
AcDbCircle
 62
7
  6
BYLAYER
 10
30.3640279588
 20
36.679407116
 40
1.0
100
AcDbArc
 50
187.3176245143
 51
270.0000000445
  0
ARC
  5
299
100
AcDbEntity
  8
0
100
AcDbCircle
 62
7
  6
BYLAYER
 10
44.3640279588
 20
36.679407116
 40
1.0
100
AcDbArc
 50
187.3176245101
 51
269.9999998188
  0
ARC
  5
29A
100
AcDbEntity
  8
0
100
AcDbCircle
 62
7
  6
BYLAYER
 10
39.6727074446
 20
57.509407116
 40
1.0
100
AcDbArc
 50
7.3176245546
 51
89.9999999956
  0
ARC
  5
29B
100
AcDbEntity
  8
0
100
AcDbCircle
 62
7
  6
BYLAYER
 10
35.5990918244
 20
57.5094071161
 40
0.9999999996
100
AcDbArc
 50
90.0
 51
188.6823754972
  0
ARC
  5
29C
100
AcDbEntity
  8
0
100
AcDbCircle
 62
7
  6
BYLAYER
 10
36.7570858117
 20
36.679150662
 40
0.9997435905
100
AcDbArc
 50
269.9829108907
 51
8.6993643692
  0
ARC
  5
29D
100
AcDbEntity
  8
0
100
AcDbCircle
 62
7
  6
BYLAYER
 10
43.0991790649
 20
6.8210499527
 40
0.5907046356
100
AcDbArc
 50
190.6500847416
 51
247.2803084372
  0
ARC
  5
29E
100
AcDbEntity
  8
0
100
AcDbCircle
 62
7
  6
BYLAYER
 10
43.0599838561
 20
7.0660399282
 40
0.5178796743
100
AcDbArc
 50
186.3194472271
 51
251.4924330603
  0
ARC
  5
29F
100
AcDbEntity
  8
0
100
AcDbCircle
 62
7
  6
BYLAYER
 10
45.193131778
 20
7.0607171958
 40
0.5107591289
100
AcDbArc
 50
287.9955311132
 51
354.192623943
  0
ARC
  5
2A0
100
AcDbEntity
  8
0
100
AcDbCircle
 62
7
  6
BYLAYER
 10
51.1732602526
 20
35.179407116
 40
0.5
100
AcDbArc
 50
0.0
 51
90.0
  0
ARC
  5
2A1
100
AcDbEntity
  8
0
100
AcDbCircle
 62
7
  6
BYLAYER
 10
45.2350405752
 20
6.7499905599
 40
0.4941865937
100
AcDbArc
 50
286.5104929953
 51
355.4561372049
  0
ARC
  5
2A2
100
AcDbEntity
  8
0
100
AcDbCircle
 62
7
  6
BYLAYER
 10
47.4338501806
 20
29.2604955729
 40
0.1460931132
100
AcDbArc
 50
280.6770475024
 51
315.9925783532
  0
ARC
  5
2A3
100
AcDbEntity
  8
0
100
AcDbCircle
 62
7
  6
BYLAYER
 10
49.8598702122
 20
26.2629542652
 40
0.0879567782
100
AcDbArc
 50
118.355288819
 51
168.6112287658
  0
ARC
  5
2A4
100
AcDbEntity
  8
0
100
AcDbCircle
 62
7
  6
BYLAYER
 10
40.1485431839
 20
29.1653820556
 40
0.0559905474
100
AcDbArc
 50
191.3596988492
 51
274.9666294995
  0
ARC
  5
2A5
100
AcDbEntity
  8
0
100
AcDbCircle
 62
7
  6
BYLAYER
 10
36.2538766097
 20
29.1610573075
 40
0.0397140033
100
AcDbArc
 50
287.5995280631
 51
360.0
  0
ARC
  5
2A6
100
AcDbEntity
  8
0
100
AcDbCircle
 62
7
  6
BYLAYER
 10
29.2752810698
 20
118.9980856344
 40
109.1586785185
100
AcDbArc
 50
270.8962158368
 51
281.0504406808
  0
ARC
  5
2A7
100
AcDbEntity
  8
0
100
AcDbCircle
 62
7
  6
BYLAYER
 10
29.2752810698
 20
118.9980856344
 40
109.1586785185
100
AcDbArc
 50
258.9495593191
 51
269.1037841632
  0
ARC
  5
2A8
100
AcDbEntity
  8
0
100
AcDbCircle
 62
7
  6
BYLAYER
 10
42.0617747951
 20
73.887217725
 40
0.2276462659
100
AcDbArc
 50
274.2903268182
 51
5.593679676
  0
SPLINE
  5
2A9
100
AcDbEntity
  8
0
100
AcDbSpline
 62
7
  6
BYLAYER
 70
0
 71
3
 72
13
 73
9
 74
0
 42
0.0000001
 43
0.0000001
 44
0.0000000001
 40
0.0
 40
0.0
 40
0.0
 40
0.0
 40
0.2503161932
 40
0.5003673224
 40
0.6251564552
 40
0.7500641553
 40
0.8753081754
 40
1.0
 40
1.0
 40
1.0
 40
1.0
 10
35.2700690988
 20
73.6592912835
 30
0.0
 10
35.3979356421
 20
73.6592933057
 30
0.0
 10
35.6535420046
 20
73.6626849324
 30
0.0
 10
35.9726582108
 20
73.6772140367
 30
0.0
 10
36.2270568401
 20
73.6988952727
 30
0.0
 10
36.4172721144
 20
73.7215942936
 30
0.0
 10
36.6066264894
 20
73.750172784
 30
0.0
 10
36.7307233277
 20
73.7828818753
 30
0.0
 10
36.7903068018
 20
73.8053957415
 30
0.0
  0
SPLINE
  5
2AA
100
AcDbEntity
  8
0
100
AcDbSpline
 62
7
  6
BYLAYER
 70
0
 71
3
 72
18
 73
14
 74
0
 42
0.0000001
 43
0.0000001
 44
0.0000000001
 40
0.0
 40
0.0
 40
0.0
 40
0.0
 40
0.0637569232
 40
0.1290239026
 40
0.1941135501
 40
0.2589660484
 40
0.3235347598
 40
0.3877723421
 40
0.5150436172
 40
0.6403641498
 40
0.7632743331
 40
0.8832884045
 40
1.0
 40
1.0
 40
1.0
 40
1.0
 10
37.2792499337
 20
73.8976493017
 30
0.0
 10
37.2821048856
 20
73.8798654392
 30
0.0
 10
37.3190099929
 20
73.8569896524
 30
0.0
 10
37.365915601
 20
73.8343221825
 30
0.0
 10
37.4176151495
 20
73.8130236661
 30
0.0
 10
37.4689013611
 20
73.7938454
 30
0.0
 10
37.5205365618
 20
73.7755972707
 30
0.0
 10
37.5891479062
 20
73.7527069565
 30
0.0
 10
37.6748405265
 20
73.7267524744
 30
0.0
 10
37.7774811635
 20
73.6998691529
 30
0.0
 10
37.8792908283
 20
73.6781858565
 30
0.0
 10
37.9798810548
 20
73.6635155457
 30
0.0
 10
38.0467755139
 20
73.659124517
 30
0.0
 10
38.0797463713
 20
73.6593232766
 30
0.0
  0
SPLINE
  5
2AB
100
AcDbEntity
  8
0
100
AcDbSpline
 62
7
  6
BYLAYER
 70
0
 71
3
 72
19
 73
15
 74
0
 42
0.0000001
 43
0.0000001
 44
0.0000000001
 40
0.0
 40
0.0
 40
0.0
 40
0.0
 40
0.2375821991
 40
0.3605444563
 40
0.4856650338
 40
0.612540815
 40
0.6765212246
 40
0.7408014449
 40
0.8053384623
 40
0.870092255
 40
0.9025445735
 40
0.935074295
 40
0.9674565049
 40
1.0
 40
1.0
 40
1.0
 40
1.0
 10
38.039782577
 20
76.8083406765
 30
0.0
 10
37.9756267788
 20
76.8048686149
 30
0.0
 10
37.8787591214
 20
76.7902331159
 30
0.0
 10
37.7508446241
 20
76.7605320187
 30
0.0
 10
37.6530513203
 20
76.7335856497
 30
0.0
 10
37.5715336858
 20
76.707909158
 30
0.0
 10
37.5062668414
 20
76.6855241401
 30
0.0
 10
37.4572466333
 20
76.6677455104
 30
0.0
 10
37.4083819325
 20
76.648995083
 30
0.0
 10
37.3680617847
 20
76.6318896587
 30
0.0
 10
37.3366094005
 20
76.6164770837
 30
0.0
 10
37.3131348027
 20
76.6041027901
 30
0.0
 10
37.2917660637
 20
76.5897917994
 30
0.0
 10
37.2792499337
 20
76.5740903255
 30
0.0
 10
37.2792499337
 20
76.5652895432
 30
0.0
  0
SPLINE
  5
2AC
100
AcDbEntity
  8
0
100
AcDbSpline
 62
7
  6
BYLAYER
 70
0
 71
3
 72
13
 73
9
 74
0
 42
0.0000001
 43
0.0000001
 44
0.0000000001
 40
0.0
 40
0.0
 40
0.0
 40
0.0
 40
0.1254701034
 40
0.250423139
 40
0.3758715273
 40
0.5010304953
 40
0.7508749167
 40
1.0
 40
1.0
 40
1.0
 40
1.0
 10
36.9492821346
 20
76.5653688895
 30
0.0
 10
36.9492821346
 20
76.5733099391
 30
0.0
 10
36.9387329735
 20
76.5877726347
 30
0.0
 10
36.9198090562
 20
76.6014206778
 30
0.0
 10
36.8988039532
 20
76.6128997738
 30
0.0
 10
36.8705801516
 20
76.6271705418
 30
0.0
 10
36.834392868
 20
76.6431343852
 30
0.0
 10
36.805020133
 20
76.6547197857
 30
0.0
 10
36.7903068018
 20
76.6603875096
 30
0.0
  0
SPLINE
  5
2AD
100
AcDbEntity
  8
0
100
AcDbSpline
 62
7
  6
BYLAYER
 70
0
 71
3
 72
12
 73
8
 74
0
 42
0.0000001
 43
0.0000001
 44
0.0000000001
 40
0.0
 40
0.0
 40
0.0
 40
0.0
 40
0.2505809105
 40
0.5018758415
 40
0.6277821034
 40
0.7537682483
 40
1.0
 40
1.0
 40
1.0
 40
1.0
 10
36.7903068018
 20
73.8054031563
 30
0.0
 10
36.8048853831
 20
73.8109554427
 30
0.0
 10
36.8340231921
 20
73.8223280174
 30
0.0
 10
36.8697882589
 20
73.8378387702
 30
0.0
 10
36.8980665894
 20
73.8518894158
 30
0.0
 10
36.9245220563
 20
73.8661045702
 30
0.0
 10
36.9471397666
 20
73.882260693
 30
0.0
 10
36.9492821346
 20
73.8974395838
 30
0.0
  0
SPLINE
  5
2AE
100
AcDbEntity
  8
0
100
AcDbSpline
 62
7
  6
BYLAYER
 70
0
 71
3
 72
14
 73
10
 74
0
 42
0.0000001
 43
0.0000001
 44
0.0000000001
 40
0.0
 40
0.0
 40
0.0
 40
0.0
 40
0.1246196121
 40
0.2498621524
 40
0.3751569228
 40
0.500036367
 40
0.6248089789
 40
0.74974403
 40
1.0
 40
1.0
 40
1.0
 40
1.0
 10
36.7903068018
 20
76.6603944394
 30
0.0
 10
36.7372034566
 20
76.6806893531
 30
0.0
 10
36.6271387124
 20
76.712150236
 30
0.0
 10
36.4582260947
 20
76.7403568488
 30
0.0
 10
36.2881922314
 20
76.7609705441
 30
0.0
 10
36.1179670314
 20
76.7778336595
 30
0.0
 10
35.947538084
 20
76.7904747258
 30
0.0
 10
35.7197662791
 20
76.8024774018
 30
0.0
 10
35.5486300632
 20
76.8067898216
 30
0.0
 10
35.4344783826
 20
76.8083633817
 30
0.0
  0
SPLINE
  5
2AF
100
AcDbEntity
  8
0
100
AcDbSpline
 62
7
  6
BYLAYER
 70
0
 71
3
 72
13
 73
9
 74
0
 42
0.0000001
 43
0.0000001
 44
0.0000000001
 40
0.0
 40
0.0
 40
0.0
 40
0.0
 40
0.1246918527
 40
0.2499358285
 40
0.3748434695
 40
0.4996326278
 40
0.7496837955
 40
1.0
 40
1.0
 40
1.0
 40
1.0
 10
21.7262024996
 20
73.8053957415
 30
0.0
 10
21.7857859862
 20
73.7828818708
 30
0.0
 10
21.9098829245
 20
73.7501731885
 30
0.0
 10
22.0992371793
 20
73.7215943565
 30
0.0
 10
22.2894523929
 20
73.6988951027
 30
0.0
 10
22.5438510362
 20
73.6772140552
 30
0.0
 10
22.8629672719
 20
73.6626849596
 30
0.0
 10
23.1185736558
 20
73.6592933046
 30
0.0
 10
23.2464402026
 20
73.6592912833
 30
0.0
  0
SPLINE
  5
2B0
100
AcDbEntity
  8
0
100
AcDbSpline
 62
7
  6
BYLAYER
 70
0
 71
3
 72
14
 73
10
 74
0
 42
0.0000001
 43
0.0000001
 44
0.0000000001
 40
0.0
 40
0.0
 40
0.0
 40
0.0
 40
0.2502558334
 40
0.3751906897
 40
0.4999631852
 40
0.6248428485
 40
0.7501381309
 40
0.8753805364
 40
1.0
 40
1.0
 40
1.0
 40
1.0
 10
23.0820308783
 20
76.8083633817
 30
0.0
 10
22.9678792429
 20
76.8067898222
 30
0.0
 10
22.7967431474
 20
76.8024774707
 30
0.0
 10
22.5689715311
 20
76.7904744302
 30
0.0
 10
22.3985426209
 20
76.7778330567
 30
0.0
 10
22.2283171032
 20
76.7609702861
 30
0.0
 10
22.0582825343
 20
76.7403598379
 30
0.0
 10
21.8893699666
 20
76.7121514825
 30
0.0
 10
21.7793057893
 20
76.6806893325
 30
0.0
 10
21.7262024996
 20
76.6603944393
 30
0.0
  0
SPLINE
  5
2B1
100
AcDbEntity
  8
0
100
AcDbSpline
 62
7
  6
BYLAYER
 70
0
 71
3
 72
18
 73
14
 74
0
 42
0.0000001
 43
0.0000001
 44
0.0000000001
 40
0.0
 40
0.0
 40
0.0
 40
0.0
 40
0.1165525921
 40
0.2364707976
 40
0.3593406456
 40
0.4846674077
 40
0.6119811384
 40
0.6762507099
 40
0.7408570326
 40
0.8057517005
 40
0.870887121
 40
0.9362028846
 40
1.0
 40
1.0
 40
1.0
 40
1.0
 10
20.429527021
 20
73.659407116
 30
0.0
 10
20.4627285235
 20
73.6588341929
 30
0.0
 10
20.5301643283
 20
73.662809187
 30
0.0
 10
20.6315901093
 20
73.6771465918
 30
0.0
 10
20.7342933356
 20
73.6987224499
 30
0.0
 10
20.8378530759
 20
73.7256673468
 30
0.0
 10
20.92433053
 20
73.7517377902
 30
0.0
 10
20.9935749086
 20
73.774773729
 30
0.0
 10
21.0456950718
 20
73.7931447389
 30
0.0
 10
21.0974588314
 20
73.8124688714
 30
0.0
 10
21.1496743147
 20
73.833889819
 30
0.0
 10
21.19698613
 20
73.856747863
 30
0.0
 10
21.2343851124
 20
73.8796980414
 30
0.0
 10
21.2372593679
 20
73.8976454777
 30
0.0
  0
SPLINE
  5
2B2
100
AcDbEntity
  8
0
100
AcDbSpline
 62
7
  6
BYLAYER
 70
0
 71
3
 72
13
 73
9
 74
0
 42
0.0000001
 43
0.0000001
 44
0.0000000001
 40
0.0
 40
0.0
 40
0.0
 40
0.0
 40
0.2491247536
 40
0.4989688625
 40
0.6241276334
 40
0.7495757652
 40
0.8745289941
 40
1.0
 40
1.0
 40
1.0
 40
1.0
 10
21.7262024996
 20
76.6603875096
 30
0.0
 10
21.7114891692
 20
76.6547197858
 30
0.0
 10
21.6821164408
 20
76.6431343755
 30
0.0
 10
21.645929138
 20
76.6271705665
 30
0.0
 10
21.6177053827
 20
76.6128997458
 30
0.0
 10
21.5967001593
 20
76.601420793
 30
0.0
 10
21.57777649
 20
76.5877723046
 30
0.0
 10
21.567227167
 20
76.5733096288
 30
0.0
 10
21.567227167
 20
76.5653685119
 30
0.0
  0
SPLINE
  5
2B3
100
AcDbEntity
  8
0
100
AcDbSpline
 62
7
  6
BYLAYER
 70
0
 71
3
 72
12
 73
8
 74
0
 42
0.0000001
 43
0.0000001
 44
0.0000000001
 40
0.0
 40
0.0
 40
0.0
 40
0.0
 40
0.2462308479
 40
0.3722174558
 40
0.4981237503
 40
0.7494188971
 40
1.0
 40
1.0
 40
1.0
 40
1.0
 10
21.567227167
 20
73.8974386269
 30
0.0
 10
21.5693643771
 20
73.8822591262
 30
0.0
 10
21.5919889772
 20
73.8661045893
 30
0.0
 10
21.6184427811
 20
73.8518892133
 30
0.0
 10
21.6467214276
 20
73.8378386837
 30
0.0
 10
21.6824861949
 20
73.8223279567
 30
0.0
 10
21.7116239639
 20
73.8109554253
 30
0.0
 10
21.7262024996
 20
73.8054031563
 30
0.0
  0
SPLINE
  5
2B4
100
AcDbEntity
  8
0
100
AcDbSpline
 62
7
  6
BYLAYER
 70
0
 71
3
 72
19
 73
15
 74
0
 42
0.0000001
 43
0.0000001
 44
0.0000000001
 40
0.0
 40
0.0
 40
0.0
 40
0.0
 40
0.032544125
 40
0.0649268753
 40
0.0974561087
 40
0.1299087707
 40
0.1946623982
 40
0.2591993609
 40
0.3234795446
 40
0.3874599136
 40
0.5143356035
 40
0.6394560742
 40
0.7624181958
 40
1.0
 40
1.0
 40
1.0
 40
1.0
 10
21.2372593679
 20
76.5652888709
 30
0.0
 10
21.2372593679
 20
76.5740898303
 30
0.0
 10
21.2247429407
 20
76.5897915305
 30
0.0
 10
21.2033742909
 20
76.604102939
 30
0.0
 10
21.1798997725
 20
76.6164776988
 30
0.0
 10
21.1484469678
 20
76.6318892762
 30
0.0
 10
21.1081270582
 20
76.6489953592
 30
0.0
 10
21.0592623314
 20
76.6677456867
 30
0.0
 10
21.0102420958
 20
76.6855242378
 30
0.0
 10
20.9449752709
 20
76.7079093405
 30
0.0
 10
20.8634575994
 20
76.7335857218
 30
0.0
 10
20.7656643117
 20
76.7605320946
 30
0.0
 10
20.637749894
 20
76.7902332327
 30
0.0
 10
20.5408822896
 20
76.8048686172
 30
0.0
 10
20.4767265486
 20
76.8083406765
 30
0.0
  0
ENDSEC
  0
SECTION
  2
OBJECTS
  0
DICTIONARY
  5
C
100
AcDbDictionary
280
0
281
1
  3
ACAD_GROUP
350
D
  3
ACAD_MLINESTYLE
350
17
  3
ACAD_LAYOUT
350
1A
  3
ACAD_PLOTSETTINGS
350
19
  3
ACAD_PLOTSTYLENAME
350
E
  0
DICTIONARY
  5
D
102
{ACAD_REACTORS
330
C
102
}
100
AcDbDictionary
280
0
281
1
  0
ACDBDICTIONARYWDFLT
  5
E
102
{ACAD_REACTORS
330
C
102
}
100
AcDbDictionary
281
1
  3
Normal
350
F
100
AcDbDictionaryWithDefault
340
F
  0
DICTIONARY
  5
17
102
{ACAD_REACTORS
330
C
102
}
100
AcDbDictionary
280
0
281
1
  3
Standard
350
18
  0
DICTIONARY
  5
19
102
{ACAD_REACTORS
330
C
102
}
100
AcDbDictionary
281
1
  0
DICTIONARY
  5
1A
102
{ACAD_REACTORS
330
C
102
}
100
AcDbDictionary
281
1
  3
Model
350
2B5
  3
Layout1
350
2B6
  0
ACDBPLACEHOLDER
  5
F
102
{ACAD_REACTORS
330
E
102
}
  0
MLINESTYLE
  5
18
102
{ACAD_REACTORS
330
17
102
}
100
AcDbMlineStyle
  2
STANDARD
 70
0
  3

 62
256
 51
90.0
 52
90.0
 71
2
 49
0.5
 62
256
  6
BYLAYER
 49
-0.5
 62
256
  6
BYLAYER
  0
LAYOUT
  5
2B5
102
{ACAD_REACTORS
330
1A
102
}
100
AcDbPlotSettings
  1

  2
none_device
  4

  6

 40
0.0
 41
0.0
 42
0.0
 43
0.0
 44
210.0
 45
297.0
 46
0.0
 47
0.0
 48
0.0
 49
0.0
140
0.0
141
0.0
142
1.0
143
1.0
 70
1024
 72
1
 73
0
 74
0
  7

 75
0
147
1.0
148
0.0
149
0.0
100
AcDbLayout
  1
Model
 70
0
 71
0
 10
0.0
 20
0.0
 11
210.0
 21
297.0
 12
0.0
 22
0.0
 32
0.0
 14
0.0
 24
0.0
 34
0.0
 15
0.0
 25
0.0
 35
0.0
146
0.0
 13
0.0
 23
0.0
 33
0.0
 16
1.0
 26
0.0
 36
0.0
 17
0.0
 27
1.0
 37
0.0
 76
0
330
210
345
0
346
0
  0
LAYOUT
  5
2B6
102
{ACAD_REACTORS
330
1A
102
}
100
AcDbPlotSettings
  1

  2
none_device
  4

  6

 40
0.0
 41
0.0
 42
0.0
 43
0.0
 44
210.0
 45
297.0
 46
0.0
 47
0.0
 48
0.0
 49
0.0
140
0.0
141
0.0
142
1.0
143
1.0
 70
0
 72
1
 73
0
 74
0
  7

 75
0
147
1.0
148
0.0
149
0.0
100
AcDbLayout
  1
Layout1
 70
0
 71
1
 10
0.0
 20
0.0
 11
210.0
 21
297.0
 12
0.0
 22
0.0
 32
0.0
 14
0.0
 24
0.0
 34
0.0
 15
0.0
 25
0.0
 35
0.0
146
0.0
 13
0.0
 23
0.0
 33
0.0
 16
1.0
 26
0.0
 36
0.0
 17
0.0
 27
1.0
 37
0.0
 76
0
330
211
345
0
346
0
  0
ENDSEC
  0
EOF
