999
DXF file: C:\Users\sesa63760\Dev\_Creo\CAD\MCADID0005237_3D-CAD\drw0001_7.dxf
999
Pro/ENGINEER 2019471 by Parametric Technology Corporation
  0
SECTION
  2
HEADER
  9
$ACADVER
  1
AC1024
  9
$DWGCODEPAGE
  3
ANSI_1252
  9
$EXTMAX
 10
59.2532035453
 20
83.8009592998
 30
0.0
  9
$EXTMIN
 10
0.0
 20
0.0
 30
0.0
  9
$LIMMIN
 10
0.0
 20
0.0
  9
$LIMMAX
 10
59.2532035453
 20
83.8009592998
  9
$VIEWCTR
 10
29.6266017727
 20
41.9004796499
  9
$VIEWSIZE
 40
83.8009592998
  9
$CLAYER
  8
0
  9
$LTSCALE
 40
5.4625810507
  9
$CELTYPE
  6
BYLAYER
  9
$DIMSCALE
 40
1.0
  9
$DIMASZ
 40
0.7053952803
  9
$DIMEXO
 40
1.0
  9
$DIMDLI
 40
3.7741469077
  9
$DIMEXE
 40
1.0
  9
$DIMCEN
 40
0.8938768992
  9
$DIMLFAC
 40
1.0
  9
$DIMBLK
  1
_FILLED
  9
$DIMALT
 70
0
  9
$DIMALTF
 40
0.0393700787
  9
$DIMTXT
 40
0.9875533924
  9
$DIMTOL
 70
1
  9
$DIMLIM
 70
0
  9
$DIMTFAC
 40
1.0
  9
$DIMTP
 40
0.01
  9
$DIMTM
 40
0.01
  9
$DIMGAP
 40
0.625
  9
$DIMDSEP
 70
46
  9
$AUNITS
 70
0
  9
$PDMODE
 70
3
  9
$PDSIZE
 40
0.3125
  9
$HANDSEED
  5
2A6
  9
$TILEMODE
 70
1
  9
$MEASUREMENT
 70
1
  9
$INSUNITS
 70
4
  0
ENDSEC
  0
SECTION
  2
CLASSES
  0
CLASS
  1
ACDBDICTIONARYWDFLT
  2
AcDbDictionaryWithDefault
  3
AutoCAD 2000
 90
0
 91
1
280
0
281
0
  0
CLASS
  1
ACDBPLACEHOLDER
  2
AcDbPlaceHolder
  3
AutoCAD 2000
 90
0
 91
1
280
0
281
0
  0
CLASS
  1
LAYOUT
  2
AcDbLayout
  3
AutoCAD 2000
 90
0
 91
0
280
0
281
0
  0
ENDSEC
  0
SECTION
  2
TABLES
  0
TABLE
  2
VPORT
  5
8
100
AcDbSymbolTable
 70
2
  0
VPORT
  5
1F4
100
AcDbSymbolTableRecord
100
AcDbViewportTableRecord
  2
*ACTIVE
 70
0
 10
0.0
 20
0.0
 11
1.0
 21
1.0
 12
29.6266017727
 22
41.9004796499
 13
0.0
 23
0.0
 14
1.0
 24
1.0
 15
0.0
 25
0.0
 16
0.0
 26
0.0
 36
1.0
 17
0.0
 27
0.0
 37
0.0
 40
83.8009592998
 41
0.7070707071
 42
50.0
 43
0.0
 44
0.0
 50
0.0
 51
0.0
 71
0
 72
100
 73
1
 74
1
 75
0
 76
0
 77
0
 78
0
  0
ENDTAB
  0
TABLE
  2
LTYPE
  5
5
100
AcDbSymbolTable
 70
6
  0
LTYPE
  5
14
100
AcDbSymbolTableRecord
100
AcDbLinetypeTableRecord
  2
BYBLOCK
 70
0
  3

 72
65
 73
0
 40
0.0
  0
LTYPE
  5
15
100
AcDbSymbolTableRecord
100
AcDbLinetypeTableRecord
  2
BYLAYER
 70
0
  3

 72
65
 73
0
 40
0.0
  0
LTYPE
  5
16
100
AcDbSymbolTableRecord
100
AcDbLinetypeTableRecord
  2
CONTINUOUS
 70
64
  3
Solid line
 72
65
 73
0
 40
0.0
  0
LTYPE
  5
1F5
100
AcDbSymbolTableRecord
100
AcDbLinetypeTableRecord
  2
CENTER
 70
64
  3
____ _ ____ _ ____ _ ____ _ ____ _ ____ _ ____
 72
65
 73
4
 40
0.6
 49
0.375
 74
0
 49
-0.075
 74
0
 49
0.075
 74
0
 49
-0.075
 74
0
  0
LTYPE
  5
1F6
100
AcDbSymbolTableRecord
100
AcDbLinetypeTableRecord
  2
HIDDEN
 70
64
  3
- - - - - - - - - - - - - - - - - - - -
 72
65
 73
2
 40
0.2
 49
0.1
 74
0
 49
-0.1
 74
0
  0
LTYPE
  5
1F7
100
AcDbSymbolTableRecord
100
AcDbLinetypeTableRecord
  2
PHANTOM
 70
64
  3
_____ _ _ _____ _ _ _____ _ _ _____
 72
65
 73
6
 40
0.8
 49
0.45
 74
0
 49
-0.05
 74
0
 49
0.1
 74
0
 49
-0.05
 74
0
 49
0.1
 74
0
 49
-0.05
 74
0
  0
LTYPE
  5
1F8
100
AcDbSymbolTableRecord
100
AcDbLinetypeTableRecord
  2
DOT
 70
64
  3
. . . . . . . . . . . . . . . . . . . .
 72
65
 73
2
 40
0.2
 49
0.1
 74
0
 49
-0.1
 74
0
  0
LTYPE
  5
1F9
100
AcDbSymbolTableRecord
100
AcDbLinetypeTableRecord
  2
DASHED
 70
64
  3
- - - - - - - - - - - - - - - - - - - -
 72
65
 73
2
 40
0.2
 49
0.1
 74
0
 49
-0.1
 74
0
  0
ENDTAB
  0
TABLE
  2
LAYER
  5
2
100
AcDbSymbolTable
 70
36
  0
LAYER
  5
10
100
AcDbSymbolTableRecord
100
AcDbLayerTableRecord
  2
0
 70
0
 62
7
  6
CONTINUOUS
370
-3
390
F
  0
LAYER
  5
1FA
100
AcDbSymbolTableRecord
100
AcDbLayerTableRecord
  2
DEFAULT_1
 70
0
 62
7
  6
CENTER
370
-3
390
F
  0
LAYER
  5
1FB
100
AcDbSymbolTableRecord
100
AcDbLayerTableRecord
  2
DEFAULT_2
 70
0
 62
7
  6
HIDDEN
370
-3
390
F
  0
LAYER
  5
1FC
100
AcDbSymbolTableRecord
100
AcDbLayerTableRecord
  2
DEFAULT_3
 70
0
 62
7
  6
PHANTOM
370
-3
390
F
  0
LAYER
  5
1FD
100
AcDbSymbolTableRecord
100
AcDbLayerTableRecord
  2
00_COMPONENTS
 70
0
 62
7
  6
CONTINUOUS
370
-3
390
F
  0
LAYER
  5
1FE
100
AcDbSymbolTableRecord
100
AcDbLayerTableRecord
  2
00_COMPONENTS_1
 70
0
 62
7
  6
CONTINUOUS
370
-3
390
F
  0
LAYER
  5
1FF
100
AcDbSymbolTableRecord
100
AcDbLayerTableRecord
  2
00_COMPONENTS_2
 70
0
 62
7
  6
CONTINUOUS
370
-3
390
F
  0
LAYER
  5
200
100
AcDbSymbolTableRecord
100
AcDbLayerTableRecord
  2
01_1_DEFAULT_DATUMS
 70
0
 62
7
  6
CONTINUOUS
370
-3
390
F
  0
LAYER
  5
201
100
AcDbSymbolTableRecord
100
AcDbLayerTableRecord
  2
01_PLANES
 70
0
 62
7
  6
CONTINUOUS
370
-3
390
F
  0
LAYER
  5
202
100
AcDbSymbolTableRecord
100
AcDbLayerTableRecord
  2
02_COORD_SYS
 70
0
 62
7
  6
CONTINUOUS
370
-3
390
F
  0
LAYER
  5
203
100
AcDbSymbolTableRecord
100
AcDbLayerTableRecord
  2
03_AXES
 70
0
 62
7
  6
CONTINUOUS
370
-3
390
F
  0
LAYER
  5
204
100
AcDbSymbolTableRecord
100
AcDbLayerTableRecord
  2
04_POINTS
 70
0
 62
7
  6
CONTINUOUS
370
-3
390
F
  0
LAYER
  5
205
100
AcDbSymbolTableRecord
100
AcDbLayerTableRecord
  2
05_CURVES
 70
0
 62
7
  6
CONTINUOUS
370
-3
390
F
  0
LAYER
  5
206
100
AcDbSymbolTableRecord
100
AcDbLayerTableRecord
  2
06_SURFS
 70
0
 62
7
  6
CONTINUOUS
370
-3
390
F
  0
LAYER
  5
207
100
AcDbSymbolTableRecord
100
AcDbLayerTableRecord
  2
07_COSMETICS
 70
0
 62
7
  6
CONTINUOUS
370
-3
390
F
  0
LAYER
  5
208
100
AcDbSymbolTableRecord
100
AcDbLayerTableRecord
  2
10_NOTES
 70
0
 62
7
  6
CONTINUOUS
370
-3
390
F
  0
LAYER
  5
209
100
AcDbSymbolTableRecord
100
AcDbLayerTableRecord
  2
11_NOTES_PUB
 70
0
 62
7
  6
CONTINUOUS
370
-3
390
F
  0
LAYER
  5
20A
100
AcDbSymbolTableRecord
100
AcDbLayerTableRecord
  2
13_REF_GTOL
 70
0
 62
7
  6
CONTINUOUS
370
-3
390
F
  0
LAYER
  5
20B
100
AcDbSymbolTableRecord
100
AcDbLayerTableRecord
  2
16_MISC
 70
0
 62
7
  6
CONTINUOUS
370
-3
390
F
  0
LAYER
  5
20C
100
AcDbSymbolTableRecord
100
AcDbLayerTableRecord
  2
17_NO_PRINT
 70
0
 62
7
  6
CONTINUOUS
370
-3
390
F
  0
LAYER
  5
20D
100
AcDbSymbolTableRecord
100
AcDbLayerTableRecord
  2
18_DATUM_CAMS_JOINTS
 70
0
 62
7
  6
CONTINUOUS
370
-3
390
F
  0
LAYER
  5
20E
100
AcDbSymbolTableRecord
100
AcDbLayerTableRecord
  2
19_DATUM_FUNCTIONAL
 70
0
 62
7
  6
CONTINUOUS
370
-3
390
F
  0
LAYER
  5
20F
100
AcDbSymbolTableRecord
100
AcDbLayerTableRecord
  2
20_DATUM_KINEMATIC_SCHEME
 70
0
 62
7
  6
CONTINUOUS
370
-3
390
F
  0
LAYER
  5
210
100
AcDbSymbolTableRecord
100
AcDbLayerTableRecord
  2
INTF_BLANK
 70
0
 62
7
  6
CONTINUOUS
370
-3
390
F
  0
LAYER
  5
211
100
AcDbSymbolTableRecord
100
AcDbLayerTableRecord
  2
SHELL5
 70
0
 62
7
  6
CONTINUOUS
370
-3
390
F
  0
LAYER
  5
212
100
AcDbSymbolTableRecord
100
AcDbLayerTableRecord
  2
SHELL6
 70
0
 62
7
  6
CONTINUOUS
370
-3
390
F
  0
LAYER
  5
213
100
AcDbSymbolTableRecord
100
AcDbLayerTableRecord
  2
SHELL980
 70
0
 62
7
  6
CONTINUOUS
370
-3
390
F
  0
LAYER
  5
214
100
AcDbSymbolTableRecord
100
AcDbLayerTableRecord
  2
_BLACK_HOLE
 70
0
 62
7
  6
CONTINUOUS
370
-3
390
F
  0
LAYER
  5
215
100
AcDbSymbolTableRecord
100
AcDbLayerTableRecord
  2
black
 70
0
 62
7
  6
CONTINUOUS
370
-3
390
F
  0
ENDTAB
  0
TABLE
  2
STYLE
  5
3
100
AcDbSymbolTable
 70
1
  0
STYLE
  5
11
100
AcDbSymbolTableRecord
100
AcDbTextStyleTableRecord
  2
STANDARD
 70
0
 40
0.0
 41
1.0
 50
0.0
 71
0
 42
0.2
  3
ARIAL.TTF
  4

  0
STYLE
  5
216
100
AcDbSymbolTableRecord
100
AcDbTextStyleTableRecord
  2
TEXTSTYLE_1
 70
0
 40
0.0
 41
0.8
 50
0.0
 71
0
 42
0.2
  3
gdt
  4

  0
ENDTAB
  0
TABLE
  2
VIEW
  5
6
100
AcDbSymbolTable
 70
0
  0
ENDTAB
  0
TABLE
  2
UCS
  5
7
100
AcDbSymbolTable
 70
0
  0
ENDTAB
  0
TABLE
  2
APPID
  5
9
100
AcDbSymbolTable
 70
1
  0
APPID
  5
217
100
AcDbSymbolTableRecord
100
AcDbRegAppTableRecord
  2
ACAD
 70
0
  0
ENDTAB
  0
TABLE
  2
BLOCK_RECORD
  5
1
100
AcDbSymbolTable
 70
0
  0
BLOCK_RECORD
  5
218
100
AcDbSymbolTableRecord
100
AcDbBlockTableRecord
  2
*Model_Space
  0
BLOCK_RECORD
  5
219
100
AcDbSymbolTableRecord
100
AcDbBlockTableRecord
  2
*Paper_Space
  0
BLOCK_RECORD
  5
21A
100
AcDbSymbolTableRecord
100
AcDbBlockTableRecord
  2
_FILLED
  0
ENDTAB
  0
TABLE
  2
DIMSTYLE
  5
A
100
AcDbSymbolTable
 70
1
100
AcDbDimStyleTable
 71
0
  0
DIMSTYLE
105
21B
100
AcDbSymbolTableRecord
100
AcDbDimStyleTableRecord
  2
STANDARD
 70
0
  3

  4

 40
1.0
 41
0.7053952803
 42
1.0
 43
0.38
 44
1.0
 45
0.0
 46
0.0
 47
0.01
 48
0.01
140
0.9875533924
141
0.09
142
0.0
143
25.4
144
1.0
145
0.0
146
1.0
147
0.625
 71
1
 72
0
 73
0
 74
0
 75
0
 76
0
 77
1
 78
8
 79
2
170
0
171
1
172
0
173
0
174
0
175
0
176
0
177
0
178
0
270
2
179
2
271
2
272
2
273
2
274
2
275
0
280
0
281
0
282
0
283
1
284
8
285
0
286
0
287
3
288
0
340
11
278
46
341
21A
342
21A
343
21A
344
21A
  0
ENDTAB
  0
ENDSEC
  0
SECTION
  2
BLOCKS
  0
BLOCK
  5
20
100
AcDbEntity
  8
0
100
AcDbBlockBegin
  2
*Model_Space
 70
0
 10
0.0
 20
0.0
 30
0.0
  3
*Model_Space
  1

  0
ENDBLK
  5
21
100
AcDbEntity
  8
0
100
AcDbBlockEnd
  0
BLOCK
  5
1C
100
AcDbEntity
  8
0
100
AcDbBlockBegin
  2
*Paper_Space
 70
0
 10
0.0
 20
0.0
 30
0.0
  3
*Paper_Space
  1

  0
ENDBLK
  5
1D
100
AcDbEntity
  8
0
100
AcDbBlockEnd
  0
BLOCK
  5
21C
100
AcDbEntity
  8
0
100
AcDbBlockBegin
  2
_FILLED
 70
64
 10
0.0
 20
0.0
  3
_FILLED
  1

  0
SOLID
  5
21D
100
AcDbEntity
  8
0
  6
BYBLOCK
 62
0
100
AcDbTrace
 10
0.0
 20
0.0
 11
-1.0
 21
0.25
 12
-1.0
 22
-0.25
 13
-1.0
 23
-0.25
  0
ENDBLK
  5
21E
100
AcDbEntity
  8
0
  6
BYBLOCK
 62
0
100
AcDbBlockEnd
  0
ENDSEC
  0
SECTION
  2
ENTITIES
  0
LINE
  5
21F
100
AcDbEntity
  8
00_COMPONENTS
100
AcDbLine
 62
7
  6
BYLAYER
 10
6.2915733263
 20
23.2764468577
 11
6.2915733263
 21
61.7663986565
  0
LINE
  5
220
100
AcDbEntity
  8
00_COMPONENTS
100
AcDbLine
 62
7
  6
BYLAYER
 10
11.3499377258
 20
21.9745967521
 11
6.2915733263
 21
23.2764468577
  0
LINE
  5
221
100
AcDbEntity
  8
00_COMPONENTS
100
AcDbLine
 62
7
  6
BYLAYER
 10
7.5615733263
 20
26.5275866055
 11
7.5615733263
 21
27.8957534105
  0
LINE
  5
222
100
AcDbEntity
  8
00_COMPONENTS
100
AcDbLine
 62
7
  6
BYLAYER
 10
7.5615733263
 20
30.425017762
 11
7.5615733263
 21
31.7931845671
  0
LINE
  5
223
100
AcDbEntity
  8
00_COMPONENTS
100
AcDbLine
 62
7
  6
BYLAYER
 10
7.5615733263
 20
53.2496609471
 11
7.5615733263
 21
54.6178277522
  0
LINE
  5
224
100
AcDbEntity
  8
00_COMPONENTS
100
AcDbLine
 62
7
  6
BYLAYER
 10
7.5615733263
 20
57.1470921037
 11
7.5615733263
 21
58.5152589087
  0
LINE
  5
225
100
AcDbEntity
  8
00_COMPONENTS
100
AcDbLine
 62
7
  6
BYLAYER
 10
7.8155733263
 20
39.2829227571
 11
7.8155733263
 21
45.7599227571
  0
LINE
  5
226
100
AcDbEntity
  8
00_COMPONENTS
100
AcDbLine
 62
7
  6
BYLAYER
 10
33.3166733263
 20
20.0076227571
 11
30.1416733263
 21
20.0076227571
  0
LINE
  5
227
100
AcDbEntity
  8
00_COMPONENTS
100
AcDbLine
 62
7
  6
BYLAYER
 10
8.596420722
 20
25.096986835
 11
6.2915733263
 21
25.6901757768
  0
LINE
  5
228
100
AcDbEntity
  8
00_COMPONENTS
100
AcDbLine
 62
7
  6
BYLAYER
 10
9.0855733263
 20
44.4899227571
 11
9.0855733263
 21
40.5529227571
  0
LINE
  5
229
100
AcDbEntity
  8
00_COMPONENTS
100
AcDbLine
 62
7
  6
BYLAYER
 10
9.8513118572
 20
53.3571848387
 11
9.8513118572
 21
54.0037632794
  0
LINE
  5
22A
100
AcDbEntity
  8
00_COMPONENTS
100
AcDbLine
 62
7
  6
BYLAYER
 10
9.8513118572
 20
57.6735307473
 11
9.8513118572
 21
57.901194436
  0
LINE
  5
22B
100
AcDbEntity
  8
00_COMPONENTS
100
AcDbLine
 62
7
  6
BYLAYER
 10
10.2915733263
 20
21.3284227571
 11
10.2915733263
 21
22.2469835745
  0
LINE
  5
22C
100
AcDbEntity
  8
00_COMPONENTS
100
AcDbLine
 62
7
  6
BYLAYER
 10
10.2915733263
 20
62.7958619397
 11
10.2915733263
 21
64.2036227571
  0
LINE
  5
22D
100
AcDbEntity
  8
00_COMPONENTS
100
AcDbLine
 62
7
  6
BYLAYER
 10
53.1667733263
 20
21.3284227571
 11
37.6275007279
 21
21.3284227571
  0
LINE
  5
22E
100
AcDbEntity
  8
00_COMPONENTS
100
AcDbLine
 62
7
  6
BYLAYER
 10
25.8308459246
 20
21.3284227571
 11
10.2915733263
 21
21.3284227571
  0
LINE
  5
22F
100
AcDbEntity
  8
00_COMPONENTS
100
AcDbLine
 62
7
  6
BYLAYER
 10
21.5315733263
 20
21.9745967521
 11
11.3499377258
 21
21.9745967521
  0
LINE
  5
230
100
AcDbEntity
  8
00_COMPONENTS
100
AcDbLine
 62
7
  6
BYLAYER
 10
28.1736733263
 20
22.3284227571
 11
21.5569733263
 21
22.3284227571
  0
LINE
  5
231
100
AcDbEntity
  8
00_COMPONENTS
100
AcDbLine
 62
7
  6
BYLAYER
 10
18.9915733263
 20
22.3284227571
 11
21.5315733263
 21
22.3284227571
  0
LINE
  5
232
100
AcDbEntity
  8
00_COMPONENTS
100
AcDbLine
 62
7
  6
BYLAYER
 10
21.5569733263
 20
22.3538227571
 11
21.5315733263
 21
22.3538227571
  0
LINE
  5
233
100
AcDbEntity
  8
00_COMPONENTS
100
AcDbLine
 62
7
  6
BYLAYER
 10
6.2915733263
 20
28.222608003
 11
8.596420722
 21
27.6294190611
  0
LINE
  5
234
100
AcDbEntity
  8
00_COMPONENTS
100
AcDbLine
 62
7
  6
BYLAYER
 10
14.0639733263
 20
26.2851196902
 11
6.2915733263
 21
28.2854697958
  0
LINE
  5
235
100
AcDbEntity
  8
00_COMPONENTS
100
AcDbLine
 62
7
  6
BYLAYER
 10
30.1416733263
 20
20.0076227571
 11
25.8308459246
 21
21.3284227571
  0
LINE
  5
236
100
AcDbEntity
  8
00_COMPONENTS
100
AcDbLine
 62
7
  6
BYLAYER
 10
11.2699733263
 20
45.7599227571
 11
11.2699733263
 21
44.4899227571
  0
LINE
  5
237
100
AcDbEntity
  8
00_COMPONENTS
100
AcDbLine
 62
7
  6
BYLAYER
 10
11.2699733263
 20
40.5529227571
 11
11.2699733263
 21
39.2829227571
  0
LINE
  5
238
100
AcDbEntity
  8
00_COMPONENTS
100
AcDbLine
 62
7
  6
BYLAYER
 10
8.596420722
 20
28.9944179915
 11
6.2915733263
 21
29.5876069334
  0
LINE
  5
239
100
AcDbEntity
  8
00_COMPONENTS
100
AcDbLine
 62
7
  6
BYLAYER
 10
14.0639733263
 20
63.0682487621
 11
14.0639733263
 21
60.5327422396
  0
LINE
  5
23A
100
AcDbEntity
  8
00_COMPONENTS
100
AcDbLine
 62
7
  6
BYLAYER
 10
14.0639733263
 20
59.6408652203
 11
14.0639733263
 21
56.635311083
  0
LINE
  5
23B
100
AcDbEntity
  8
00_COMPONENTS
100
AcDbLine
 62
7
  6
BYLAYER
 10
14.0639733263
 20
55.7434340637
 11
14.0639733263
 21
52.6870726862
  0
LINE
  5
23C
100
AcDbEntity
  8
00_COMPONENTS
100
AcDbLine
 62
7
  6
BYLAYER
 10
14.0639733263
 20
32.3557728281
 11
14.0639733263
 21
29.2994114505
  0
LINE
  5
23D
100
AcDbEntity
  8
00_COMPONENTS
100
AcDbLine
 62
7
  6
BYLAYER
 10
14.0639733263
 20
28.4075344312
 11
14.0639733263
 21
25.401980294
  0
LINE
  5
23E
100
AcDbEntity
  8
00_COMPONENTS
100
AcDbLine
 62
7
  6
BYLAYER
 10
14.0639733263
 20
24.5101032746
 11
14.0639733263
 21
21.9745967521
  0
LINE
  5
23F
100
AcDbEntity
  8
00_COMPONENTS
100
AcDbLine
 62
7
  6
BYLAYER
 10
6.2915733263
 20
48.686372475
 11
14.0639733263
 21
52.6870726862
  0
LINE
  5
240
100
AcDbEntity
  8
00_COMPONENTS
100
AcDbLine
 62
7
  6
BYLAYER
 10
18.9915733263
 20
26.2851196902
 11
14.0639733263
 21
26.2851196902
  0
LINE
  5
241
100
AcDbEntity
  8
00_COMPONENTS
100
AcDbLine
 62
7
  6
BYLAYER
 10
9.3327956904
 20
26.5275866055
 11
7.5615733263
 21
26.5275866055
  0
LINE
  5
242
100
AcDbEntity
  8
00_COMPONENTS
100
AcDbLine
 62
7
  6
BYLAYER
 10
6.2915733263
 20
32.1200391595
 11
8.596420722
 21
31.5268502177
  0
LINE
  5
243
100
AcDbEntity
  8
00_COMPONENTS
100
AcDbLine
 62
7
  6
BYLAYER
 10
14.0639733263
 20
32.3557728281
 11
6.2915733263
 21
36.3564730392
  0
LINE
  5
244
100
AcDbEntity
  8
00_COMPONENTS
100
AcDbLine
 62
7
  6
BYLAYER
 10
9.3327956904
 20
30.425017762
 11
8.596420722
 21
28.9944179915
  0
LINE
  5
245
100
AcDbEntity
  8
00_COMPONENTS
100
AcDbLine
 62
7
  6
BYLAYER
 10
18.9915733263
 20
22.3284227571
 11
18.9915733263
 21
32.3557728281
  0
LINE
  5
246
100
AcDbEntity
  8
00_COMPONENTS
100
AcDbLine
 62
7
  6
BYLAYER
 10
18.9915733263
 20
52.6870726862
 11
18.9915733263
 21
62.7144227571
  0
LINE
  5
247
100
AcDbEntity
  8
00_COMPONENTS
100
AcDbLine
 62
7
  6
BYLAYER
 10
9.3327956904
 20
26.5275866055
 11
8.596420722
 21
25.096986835
  0
LINE
  5
248
100
AcDbEntity
  8
00_COMPONENTS
100
AcDbLine
 62
7
  6
BYLAYER
 10
9.3327956904
 20
30.425017762
 11
7.5615733263
 21
30.425017762
  0
LINE
  5
249
100
AcDbEntity
  8
00_COMPONENTS
100
AcDbLine
 62
7
  6
BYLAYER
 10
8.596420722
 20
56.0484275227
 11
9.3327956904
 21
54.6178277522
  0
LINE
  5
24A
100
AcDbEntity
  8
00_COMPONENTS
100
AcDbLine
 62
7
  6
BYLAYER
 10
8.596420722
 20
59.9458586792
 11
9.3327956904
 21
58.5152589087
  0
LINE
  5
24B
100
AcDbEntity
  8
00_COMPONENTS
100
AcDbLine
 62
7
  6
BYLAYER
 10
13.9601151716
 20
28.1449754969
 11
14.0639733263
 21
28.4075344312
  0
LINE
  5
24C
100
AcDbEntity
  8
00_COMPONENTS
100
AcDbLine
 62
7
  6
BYLAYER
 10
18.9915733263
 20
32.3557728281
 11
14.0639733263
 21
32.3557728281
  0
LINE
  5
24D
100
AcDbEntity
  8
00_COMPONENTS
100
AcDbLine
 62
7
  6
BYLAYER
 10
14.0639733263
 20
56.635311083
 11
13.9601151716
 21
56.8978700173
  0
LINE
  5
24E
100
AcDbEntity
  8
00_COMPONENTS
100
AcDbLine
 62
7
  6
BYLAYER
 10
21.5315733263
 20
21.9745967521
 11
21.5315733263
 21
40.1719227571
  0
LINE
  5
24F
100
AcDbEntity
  8
00_COMPONENTS
100
AcDbLine
 62
7
  6
BYLAYER
 10
21.5315733263
 20
44.8709227571
 11
21.5315733263
 21
63.0682487621
  0
LINE
  5
250
100
AcDbEntity
  8
00_COMPONENTS
100
AcDbLine
 62
7
  6
BYLAYER
 10
21.5569733263
 20
22.3284227571
 11
21.5569733263
 21
40.1338227571
  0
LINE
  5
251
100
AcDbEntity
  8
00_COMPONENTS
100
AcDbLine
 62
7
  6
BYLAYER
 10
21.5569733263
 20
44.9090227571
 11
21.5569733263
 21
62.7144227571
  0
LINE
  5
252
100
AcDbEntity
  8
00_COMPONENTS
100
AcDbLine
 62
7
  6
BYLAYER
 10
22.3443733263
 20
40.1338227571
 11
22.3443733263
 21
44.9090227571
  0
LINE
  5
253
100
AcDbEntity
  8
00_COMPONENTS
100
AcDbLine
 62
7
  6
BYLAYER
 10
13.9601151716
 20
24.2475443404
 11
14.0639733263
 21
24.5101032746
  0
LINE
  5
254
100
AcDbEntity
  8
00_COMPONENTS
100
AcDbLine
 62
7
  6
BYLAYER
 10
14.0124785038
 20
28.4852824399
 11
14.1217811295
 21
28.6976311996
  0
LINE
  5
255
100
AcDbEntity
  8
00_COMPONENTS
100
AcDbLine
 62
7
  6
BYLAYER
 10
14.1217811295
 20
56.3452143146
 11
14.0124785039
 21
56.5575630743
  0
LINE
  5
256
100
AcDbEntity
  8
00_COMPONENTS
100
AcDbLine
 62
7
  6
BYLAYER
 10
14.0639733263
 20
60.5327422396
 11
13.9601151716
 21
60.7953011738
  0
LINE
  5
257
100
AcDbEntity
  8
00_COMPONENTS
100
AcDbLine
 62
7
  6
BYLAYER
 10
14.0124785038
 20
24.5878512833
 11
14.1217811295
 21
24.800200043
  0
LINE
  5
258
100
AcDbEntity
  8
00_COMPONENTS
100
AcDbLine
 62
7
  6
BYLAYER
 10
14.1217811295
 20
60.2426454712
 11
14.0124785039
 21
60.4549942309
  0
LINE
  5
259
100
AcDbEntity
  8
00_COMPONENTS
100
AcDbLine
 62
7
  6
BYLAYER
 10
11.2699733263
 20
39.2829227571
 11
7.8155733263
 21
39.2829227571
  0
LINE
  5
25A
100
AcDbEntity
  8
00_COMPONENTS
100
AcDbLine
 62
7
  6
BYLAYER
 10
23.7667733263
 20
40.1338227571
 11
21.5315733263
 21
40.1338227571
  0
LINE
  5
25B
100
AcDbEntity
  8
00_COMPONENTS
100
AcDbLine
 62
7
  6
BYLAYER
 10
21.5315733263
 20
40.1719227571
 11
22.3443733263
 21
40.1719227571
  0
LINE
  5
25C
100
AcDbEntity
  8
00_COMPONENTS
100
AcDbLine
 62
7
  6
BYLAYER
 10
28.1736733263
 20
22.3284227571
 11
28.1736733263
 21
27.0528227571
  0
LINE
  5
25D
100
AcDbEntity
  8
00_COMPONENTS
100
AcDbLine
 62
7
  6
BYLAYER
 10
9.0855733263
 20
40.5529227571
 11
11.2699733263
 21
40.5529227571
  0
LINE
  5
25E
100
AcDbEntity
  8
00_COMPONENTS
100
AcDbLine
 62
7
  6
BYLAYER
 10
31.4883733263
 20
30.3675227571
 11
31.4883733263
 21
54.6880227571
  0
LINE
  5
25F
100
AcDbEntity
  8
00_COMPONENTS
100
AcDbLine
 62
7
  6
BYLAYER
 10
11.2699733263
 20
44.4899227571
 11
9.0855733263
 21
44.4899227571
  0
LINE
  5
260
100
AcDbEntity
  8
00_COMPONENTS
100
AcDbLine
 62
7
  6
BYLAYER
 10
21.5315733263
 20
44.8709227571
 11
22.3443733263
 21
44.8709227571
  0
LINE
  5
261
100
AcDbEntity
  8
00_COMPONENTS
100
AcDbLine
 62
7
  6
BYLAYER
 10
21.5315733263
 20
44.9090227571
 11
23.7667733263
 21
44.9090227571
  0
LINE
  5
262
100
AcDbEntity
  8
00_COMPONENTS
100
AcDbLine
 62
7
  6
BYLAYER
 10
7.8155733263
 20
45.7599227571
 11
11.2699733263
 21
45.7599227571
  0
LINE
  5
263
100
AcDbEntity
  8
00_COMPONENTS
100
AcDbLine
 62
7
  6
BYLAYER
 10
10.1496722658
 20
53.0523976264
 11
9.3433118572
 21
53.3815928848
  0
LINE
  5
264
100
AcDbEntity
  8
00_COMPONENTS
100
AcDbLine
 62
7
  6
BYLAYER
 10
9.8513118572
 20
53.3571848387
 11
10.5041083329
 21
53.0906817935
  0
LINE
  5
265
100
AcDbEntity
  8
00_COMPONENTS
100
AcDbLine
 62
7
  6
BYLAYER
 10
9.8513118572
 20
54.0037632794
 11
11.5590846259
 21
53.3065679661
  0
LINE
  5
266
100
AcDbEntity
  8
00_COMPONENTS
100
AcDbLine
 62
7
  6
BYLAYER
 10
34.7903733263
 20
62.7144227571
 11
34.7903733263
 21
57.9900227571
  0
LINE
  5
267
100
AcDbEntity
  8
00_COMPONENTS
100
AcDbLine
 62
7
  6
BYLAYER
 10
9.8513118572
 20
57.901194436
 11
10.1933474073
 21
57.7615590074
  0
LINE
  5
268
100
AcDbEntity
  8
00_COMPONENTS
100
AcDbLine
 62
7
  6
BYLAYER
 10
18.9915733263
 20
52.6870726862
 11
14.0639733263
 21
52.6870726862
  0
LINE
  5
269
100
AcDbEntity
  8
00_COMPONENTS
100
AcDbLine
 62
7
  6
BYLAYER
 10
7.5615733263
 20
54.6178277522
 11
9.3327956904
 21
54.6178277522
  0
LINE
  5
26A
100
AcDbEntity
  8
00_COMPONENTS
100
AcDbLine
 62
7
  6
BYLAYER
 10
8.596420722
 20
53.5159952965
 11
6.2915733263
 21
52.9228063547
  0
LINE
  5
26B
100
AcDbEntity
  8
00_COMPONENTS
100
AcDbLine
 62
7
  6
BYLAYER
 10
7.5615733263
 20
58.5152589087
 11
9.3327956904
 21
58.5152589087
  0
LINE
  5
26C
100
AcDbEntity
  8
00_COMPONENTS
100
AcDbLine
 62
7
  6
BYLAYER
 10
18.9915733263
 20
58.757725824
 11
14.0639733263
 21
58.757725824
  0
LINE
  5
26D
100
AcDbEntity
  8
00_COMPONENTS
100
AcDbLine
 62
7
  6
BYLAYER
 10
6.2915733263
 20
55.4552385809
 11
8.596420722
 21
56.0484275227
  0
LINE
  5
26E
100
AcDbEntity
  8
00_COMPONENTS
100
AcDbLine
 62
7
  6
BYLAYER
 10
6.2915733263
 20
56.7573757184
 11
14.0639733263
 21
58.757725824
  0
LINE
  5
26F
100
AcDbEntity
  8
00_COMPONENTS
100
AcDbLine
 62
7
  6
BYLAYER
 10
8.596420722
 20
57.4134264531
 11
6.2915733263
 21
56.8202375113
  0
LINE
  5
270
100
AcDbEntity
  8
00_COMPONENTS
100
AcDbLine
 62
7
  6
BYLAYER
 10
21.5315733263
 20
62.6890227571
 11
21.5569733263
 21
62.6890227571
  0
LINE
  5
271
100
AcDbEntity
  8
00_COMPONENTS
100
AcDbLine
 62
7
  6
BYLAYER
 10
18.9915733263
 20
62.7144227571
 11
21.5315733263
 21
62.7144227571
  0
LINE
  5
272
100
AcDbEntity
  8
00_COMPONENTS
100
AcDbLine
 62
7
  6
BYLAYER
 10
21.5569733263
 20
62.7144227571
 11
34.7903733263
 21
62.7144227571
  0
LINE
  5
273
100
AcDbEntity
  8
00_COMPONENTS
100
AcDbLine
 62
7
  6
BYLAYER
 10
11.3499377258
 20
63.0682487621
 11
21.5315733263
 21
63.0682487621
  0
LINE
  5
274
100
AcDbEntity
  8
00_COMPONENTS
100
AcDbLine
 62
7
  6
BYLAYER
 10
53.1667733263
 20
64.2036227571
 11
53.1667733263
 21
21.3284227571
  0
LINE
  5
275
100
AcDbEntity
  8
00_COMPONENTS
100
AcDbLine
 62
7
  6
BYLAYER
 10
37.6275007279
 20
21.3284227571
 11
33.3166733263
 21
20.0076227571
  0
LINE
  5
276
100
AcDbEntity
  8
00_COMPONENTS
100
AcDbLine
 62
7
  6
BYLAYER
 10
6.2915733263
 20
59.3526697374
 11
8.596420722
 21
59.9458586792
  0
LINE
  5
277
100
AcDbEntity
  8
00_COMPONENTS
100
AcDbLine
 62
7
  6
BYLAYER
 10
10.2915733263
 20
64.2036227571
 11
53.1667733263
 21
64.2036227571
  0
LINE
  5
278
100
AcDbEntity
  8
00_COMPONENTS
100
AcDbLine
 62
7
  6
BYLAYER
 10
6.2915733263
 20
61.7663986565
 11
11.3499377258
 21
63.0682487621
  0
ARC
  5
279
100
AcDbEntity
  8
00_COMPONENTS
100
AcDbCircle
 62
7
  6
BYLAYER
 10
31.4883733263
 20
27.0528227571
 40
3.3147
100
AcDbArc
 50
90.0
 51
180.0
  0
ARC
  5
27A
100
AcDbEntity
  8
00_COMPONENTS
100
AcDbCircle
 62
7
  6
BYLAYER
 10
31.4883733263
 20
57.9900227571
 40
3.302
100
AcDbArc
 50
270.0
 51
360.0
  0
ARC
  5
27B
100
AcDbEntity
  8
00_COMPONENTS
100
AcDbCircle
 62
7
  6
BYLAYER
 10
23.7667733263
 20
42.5214227571
 40
2.3876
100
AcDbArc
 50
270.0
 51
90.0
  0
ARC
  5
27C
100
AcDbEntity
  8
00_COMPONENTS
100
AcDbCircle
 62
7
  6
BYLAYER
 10
11.1470797055
 20
51.7305352857
 40
2.079664176
100
AcDbArc
 50
128.5403706277
 51
133.7507702358
  0
CIRCLE
  5
27D
100
AcDbEntity
  8
00_COMPONENTS
100
AcDbCircle
 62
7
  6
BYLAYER
 10
15.9943733263
 20
42.5214227571
 40
1.8161
  0
ARC
  5
27E
100
AcDbEntity
  8
00_COMPONENTS
100
AcDbCircle
 62
7
  6
BYLAYER
 10
9.6621905788
 20
26.3947909116
 40
1.631003389
100
AcDbArc
 50
127.7594899214
 51
130.8017930229
  0
ARC
  5
27F
100
AcDbEntity
  8
00_COMPONENTS
100
AcDbCircle
 62
7
  6
BYLAYER
 10
9.6550498385
 20
58.6393243064
 40
1.6197287282
100
AcDbArc
 50
229.187615981
 51
232.2511010748
  0
CIRCLE
  5
280
100
AcDbEntity
  8
00_COMPONENTS
100
AcDbCircle
 62
7
  6
BYLAYER
 10
31.4883733263
 20
57.9900227571
 40
1.3716
  0
SPLINE
  5
281
100
AcDbEntity
  8
00_COMPONENTS
100
AcDbSpline
 62
7
  6
BYLAYER
 70
0
 71
3
 72
9
 73
5
 74
0
 42
0.0000001
 43
0.0000001
 44
0.0000000001
 40
0.0
 40
0.0
 40
0.0
 40
0.0
 40
0.24161918
 40
1.0
 40
1.0
 40
1.0
 40
1.0
 10
13.1605590906
 20
30.7351976715
 30
0.0
 10
13.0551659105
 20
30.685568574
 30
0.0
 10
12.6063923124
 20
30.50739944
 30
0.0
 10
12.1182170939
 20
30.4339980182
 30
0.0
 10
11.7525733263
 20
30.4339980182
 30
0.0
  0
SPLINE
  5
282
100
AcDbEntity
  8
00_COMPONENTS
100
AcDbSpline
 62
7
  6
BYLAYER
 70
0
 71
3
 72
15
 73
11
 74
0
 42
0.0000001
 43
0.0000001
 44
0.0000000001
 40
0.0
 40
0.0
 40
0.0
 40
0.0
 40
0.1414789495
 40
0.2809629867
 40
0.4164677371
 40
0.5464784133
 40
0.6698699275
 40
0.7861950169
 40
0.895811571
 40
1.0
 40
1.0
 40
1.0
 40
1.0
 10
11.7525733263
 20
30.4339980182
 30
0.0
 10
11.6081568006
 20
30.4339980182
 30
0.0
 10
11.3210531847
 20
30.451294413
 30
0.0
 10
10.9019376794
 20
30.5284663067
 30
0.0
 10
10.5070388331
 20
30.6547989808
 30
0.0
 10
10.1477050043
 20
30.8266923499
 30
0.0
 10
9.8341706476
 20
31.039585402
 30
0.0
 10
9.5755373402
 20
31.287876998
 30
0.0
 10
9.3797207304
 20
31.5647887343
 30
0.0
 10
9.2937486423
 20
31.7677652778
 30
0.0
 10
9.2641793984
 20
31.8699237337
 30
0.0
  0
SPLINE
  5
283
100
AcDbEntity
  8
00_COMPONENTS
100
AcDbSpline
 62
7
  6
BYLAYER
 70
0
 71
3
 72
9
 73
5
 74
0
 42
0.0000001
 43
0.0000001
 44
0.0000000001
 40
0.0
 40
0.0
 40
0.0
 40
0.0
 40
0.2477717144
 40
1.0
 40
1.0
 40
1.0
 40
1.0
 10
9.2651378228
 20
53.1761912004
 30
0.0
 10
9.2702319712
 20
53.1936240211
 30
0.0
 10
9.2922043189
 20
53.2635636318
 30
0.0
 10
9.3197690973
 20
53.3317326509
 30
0.0
 10
9.3433118572
 20
53.3815928848
 30
0.0
  0
SPLINE
  5
284
100
AcDbEntity
  8
00_COMPONENTS
100
AcDbSpline
 62
7
  6
BYLAYER
 70
0
 71
3
 72
13
 73
9
 74
0
 42
0.0000001
 43
0.0000001
 44
0.0000000001
 40
0.0
 40
0.0
 40
0.0
 40
0.0
 40
0.2826505823
 40
0.5450026185
 40
0.6674178343
 40
0.7837247994
 40
0.8943579211
 40
1.0
 40
1.0
 40
1.0
 40
1.0
 10
11.1033764218
 20
31.8874341918
 30
0.0
 10
10.8638469406
 20
31.9490808934
 30
0.0
 10
10.3909353539
 20
32.0297557519
 30
0.0
 10
9.8023257867
 20
32.0160690208
 30
0.0
 10
9.3715321298
 20
31.9291851163
 30
0.0
 10
9.0811204247
 20
31.8306781805
 30
0.0
 10
8.8206233453
 20
31.6986692517
 30
0.0
 10
8.6663807892
 20
31.5872758263
 30
0.0
 10
8.596420722
 20
31.5268502177
 30
0.0
  0
SPLINE
  5
285
100
AcDbEntity
  8
00_COMPONENTS
100
AcDbSpline
 62
7
  6
BYLAYER
 70
0
 71
3
 72
14
 73
10
 74
0
 42
0.0000001
 43
0.0000001
 44
0.0000000001
 40
0.0
 40
0.0
 40
0.0
 40
0.0
 40
0.2195690269
 40
0.3408031023
 40
0.4680786573
 40
0.5997110568
 40
0.7336841191
 40
0.867857641
 40
1.0
 40
1.0
 40
1.0
 40
1.0
 10
14.0639733263
 20
29.2994114505
 30
0.0
 10
13.9914749207
 20
29.5906106132
 30
0.0
 10
13.7843391353
 20
30.0208360539
 30
0.0
 10
13.3911250131
 20
30.5261447184
 30
0.0
 10
13.0199343746
 20
30.8920967805
 30
0.0
 10
12.5936645077
 20
31.2205139978
 30
0.0
 10
12.1243102911
 20
31.5026157852
 30
0.0
 10
11.6255239001
 20
31.7300421373
 30
0.0
 10
11.2782777442
 20
31.8424205694
 30
0.0
 10
11.1033764218
 20
31.8874341918
 30
0.0
  0
SPLINE
  5
286
100
AcDbEntity
  8
00_COMPONENTS
100
AcDbSpline
 62
7
  6
BYLAYER
 70
0
 71
3
 72
14
 73
10
 74
0
 42
0.0000001
 43
0.0000001
 44
0.0000000001
 40
0.0
 40
0.0
 40
0.0
 40
0.0
 40
0.132142359
 40
0.2663158809
 40
0.4002889432
 40
0.5319213427
 40
0.6591968977
 40
0.7804309731
 40
1.0
 40
1.0
 40
1.0
 40
1.0
 10
11.1033764218
 20
53.1554113224
 30
0.0
 10
11.2782777442
 20
53.2004249448
 30
0.0
 10
11.6255239001
 20
53.312803377
 30
0.0
 10
12.1243102911
 20
53.540229729
 30
0.0
 10
12.5936645077
 20
53.8223315165
 30
0.0
 10
13.0199343746
 20
54.1507487338
 30
0.0
 10
13.3911250131
 20
54.5167007958
 30
0.0
 10
13.7843391353
 20
55.0220094603
 30
0.0
 10
13.9914749207
 20
55.452234901
 30
0.0
 10
14.0639733263
 20
55.7434340637
 30
0.0
  0
SPLINE
  5
287
100
AcDbEntity
  8
00_COMPONENTS
100
AcDbSpline
 62
7
  6
BYLAYER
 70
0
 71
3
 72
13
 73
9
 74
0
 42
0.0000001
 43
0.0000001
 44
0.0000000001
 40
0.0
 40
0.0
 40
0.0
 40
0.0
 40
0.1056420789
 40
0.2162752006
 40
0.3325821657
 40
0.4549973815
 40
0.7173494177
 40
1.0
 40
1.0
 40
1.0
 40
1.0
 10
8.596420722
 20
53.5159952966
 30
0.0
 10
8.6663807892
 20
53.4555696879
 30
0.0
 10
8.8206233454
 20
53.3441762626
 30
0.0
 10
9.0811204247
 20
53.2121673338
 30
0.0
 10
9.3715321298
 20
53.1136603979
 30
0.0
 10
9.8023257867
 20
53.0267764934
 30
0.0
 10
10.3909353539
 20
53.0130897623
 30
0.0
 10
10.8638469406
 20
53.0937646209
 30
0.0
 10
11.1033764218
 20
53.1554113224
 30
0.0
  0
SPLINE
  5
288
100
AcDbEntity
  8
00_COMPONENTS
100
AcDbSpline
 62
7
  6
BYLAYER
 70
0
 71
3
 72
9
 73
5
 74
0
 42
0.0000001
 43
0.0000001
 44
0.0000000001
 40
0.0
 40
0.0
 40
0.0
 40
0.0
 40
0.2573487613
 40
1.0
 40
1.0
 40
1.0
 40
1.0
 10
11.7525733263
 20
54.6088474961
 30
0.0
 10
11.8766290924
 20
54.6088474961
 30
0.0
 10
12.3580659068
 20
54.5839931884
 30
0.0
 10
12.8366921585
 20
54.4601347519
 30
0.0
 10
13.160581083
 20
54.3076288508
 30
0.0
  0
SPLINE
  5
289
100
AcDbEntity
  8
00_COMPONENTS
100
AcDbSpline
 62
7
  6
BYLAYER
 70
0
 71
3
 72
11
 73
7
 74
0
 42
0.0000001
 43
0.0000001
 44
0.0000000001
 40
0.0
 40
0.0
 40
0.0
 40
0.0
 40
0.2321786272
 40
0.4789529933
 40
0.7365927127
 40
1.0
 40
1.0
 40
1.0
 40
1.0
 10
9.8513118572
 20
54.0037632794
 30
0.0
 10
9.9740759773
 20
54.1017536897
 30
0.0
 10
10.2494452408
 20
54.2770798806
 30
0.0
 10
10.7129864552
 20
54.4660130148
 30
0.0
 10
11.2212855274
 20
54.5826716045
 30
0.0
 10
11.5743691639
 20
54.6088474961
 30
0.0
 10
11.7525733263
 20
54.6088474961
 30
0.0
  0
SPLINE
  5
28A
100
AcDbEntity
  8
00_COMPONENTS
100
AcDbSpline
 62
7
  6
BYLAYER
 70
0
 71
3
 72
9
 73
5
 74
0
 42
0.0000001
 43
0.0000001
 44
0.0000000001
 40
0.0
 40
0.0
 40
0.0
 40
0.0
 40
0.252311822
 40
1.0
 40
1.0
 40
1.0
 40
1.0
 10
11.7525733263
 20
58.5062786526
 30
0.0
 10
11.8248777984
 20
58.5062786526
 30
0.0
 10
12.1113594457
 20
58.4975902026
 30
0.0
 10
12.3969595823
 20
58.4545033026
 30
0.0
 10
12.6047361059
 20
58.4021799035
 30
0.0
  0
SPLINE
  5
28B
100
AcDbEntity
  8
00_COMPONENTS
100
AcDbSpline
 62
7
  6
BYLAYER
 70
0
 71
3
 72
11
 73
7
 74
0
 42
0.0000001
 43
0.0000001
 44
0.0000000001
 40
0.0
 40
0.0
 40
0.0
 40
0.0
 40
0.2321786272
 40
0.4789529933
 40
0.7365927127
 40
1.0
 40
1.0
 40
1.0
 40
1.0
 10
9.8513118572
 20
57.901194436
 30
0.0
 10
9.9740759773
 20
57.9991848463
 30
0.0
 10
10.2494452408
 20
58.1745110372
 30
0.0
 10
10.7129864552
 20
58.3634441714
 30
0.0
 10
11.2212855274
 20
58.480102761
 30
0.0
 10
11.5743691639
 20
58.5062786526
 30
0.0
 10
11.7525733263
 20
58.5062786526
 30
0.0
  0
SPLINE
  5
28C
100
AcDbEntity
  8
00_COMPONENTS
100
AcDbSpline
 62
7
  6
BYLAYER
 70
0
 71
3
 72
12
 73
8
 74
0
 42
0.0000001
 43
0.0000001
 44
0.0000000001
 40
0.0
 40
0.0
 40
0.0
 40
0.0
 40
0.2701249965
 40
0.5311102708
 40
0.6559631251
 40
0.7760026766
 40
1.0
 40
1.0
 40
1.0
 40
1.0
 10
11.7525733263
 20
26.5365668616
 30
0.0
 10
11.5307518713
 20
26.5365668616
 30
0.0
 10
11.0935715231
 20
26.5768016398
 30
0.0
 10
10.5725835954
 20
26.7279589051
 30
0.0
 10
10.196503281
 20
26.9065188397
 30
0.0
 10
9.8694170613
 20
27.1104579974
 30
0.0
 10
9.6573477717
 20
27.3040137509
 30
0.0
 10
9.5423655839
 20
27.4475890443
 30
0.0
  0
SPLINE
  5
28D
100
AcDbEntity
  8
00_COMPONENTS
100
AcDbSpline
 62
7
  6
BYLAYER
 70
0
 71
3
 72
9
 73
5
 74
0
 42
0.0000001
 43
0.0000001
 44
0.0000000001
 40
0.0
 40
0.0
 40
0.0
 40
0.0
 40
0.2470692394
 40
1.0
 40
1.0
 40
1.0
 40
1.0
 10
12.6037623063
 20
26.6404265841
 30
0.0
 10
12.5351766422
 20
26.6231773202
 30
0.0
 10
12.2553938665
 20
26.5622884729
 30
0.0
 10
11.9680934459
 20
26.5365668616
 30
0.0
 10
11.7525733263
 20
26.5365668616
 30
0.0
  0
SPLINE
  5
28E
100
AcDbEntity
  8
00_COMPONENTS
100
AcDbSpline
 62
7
  6
BYLAYER
 70
0
 71
3
 72
9
 73
5
 74
0
 42
0.0000001
 43
0.0000001
 44
0.0000000001
 40
0.0
 40
0.0
 40
0.0
 40
0.0
 40
0.2667894097
 40
1.0
 40
1.0
 40
1.0
 40
1.0
 10
13.5284711289
 20
58.5955191467
 30
0.0
 10
13.5932888969
 20
58.6779516215
 30
0.0
 10
13.8224471843
 20
58.9969819878
 30
0.0
 10
13.9943482082
 20
59.3612069861
 30
0.0
 10
14.0639733263
 20
59.6408652203
 30
0.0
  0
SPLINE
  5
28F
100
AcDbEntity
  8
00_COMPONENTS
100
AcDbSpline
 62
7
  6
BYLAYER
 70
0
 71
3
 72
9
 73
5
 74
0
 42
0.0000001
 43
0.0000001
 44
0.0000000001
 40
0.0
 40
0.0
 40
0.0
 40
0.0
 40
0.2341987396
 40
1.0
 40
1.0
 40
1.0
 40
1.0
 10
14.0639733263
 20
25.401980294
 30
0.0
 10
14.0417260896
 20
25.4913391791
 30
0.0
 10
13.9221741877
 20
25.8667582593
 30
0.0
 10
13.7145923398
 20
26.2106253442
 30
0.0
 10
13.5284711289
 20
26.4473263675
 30
0.0
  0
SPLINE
  5
290
100
AcDbEntity
  8
00_COMPONENTS
100
AcDbSpline
 62
7
  6
BYLAYER
 70
0
 71
3
 72
11
 73
7
 74
0
 42
0.0000001
 43
0.0000001
 44
0.0000000001
 40
0.0
 40
0.0
 40
0.0
 40
0.0
 40
0.2538815877
 40
0.510686144
 40
0.7619495882
 40
1.0
 40
1.0
 40
1.0
 40
1.0
 10
11.1033764218
 20
57.6994209196
 30
0.0
 10
10.8529767218
 20
57.6349765953
 30
0.0
 10
10.3597856781
 20
57.4611403194
 30
0.0
 10
9.6760510232
 20
57.087394426
 30
0.0
 10
9.0743593259
 20
56.6178683657
 30
0.0
 10
8.7387816067
 20
56.2446645062
 30
0.0
 10
8.596420722
 20
56.0484275227
 30
0.0
  0
SPLINE
  5
291
100
AcDbEntity
  8
00_COMPONENTS
100
AcDbSpline
 62
7
  6
BYLAYER
 70
0
 71
3
 72
15
 73
11
 74
0
 42
0.0000001
 43
0.0000001
 44
0.0000000001
 40
0.0
 40
0.0
 40
0.0
 40
0.0
 40
0.1490561485
 40
0.292233532
 40
0.4281472654
 40
0.5561161092
 40
0.6760577346
 40
0.7887523574
 40
0.895874395
 40
1.0
 40
1.0
 40
1.0
 40
1.0
 10
11.1033764218
 20
27.3434245946
 30
0.0
 10
11.2569223844
 20
27.3039071119
 30
0.0
 10
11.5624366846
 20
27.2425462631
 30
0.0
 10
12.0174103633
 20
27.2052700553
 30
0.0
 10
12.451255908
 20
27.2253603428
 30
0.0
 10
12.853775801
 20
27.3025142201
 30
0.0
 10
13.2156091065
 20
27.435506169
 30
0.0
 10
13.5279474265
 20
27.6220241894
 30
0.0
 10
13.7825277722
 20
27.8581546157
 30
0.0
 10
13.9095283665
 20
28.0464452984
 30
0.0
 10
13.9602057516
 20
28.1449288787
 30
0.0
  0
SPLINE
  5
292
100
AcDbEntity
  8
00_COMPONENTS
100
AcDbSpline
 62
7
  6
BYLAYER
 70
0
 71
3
 72
11
 73
7
 74
0
 42
0.0000001
 43
0.0000001
 44
0.0000000001
 40
0.0
 40
0.0
 40
0.0
 40
0.0
 40
0.2380504118
 40
0.489313856
 40
0.7461184123
 40
1.0
 40
1.0
 40
1.0
 40
1.0
 10
8.596420722
 20
28.9944179915
 30
0.0
 10
8.7387816067
 20
28.798181008
 30
0.0
 10
9.0743593259
 20
28.4249771485
 30
0.0
 10
9.6760510232
 20
27.9554510882
 30
0.0
 10
10.359785678
 20
27.5817051948
 30
0.0
 10
10.8529767218
 20
27.4078689189
 30
0.0
 10
11.1033764218
 20
27.3434245946
 30
0.0
  0
SPLINE
  5
293
100
AcDbEntity
  8
00_COMPONENTS
100
AcDbSpline
 62
7
  6
BYLAYER
 70
0
 71
3
 72
15
 73
11
 74
0
 42
0.0000001
 43
0.0000001
 44
0.0000000001
 40
0.0
 40
0.0
 40
0.0
 40
0.0
 40
0.104125605
 40
0.2112476426
 40
0.3239422654
 40
0.4438838908
 40
0.5718527346
 40
0.707766468
 40
0.8509438515
 40
1.0
 40
1.0
 40
1.0
 40
1.0
 10
13.9602057516
 20
60.7953477921
 30
0.0
 10
13.9095283665
 20
60.8938313724
 30
0.0
 10
13.7825277722
 20
61.0821220551
 30
0.0
 10
13.5279474265
 20
61.3182524813
 30
0.0
 10
13.2156091065
 20
61.5047705018
 30
0.0
 10
12.853775801
 20
61.6377624507
 30
0.0
 10
12.451255908
 20
61.7149163279
 30
0.0
 10
12.0174103633
 20
61.7350066155
 30
0.0
 10
11.5624366846
 20
61.6977304076
 30
0.0
 10
11.2569223844
 20
61.6363695589
 30
0.0
 10
11.1033764218
 20
61.5968520762
 30
0.0
  0
SPLINE
  5
294
100
AcDbEntity
  8
00_COMPONENTS
100
AcDbSpline
 62
7
  6
BYLAYER
 70
0
 71
3
 72
15
 73
11
 74
0
 42
0.0000001
 43
0.0000001
 44
0.0000000001
 40
0.0
 40
0.0
 40
0.0
 40
0.0
 40
0.104125605
 40
0.2112476426
 40
0.3239422654
 40
0.4438838908
 40
0.5718527346
 40
0.707766468
 40
0.8509438515
 40
1.0
 40
1.0
 40
1.0
 40
1.0
 10
13.9602057516
 20
56.8979166355
 30
0.0
 10
13.9095283665
 20
56.9964002158
 30
0.0
 10
13.7825277722
 20
57.1846908985
 30
0.0
 10
13.5279474265
 20
57.4208213248
 30
0.0
 10
13.2156091065
 20
57.6073393452
 30
0.0
 10
12.853775801
 20
57.7403312942
 30
0.0
 10
12.451255908
 20
57.8174851714
 30
0.0
 10
12.0174103633
 20
57.8375754589
 30
0.0
 10
11.5624366846
 20
57.8002992511
 30
0.0
 10
11.2569223844
 20
57.7389384023
 30
0.0
 10
11.1033764218
 20
57.6994209196
 30
0.0
  0
SPLINE
  5
295
100
AcDbEntity
  8
00_COMPONENTS
100
AcDbSpline
 62
7
  6
BYLAYER
 70
0
 71
3
 72
11
 73
7
 74
0
 42
0.0000001
 43
0.0000001
 44
0.0000000001
 40
0.0
 40
0.0
 40
0.0
 40
0.0
 40
0.2538815877
 40
0.510686144
 40
0.7619495882
 40
1.0
 40
1.0
 40
1.0
 40
1.0
 10
11.1033764218
 20
61.5968520762
 30
0.0
 10
10.8529767218
 20
61.5324077519
 30
0.0
 10
10.3597856781
 20
61.3585714759
 30
0.0
 10
9.6760510232
 20
60.9848255826
 30
0.0
 10
9.0743593259
 20
60.5152995223
 30
0.0
 10
8.7387816067
 20
60.1420956628
 30
0.0
 10
8.596420722
 20
59.9458586792
 30
0.0
  0
SPLINE
  5
296
100
AcDbEntity
  8
00_COMPONENTS
100
AcDbSpline
 62
7
  6
BYLAYER
 70
0
 71
3
 72
15
 73
11
 74
0
 42
0.0000001
 43
0.0000001
 44
0.0000000001
 40
0.0
 40
0.0
 40
0.0
 40
0.0
 40
0.1490561485
 40
0.292233532
 40
0.4281472654
 40
0.5561161092
 40
0.6760577346
 40
0.7887523574
 40
0.895874395
 40
1.0
 40
1.0
 40
1.0
 40
1.0
 10
11.1033764218
 20
23.445993438
 30
0.0
 10
11.2569223844
 20
23.4064759554
 30
0.0
 10
11.5624366846
 20
23.3451151066
 30
0.0
 10
12.0174103633
 20
23.3078388988
 30
0.0
 10
12.451255908
 20
23.3279291863
 30
0.0
 10
12.853775801
 20
23.4050830635
 30
0.0
 10
13.2156091065
 20
23.5380750124
 30
0.0
 10
13.5279474265
 20
23.7245930329
 30
0.0
 10
13.7825277722
 20
23.9607234592
 30
0.0
 10
13.9095283665
 20
24.1490141418
 30
0.0
 10
13.9602057516
 20
24.2474977222
 30
0.0
  0
SPLINE
  5
297
100
AcDbEntity
  8
00_COMPONENTS
100
AcDbSpline
 62
7
  6
BYLAYER
 70
0
 71
3
 72
11
 73
7
 74
0
 42
0.0000001
 43
0.0000001
 44
0.0000000001
 40
0.0
 40
0.0
 40
0.0
 40
0.0
 40
0.2380504118
 40
0.489313856
 40
0.7461184123
 40
1.0
 40
1.0
 40
1.0
 40
1.0
 10
8.596420722
 20
25.096986835
 30
0.0
 10
8.7387816067
 20
24.9007498514
 30
0.0
 10
9.0743593259
 20
24.5275459919
 30
0.0
 10
9.6760510232
 20
24.0580199316
 30
0.0
 10
10.3597856781
 20
23.6842740383
 30
0.0
 10
10.8529767218
 20
23.5104377624
 30
0.0
 10
11.1033764218
 20
23.445993438
 30
0.0
  0
ELLIPSE
  5
298
100
AcDbEntity
  8
00_COMPONENTS
100
AcDbEllipse
 62
7
  6
BYLAYER
 10
10.7111733263
 20
28.8534729408
 30
0.0
 11
3.4193096007
 21
0.0
 31
0.0
 40
0.6644630244
 41
-0.1975579181
 42
0.1975579181
  0
ELLIPSE
  5
299
100
AcDbEntity
  8
00_COMPONENTS
100
AcDbEllipse
 62
7
  6
BYLAYER
 10
12.1718586704
 20
31.6912338751
 30
0.0
 11
3.4193096007
 21
0.0
 31
0.0
 40
0.6644630244
 41
3.7327378558
 42
5.2448497538
  0
ELLIPSE
  5
29A
100
AcDbEntity
  8
00_COMPONENTS
100
AcDbEllipse
 62
7
  6
BYLAYER
 10
11.1734155238
 20
29.751498553
 30
0.0
 11
3.4193096007
 21
0.0
 31
0.0
 40
0.6644630244
 41
-0.5911452022
 42
-0.5316204977
  0
ELLIPSE
  5
29B
100
AcDbEntity
  8
00_COMPONENTS
100
AcDbEllipse
 62
7
  6
BYLAYER
 10
11.1734155238
 20
59.1887781178
 30
0.0
 11
3.4193096007
 21
-0.0
 31
0.0
 40
0.6644630244
 41
0.5315947947
 42
0.5911452022
  0
ELLIPSE
  5
29C
100
AcDbEntity
  8
00_COMPONENTS
100
AcDbEllipse
 62
7
  6
BYLAYER
 10
11.1734155238
 20
55.2913469613
 30
0.0
 11
3.4193096007
 21
-0.0
 31
0.0
 40
0.6644630244
 41
0.5315947947
 42
0.5911452022
  0
ELLIPSE
  5
29D
100
AcDbEntity
  8
00_COMPONENTS
100
AcDbEllipse
 62
7
  6
BYLAYER
 10
10.7111733263
 20
56.1893725734
 30
0.0
 11
3.4193096007
 21
0.0
 31
0.0
 40
0.6644630244
 41
-0.1975579181
 42
0.1975579181
  0
ELLIPSE
  5
29E
100
AcDbEntity
  8
00_COMPONENTS
100
AcDbEllipse
 62
7
  6
BYLAYER
 10
12.1718586704
 20
53.3516116391
 30
0.0
 11
3.4193096007
 21
-0.0
 31
0.0
 40
0.6644630244
 41
7.3215210918
 42
8.8336327586
  0
ELLIPSE
  5
29F
100
AcDbEntity
  8
00_COMPONENTS
100
AcDbEllipse
 62
7
  6
BYLAYER
 10
10.7111733263
 20
60.0868037299
 30
0.0
 11
3.4193096007
 21
-0.0
 31
0.0
 40
0.6644630244
 41
-0.1975579181
 42
0.1975579181
  0
ELLIPSE
  5
2A0
100
AcDbEntity
  8
00_COMPONENTS
100
AcDbEllipse
 62
7
  6
BYLAYER
 10
12.1718586704
 20
57.2490427957
 30
0.0
 11
3.4193096007
 21
0.0
 31
0.0
 40
0.6644630244
 41
7.3215210918
 42
8.8336327586
  0
ELLIPSE
  5
2A1
100
AcDbEntity
  8
00_COMPONENTS
100
AcDbEllipse
 62
7
  6
BYLAYER
 10
10.7111733263
 20
24.9560417843
 30
0.0
 11
3.4193096007
 21
0.0
 31
0.0
 40
0.6644630244
 41
-0.1975579181
 42
0.1975579181
  0
ELLIPSE
  5
2A2
100
AcDbEntity
  8
00_COMPONENTS
100
AcDbEllipse
 62
7
  6
BYLAYER
 10
12.1718586704
 20
27.7938027186
 30
0.0
 11
3.4193096007
 21
0.0
 31
0.0
 40
0.6644630244
 41
3.7327378558
 42
5.2448497538
  0
ELLIPSE
  5
2A3
100
AcDbEntity
  8
00_COMPONENTS
100
AcDbEllipse
 62
7
  6
BYLAYER
 10
11.1734155238
 20
25.8540673964
 30
0.0
 11
3.4193096007
 21
0.0
 31
0.0
 40
0.6644630244
 41
-0.5911452022
 42
-0.5316204977
  0
ENDSEC
  0
SECTION
  2
OBJECTS
  0
DICTIONARY
  5
C
100
AcDbDictionary
280
0
281
1
  3
ACAD_GROUP
350
D
  3
ACAD_MLINESTYLE
350
17
  3
ACAD_LAYOUT
350
1A
  3
ACAD_PLOTSETTINGS
350
19
  3
ACAD_PLOTSTYLENAME
350
E
  0
DICTIONARY
  5
D
102
{ACAD_REACTORS
330
C
102
}
100
AcDbDictionary
280
0
281
1
  0
ACDBDICTIONARYWDFLT
  5
E
102
{ACAD_REACTORS
330
C
102
}
100
AcDbDictionary
281
1
  3
Normal
350
F
100
AcDbDictionaryWithDefault
340
F
  0
DICTIONARY
  5
17
102
{ACAD_REACTORS
330
C
102
}
100
AcDbDictionary
280
0
281
1
  3
Standard
350
18
  0
DICTIONARY
  5
19
102
{ACAD_REACTORS
330
C
102
}
100
AcDbDictionary
281
1
  0
DICTIONARY
  5
1A
102
{ACAD_REACTORS
330
C
102
}
100
AcDbDictionary
281
1
  3
Model
350
2A4
  3
Layout1
350
2A5
  0
ACDBPLACEHOLDER
  5
F
102
{ACAD_REACTORS
330
E
102
}
  0
MLINESTYLE
  5
18
102
{ACAD_REACTORS
330
17
102
}
100
AcDbMlineStyle
  2
STANDARD
 70
0
  3

 62
256
 51
90.0
 52
90.0
 71
2
 49
0.5
 62
256
  6
BYLAYER
 49
-0.5
 62
256
  6
BYLAYER
  0
LAYOUT
  5
2A4
102
{ACAD_REACTORS
330
1A
102
}
100
AcDbPlotSettings
  1

  2
none_device
  4

  6

 40
0.0
 41
0.0
 42
0.0
 43
0.0
 44
210.0
 45
297.0
 46
0.0
 47
0.0
 48
0.0
 49
0.0
140
0.0
141
0.0
142
1.0
143
1.0
 70
1024
 72
1
 73
0
 74
0
  7

 75
0
147
1.0
148
0.0
149
0.0
100
AcDbLayout
  1
Model
 70
0
 71
0
 10
0.0
 20
0.0
 11
210.0
 21
297.0
 12
0.0
 22
0.0
 32
0.0
 14
0.0
 24
0.0
 34
0.0
 15
0.0
 25
0.0
 35
0.0
146
0.0
 13
0.0
 23
0.0
 33
0.0
 16
1.0
 26
0.0
 36
0.0
 17
0.0
 27
1.0
 37
0.0
 76
0
330
218
345
0
346
0
  0
LAYOUT
  5
2A5
102
{ACAD_REACTORS
330
1A
102
}
100
AcDbPlotSettings
  1

  2
none_device
  4

  6

 40
0.0
 41
0.0
 42
0.0
 43
0.0
 44
210.0
 45
297.0
 46
0.0
 47
0.0
 48
0.0
 49
0.0
140
0.0
141
0.0
142
1.0
143
1.0
 70
0
 72
1
 73
0
 74
0
  7

 75
0
147
1.0
148
0.0
149
0.0
100
AcDbLayout
  1
Layout1
 70
0
 71
1
 10
0.0
 20
0.0
 11
210.0
 21
297.0
 12
0.0
 22
0.0
 32
0.0
 14
0.0
 24
0.0
 34
0.0
 15
0.0
 25
0.0
 35
0.0
146
0.0
 13
0.0
 23
0.0
 33
0.0
 16
1.0
 26
0.0
 36
0.0
 17
0.0
 27
1.0
 37
0.0
 76
0
330
219
345
0
346
0
  0
ENDSEC
  0
EOF
