999
DXF file: C:\Users\sesa63760\Dev\_Creo\CAD\MCADPD0005172_3D-CAD\drw0001_5.dxf
999
Pro/ENGINEER 2019471 by Parametric Technology Corporation
  0
SECTION
  2
HEADER
  9
$ACADVER
  1
AC1024
  9
$DWGCODEPAGE
  3
ANSI_1252
  9
$EXTMAX
 10
95.5777159349
 20
135.1741982508
 30
0.0
  9
$EXTMIN
 10
0.0
 20
0.0
 30
0.0
  9
$LIMMIN
 10
0.0
 20
0.0
  9
$LIMMAX
 10
95.5777159349
 20
135.1741982508
  9
$VIEWCTR
 10
47.7888579675
 20
67.5870991254
  9
$VIEWSIZE
 40
135.1741982508
  9
$CLAYER
  8
0
  9
$LTSCALE
 40
8.8113551452
  9
$CELTYPE
  6
BYLAYER
  9
$DIMSCALE
 40
1.0
  9
$DIMASZ
 40
1.1378299516
  9
$DIMEXO
 40
1.0
  9
$DIMDLI
 40
6.0878453731
  9
$DIMEXE
 40
1.0
  9
$DIMCEN
 40
1.4418581147
  9
$DIMLFAC
 40
1.0
  9
$DIMBLK
  1
_FILLED
  9
$DIMALT
 70
0
  9
$DIMALTF
 40
0.0393700787
  9
$DIMTXT
 40
1.5929619322
  9
$DIMTOL
 70
1
  9
$DIMLIM
 70
0
  9
$DIMTFAC
 40
1.0
  9
$DIMTP
 40
0.01
  9
$DIMTM
 40
0.01
  9
$DIMGAP
 40
0.625
  9
$DIMDSEP
 70
46
  9
$AUNITS
 70
0
  9
$PDMODE
 70
3
  9
$PDSIZE
 40
0.3125
  9
$HANDSEED
  5
338
  9
$TILEMODE
 70
1
  9
$MEASUREMENT
 70
1
  9
$INSUNITS
 70
4
  0
ENDSEC
  0
SECTION
  2
CLASSES
  0
CLASS
  1
ACDBDICTIONARYWDFLT
  2
AcDbDictionaryWithDefault
  3
AutoCAD 2000
 90
0
 91
1
280
0
281
0
  0
CLASS
  1
ACDBPLACEHOLDER
  2
AcDbPlaceHolder
  3
AutoCAD 2000
 90
0
 91
1
280
0
281
0
  0
CLASS
  1
LAYOUT
  2
AcDbLayout
  3
AutoCAD 2000
 90
0
 91
0
280
0
281
0
  0
ENDSEC
  0
SECTION
  2
TABLES
  0
TABLE
  2
VPORT
  5
8
100
AcDbSymbolTable
 70
2
  0
VPORT
  5
1F4
100
AcDbSymbolTableRecord
100
AcDbViewportTableRecord
  2
*ACTIVE
 70
0
 10
0.0
 20
0.0
 11
1.0
 21
1.0
 12
47.7888579675
 22
67.5870991254
 13
0.0
 23
0.0
 14
1.0
 24
1.0
 15
0.0
 25
0.0
 16
0.0
 26
0.0
 36
1.0
 17
0.0
 27
0.0
 37
0.0
 40
135.1741982508
 41
0.7070707071
 42
50.0
 43
0.0
 44
0.0
 50
0.0
 51
0.0
 71
0
 72
100
 73
1
 74
1
 75
0
 76
0
 77
0
 78
0
  0
ENDTAB
  0
TABLE
  2
LTYPE
  5
5
100
AcDbSymbolTable
 70
6
  0
LTYPE
  5
14
100
AcDbSymbolTableRecord
100
AcDbLinetypeTableRecord
  2
BYBLOCK
 70
0
  3

 72
65
 73
0
 40
0.0
  0
LTYPE
  5
15
100
AcDbSymbolTableRecord
100
AcDbLinetypeTableRecord
  2
BYLAYER
 70
0
  3

 72
65
 73
0
 40
0.0
  0
LTYPE
  5
16
100
AcDbSymbolTableRecord
100
AcDbLinetypeTableRecord
  2
CONTINUOUS
 70
64
  3
Solid line
 72
65
 73
0
 40
0.0
  0
LTYPE
  5
1F5
100
AcDbSymbolTableRecord
100
AcDbLinetypeTableRecord
  2
CENTER
 70
64
  3
____ _ ____ _ ____ _ ____ _ ____ _ ____ _ ____
 72
65
 73
4
 40
0.6
 49
0.375
 74
0
 49
-0.075
 74
0
 49
0.075
 74
0
 49
-0.075
 74
0
  0
LTYPE
  5
1F6
100
AcDbSymbolTableRecord
100
AcDbLinetypeTableRecord
  2
HIDDEN
 70
64
  3
- - - - - - - - - - - - - - - - - - - -
 72
65
 73
2
 40
0.2
 49
0.1
 74
0
 49
-0.1
 74
0
  0
LTYPE
  5
1F7
100
AcDbSymbolTableRecord
100
AcDbLinetypeTableRecord
  2
PHANTOM
 70
64
  3
_____ _ _ _____ _ _ _____ _ _ _____
 72
65
 73
6
 40
0.8
 49
0.45
 74
0
 49
-0.05
 74
0
 49
0.1
 74
0
 49
-0.05
 74
0
 49
0.1
 74
0
 49
-0.05
 74
0
  0
LTYPE
  5
1F8
100
AcDbSymbolTableRecord
100
AcDbLinetypeTableRecord
  2
DOT
 70
64
  3
. . . . . . . . . . . . . . . . . . . .
 72
65
 73
2
 40
0.2
 49
0.1
 74
0
 49
-0.1
 74
0
  0
LTYPE
  5
1F9
100
AcDbSymbolTableRecord
100
AcDbLinetypeTableRecord
  2
DASHED
 70
64
  3
- - - - - - - - - - - - - - - - - - - -
 72
65
 73
2
 40
0.2
 49
0.1
 74
0
 49
-0.1
 74
0
  0
ENDTAB
  0
TABLE
  2
LAYER
  5
2
100
AcDbSymbolTable
 70
36
  0
LAYER
  5
10
100
AcDbSymbolTableRecord
100
AcDbLayerTableRecord
  2
0
 70
0
 62
7
  6
CONTINUOUS
370
-3
390
F
  0
LAYER
  5
1FA
100
AcDbSymbolTableRecord
100
AcDbLayerTableRecord
  2
DEFAULT_1
 70
0
 62
7
  6
CENTER
370
-3
390
F
  0
LAYER
  5
1FB
100
AcDbSymbolTableRecord
100
AcDbLayerTableRecord
  2
DEFAULT_2
 70
0
 62
7
  6
HIDDEN
370
-3
390
F
  0
LAYER
  5
1FC
100
AcDbSymbolTableRecord
100
AcDbLayerTableRecord
  2
DEFAULT_3
 70
0
 62
7
  6
PHANTOM
370
-3
390
F
  0
LAYER
  5
1FD
100
AcDbSymbolTableRecord
100
AcDbLayerTableRecord
  2
00_COMPONENTS
 70
0
 62
7
  6
CONTINUOUS
370
-3
390
F
  0
LAYER
  5
1FE
100
AcDbSymbolTableRecord
100
AcDbLayerTableRecord
  2
01_1_DEFAULT_DATUMS
 70
0
 62
7
  6
CONTINUOUS
370
-3
390
F
  0
LAYER
  5
1FF
100
AcDbSymbolTableRecord
100
AcDbLayerTableRecord
  2
01_PLANES
 70
0
 62
7
  6
CONTINUOUS
370
-3
390
F
  0
LAYER
  5
200
100
AcDbSymbolTableRecord
100
AcDbLayerTableRecord
  2
02_COORD_SYS
 70
0
 62
7
  6
CONTINUOUS
370
-3
390
F
  0
LAYER
  5
201
100
AcDbSymbolTableRecord
100
AcDbLayerTableRecord
  2
03_AXES
 70
0
 62
7
  6
CONTINUOUS
370
-3
390
F
  0
LAYER
  5
202
100
AcDbSymbolTableRecord
100
AcDbLayerTableRecord
  2
04_POINTS
 70
0
 62
7
  6
CONTINUOUS
370
-3
390
F
  0
LAYER
  5
203
100
AcDbSymbolTableRecord
100
AcDbLayerTableRecord
  2
05_CURVES
 70
0
 62
7
  6
CONTINUOUS
370
-3
390
F
  0
LAYER
  5
204
100
AcDbSymbolTableRecord
100
AcDbLayerTableRecord
  2
06_SURFS
 70
0
 62
7
  6
CONTINUOUS
370
-3
390
F
  0
LAYER
  5
205
100
AcDbSymbolTableRecord
100
AcDbLayerTableRecord
  2
07_COSMETICS
 70
0
 62
7
  6
CONTINUOUS
370
-3
390
F
  0
LAYER
  5
206
100
AcDbSymbolTableRecord
100
AcDbLayerTableRecord
  2
10_NOTES
 70
0
 62
7
  6
CONTINUOUS
370
-3
390
F
  0
LAYER
  5
207
100
AcDbSymbolTableRecord
100
AcDbLayerTableRecord
  2
11_NOTES_PUB
 70
0
 62
7
  6
CONTINUOUS
370
-3
390
F
  0
LAYER
  5
208
100
AcDbSymbolTableRecord
100
AcDbLayerTableRecord
  2
13_REF_GTOL
 70
0
 62
7
  6
CONTINUOUS
370
-3
390
F
  0
LAYER
  5
209
100
AcDbSymbolTableRecord
100
AcDbLayerTableRecord
  2
16_MISC
 70
0
 62
7
  6
CONTINUOUS
370
-3
390
F
  0
LAYER
  5
20A
100
AcDbSymbolTableRecord
100
AcDbLayerTableRecord
  2
17_NO_PRINT
 70
0
 62
7
  6
CONTINUOUS
370
-3
390
F
  0
LAYER
  5
20B
100
AcDbSymbolTableRecord
100
AcDbLayerTableRecord
  2
18_DATUM_CAMS_JOINTS
 70
0
 62
7
  6
CONTINUOUS
370
-3
390
F
  0
LAYER
  5
20C
100
AcDbSymbolTableRecord
100
AcDbLayerTableRecord
  2
19_DATUM_FUNCTIONAL
 70
0
 62
7
  6
CONTINUOUS
370
-3
390
F
  0
LAYER
  5
20D
100
AcDbSymbolTableRecord
100
AcDbLayerTableRecord
  2
20_DATUM_KINEMATIC_SCHEME
 70
0
 62
7
  6
CONTINUOUS
370
-3
390
F
  0
ENDTAB
  0
TABLE
  2
STYLE
  5
3
100
AcDbSymbolTable
 70
1
  0
STYLE
  5
11
100
AcDbSymbolTableRecord
100
AcDbTextStyleTableRecord
  2
STANDARD
 70
0
 40
0.0
 41
1.0
 50
0.0
 71
0
 42
0.2
  3
ARIAL.TTF
  4

  0
STYLE
  5
20E
100
AcDbSymbolTableRecord
100
AcDbTextStyleTableRecord
  2
TEXTSTYLE_1
 70
0
 40
0.0
 41
0.8
 50
0.0
 71
0
 42
0.2
  3
gdt
  4

  0
ENDTAB
  0
TABLE
  2
VIEW
  5
6
100
AcDbSymbolTable
 70
0
  0
ENDTAB
  0
TABLE
  2
UCS
  5
7
100
AcDbSymbolTable
 70
0
  0
ENDTAB
  0
TABLE
  2
APPID
  5
9
100
AcDbSymbolTable
 70
1
  0
APPID
  5
20F
100
AcDbSymbolTableRecord
100
AcDbRegAppTableRecord
  2
ACAD
 70
0
  0
ENDTAB
  0
TABLE
  2
BLOCK_RECORD
  5
1
100
AcDbSymbolTable
 70
0
  0
BLOCK_RECORD
  5
210
100
AcDbSymbolTableRecord
100
AcDbBlockTableRecord
  2
*Model_Space
  0
BLOCK_RECORD
  5
211
100
AcDbSymbolTableRecord
100
AcDbBlockTableRecord
  2
*Paper_Space
  0
BLOCK_RECORD
  5
212
100
AcDbSymbolTableRecord
100
AcDbBlockTableRecord
  2
_FILLED
  0
ENDTAB
  0
TABLE
  2
DIMSTYLE
  5
A
100
AcDbSymbolTable
 70
1
100
AcDbDimStyleTable
 71
0
  0
DIMSTYLE
105
213
100
AcDbSymbolTableRecord
100
AcDbDimStyleTableRecord
  2
STANDARD
 70
0
  3

  4

 40
1.0
 41
1.1378299516
 42
1.0
 43
0.38
 44
1.0
 45
0.0
 46
0.0
 47
0.01
 48
0.01
140
1.5929619322
141
0.09
142
0.0
143
25.4
144
1.0
145
0.0
146
1.0
147
0.625
 71
1
 72
0
 73
0
 74
0
 75
0
 76
0
 77
1
 78
8
 79
2
170
0
171
1
172
0
173
0
174
0
175
0
176
0
177
0
178
0
270
2
179
2
271
2
272
2
273
2
274
2
275
0
280
0
281
0
282
0
283
1
284
8
285
0
286
0
287
3
288
0
340
11
278
46
341
212
342
212
343
212
344
212
  0
ENDTAB
  0
ENDSEC
  0
SECTION
  2
BLOCKS
  0
BLOCK
  5
20
100
AcDbEntity
  8
0
100
AcDbBlockBegin
  2
*Model_Space
 70
0
 10
0.0
 20
0.0
 30
0.0
  3
*Model_Space
  1

  0
ENDBLK
  5
21
100
AcDbEntity
  8
0
100
AcDbBlockEnd
  0
BLOCK
  5
1C
100
AcDbEntity
  8
0
100
AcDbBlockBegin
  2
*Paper_Space
 70
0
 10
0.0
 20
0.0
 30
0.0
  3
*Paper_Space
  1

  0
ENDBLK
  5
1D
100
AcDbEntity
  8
0
100
AcDbBlockEnd
  0
BLOCK
  5
214
100
AcDbEntity
  8
0
100
AcDbBlockBegin
  2
_FILLED
 70
64
 10
0.0
 20
0.0
  3
_FILLED
  1

  0
SOLID
  5
215
100
AcDbEntity
  8
0
  6
BYBLOCK
 62
0
100
AcDbTrace
 10
0.0
 20
0.0
 11
-1.0
 21
0.25
 12
-1.0
 22
-0.25
 13
-1.0
 23
-0.25
  0
ENDBLK
  5
216
100
AcDbEntity
  8
0
  6
BYBLOCK
 62
0
100
AcDbBlockEnd
  0
ENDSEC
  0
SECTION
  2
ENTITIES
  0
LINE
  5
217
100
AcDbEntity
  8
0
100
AcDbLine
 62
7
  6
BYLAYER
 10
41.6624731275
 20
11.0025510204
 11
56.5624731275
 21
11.0025510204
  0
LINE
  5
218
100
AcDbEntity
  8
0
100
AcDbLine
 62
7
  6
BYLAYER
 10
57.0624731275
 20
11.8025510204
 11
41.1624731275
 21
11.8025510204
  0
LINE
  5
219
100
AcDbEntity
  8
0
100
AcDbLine
 62
7
  6
BYLAYER
 10
57.0624731275
 20
12.0025510205
 11
41.1624731275
 21
12.0025510205
  0
LINE
  5
21A
100
AcDbEntity
  8
0
100
AcDbLine
 62
7
  6
BYLAYER
 10
37.8124731278
 20
13.2828067418
 11
39.7124731278
 21
13.2828067418
  0
LINE
  5
21B
100
AcDbEntity
  8
0
100
AcDbLine
 62
7
  6
BYLAYER
 10
58.5124731272
 20
13.2828067418
 11
60.4124731278
 21
13.2828067418
  0
LINE
  5
21C
100
AcDbEntity
  8
0
100
AcDbLine
 62
7
  6
BYLAYER
 10
39.7124731278
 20
13.4217299048
 11
40.3624731275
 21
13.4217299048
  0
LINE
  5
21D
100
AcDbEntity
  8
0
100
AcDbLine
 62
7
  6
BYLAYER
 10
57.8624731275
 20
13.4217299048
 11
58.5124731272
 21
13.4217299048
  0
LINE
  5
21E
100
AcDbEntity
  8
0
100
AcDbLine
 62
7
  6
BYLAYER
 10
41.1624731275
 20
15.6025510205
 11
42.7124731277
 21
15.6025510205
  0
LINE
  5
21F
100
AcDbEntity
  8
0
100
AcDbLine
 62
7
  6
BYLAYER
 10
55.5124731275
 20
15.6025510205
 11
57.0624731275
 21
15.6025510205
  0
LINE
  5
220
100
AcDbEntity
  8
0
100
AcDbLine
 62
7
  6
BYLAYER
 10
37.8124731278
 20
15.6631972358
 11
39.7124731278
 21
15.6631972358
  0
LINE
  5
221
100
AcDbEntity
  8
0
100
AcDbLine
 62
7
  6
BYLAYER
 10
58.5124731272
 20
15.6631972358
 11
60.4124731278
 21
15.6631972358
  0
LINE
  5
222
100
AcDbEntity
  8
0
100
AcDbLine
 62
7
  6
BYLAYER
 10
60.4124731278
 20
16.5025510205
 11
58.5124731272
 21
16.5025510205
  0
LINE
  5
223
100
AcDbEntity
  8
0
100
AcDbLine
 62
7
  6
BYLAYER
 10
39.7124731278
 20
16.5025510205
 11
37.8124731278
 21
16.5025510205
  0
LINE
  5
224
100
AcDbEntity
  8
0
100
AcDbLine
 62
7
  6
BYLAYER
 10
53.5124731275
 20
17.5025510205
 11
44.7124731277
 21
17.5025510205
  0
LINE
  5
225
100
AcDbEntity
  8
0
100
AcDbLine
 62
7
  6
BYLAYER
 10
37.8124731278
 20
17.5025510205
 11
42.7124731277
 21
17.5025510205
  0
LINE
  5
226
100
AcDbEntity
  8
0
100
AcDbLine
 62
7
  6
BYLAYER
 10
55.5124731275
 20
17.5025510205
 11
60.4124731278
 21
17.5025510205
  0
LINE
  5
227
100
AcDbEntity
  8
0
100
AcDbLine
 62
7
  6
BYLAYER
 10
60.4124731278
 20
17.9771008784
 11
53.5124731275
 21
17.9771008784
  0
LINE
  5
228
100
AcDbEntity
  8
0
100
AcDbLine
 62
7
  6
BYLAYER
 10
44.7124731277
 20
17.9771008784
 11
37.8124731278
 21
17.9771008784
  0
LINE
  5
229
100
AcDbEntity
  8
0
100
AcDbLine
 62
7
  6
BYLAYER
 10
37.8124731278
 20
20.1461480174
 11
44.7124731277
 21
20.0743493993
  0
LINE
  5
22A
100
AcDbEntity
  8
0
100
AcDbLine
 62
7
  6
BYLAYER
 10
53.5124731275
 20
19.9827801474
 11
60.4124731278
 21
19.9109815293
  0
LINE
  5
22B
100
AcDbEntity
  8
0
100
AcDbLine
 62
7
  6
BYLAYER
 10
58.4927065042
 20
21.99274037
 11
53.5124731275
 21
22.0320975067
  0
LINE
  5
22C
100
AcDbEntity
  8
0
100
AcDbLine
 62
7
  6
BYLAYER
 10
44.7124731277
 20
22.1016409952
 11
39.7738929753
 21
22.1406689603
  0
LINE
  5
22D
100
AcDbEntity
  8
0
100
AcDbLine
 62
7
  6
BYLAYER
 10
56.6596963774
 20
28.5025510219
 11
41.5652498776
 21
28.5025510219
  0
LINE
  5
22E
100
AcDbEntity
  8
0
100
AcDbLine
 62
7
  6
BYLAYER
 10
37.8124731278
 20
24.3672973733
 11
39.7738929753
 21
22.1406689603
  0
LINE
  5
22F
100
AcDbEntity
  8
0
100
AcDbLine
 62
7
  6
BYLAYER
 10
43.1266866893
 20
92.8014138227
 11
43.586306097
 21
93.0517404934
  0
LINE
  5
230
100
AcDbEntity
  8
0
100
AcDbLine
 62
7
  6
BYLAYER
 10
50.5266866893
 20
92.8014138227
 11
50.986306097
 21
93.0517404934
  0
LINE
  5
231
100
AcDbEntity
  8
0
100
AcDbLine
 62
7
  6
BYLAYER
 10
37.8124731278
 20
46.4025510203
 11
41.5652498776
 21
46.4025510203
  0
LINE
  5
232
100
AcDbEntity
  8
0
100
AcDbLine
 62
7
  6
BYLAYER
 10
56.6596963774
 20
46.4025510207
 11
60.4124731278
 21
46.4025510206
  0
LINE
  5
233
100
AcDbEntity
  8
0
100
AcDbLine
 62
7
  6
BYLAYER
 10
57.9266866893
 20
92.8014138227
 11
58.386306097
 21
93.0517404934
  0
LINE
  5
234
100
AcDbEntity
  8
0
100
AcDbLine
 62
7
  6
BYLAYER
 10
38.5624731275
 20
52.5197161845
 11
39.0624731277
 21
52.5198828575
  0
LINE
  5
235
100
AcDbEntity
  8
0
100
AcDbLine
 62
7
  6
BYLAYER
 10
39.0624731277
 20
49.1599402691
 11
59.1624731275
 21
49.1599402691
  0
LINE
  5
236
100
AcDbEntity
  8
0
100
AcDbLine
 62
7
  6
BYLAYER
 10
39.0624731277
 20
50.348984785
 11
59.1624731275
 21
50.348984785
  0
LINE
  5
237
100
AcDbEntity
  8
0
100
AcDbLine
 62
7
  6
BYLAYER
 10
39.0624731277
 20
51.2323287067
 11
59.1624731275
 21
51.2323287067
  0
LINE
  5
238
100
AcDbEntity
  8
0
100
AcDbLine
 62
7
  6
BYLAYER
 10
39.6624731271
 20
51.903296561
 11
44.8624731269
 21
51.903296561
  0
LINE
  5
239
100
AcDbEntity
  8
0
100
AcDbLine
 62
7
  6
BYLAYER
 10
45.8624731269
 20
51.903296561
 11
52.3624731269
 21
51.903296561
  0
LINE
  5
23A
100
AcDbEntity
  8
0
100
AcDbLine
 62
7
  6
BYLAYER
 10
53.3624731269
 20
51.903296561
 11
58.5624731272
 21
51.903296561
  0
LINE
  5
23B
100
AcDbEntity
  8
0
100
AcDbLine
 62
7
  6
BYLAYER
 10
59.1624731275
 20
52.5198828575
 11
59.6624731275
 21
52.5197161974
  0
LINE
  5
23C
100
AcDbEntity
  8
0
100
AcDbLine
 62
7
  6
BYLAYER
 10
37.8124731278
 20
13.2828067418
 11
37.8124731278
 21
124.5025510204
  0
LINE
  5
23D
100
AcDbEntity
  8
0
100
AcDbLine
 62
7
  6
BYLAYER
 10
40.3124731269
 20
77.7044289125
 11
39.7546698635
 21
77.2664639652
  0
LINE
  5
23E
100
AcDbEntity
  8
0
100
AcDbLine
 62
7
  6
BYLAYER
 10
58.5087580745
 20
53.6243816366
 11
53.4161881796
 21
53.6243816366
  0
LINE
  5
23F
100
AcDbEntity
  8
0
100
AcDbLine
 62
7
  6
BYLAYER
 10
39.7161881798
 20
53.6243816366
 11
44.8087580743
 21
53.6243816366
  0
LINE
  5
240
100
AcDbEntity
  8
0
100
AcDbLine
 62
7
  6
BYLAYER
 10
45.9161881796
 20
53.6243816366
 11
52.3087580743
 21
53.6243816366
  0
LINE
  5
241
100
AcDbEntity
  8
0
100
AcDbLine
 62
7
  6
BYLAYER
 10
40.3124731269
 20
56.1252427507
 11
42.9124731269
 21
56.1252427507
  0
LINE
  5
242
100
AcDbEntity
  8
0
100
AcDbLine
 62
7
  6
BYLAYER
 10
47.8124731269
 20
56.1252427507
 11
50.4124731269
 21
56.1252427507
  0
LINE
  5
243
100
AcDbEntity
  8
0
100
AcDbLine
 62
7
  6
BYLAYER
 10
55.3124731269
 20
56.1252427507
 11
57.9124731269
 21
56.1252427507
  0
LINE
  5
244
100
AcDbEntity
  8
0
100
AcDbLine
 62
7
  6
BYLAYER
 10
57.9124731269
 20
56.4247942199
 11
55.3124731269
 21
56.4247942199
  0
LINE
  5
245
100
AcDbEntity
  8
0
100
AcDbLine
 62
7
  6
BYLAYER
 10
40.3124731269
 20
56.4247942199
 11
42.9124731269
 21
56.4247942199
  0
LINE
  5
246
100
AcDbEntity
  8
0
100
AcDbLine
 62
7
  6
BYLAYER
 10
47.8124731269
 20
56.4247942199
 11
50.4124731269
 21
56.4247942199
  0
LINE
  5
247
100
AcDbEntity
  8
0
100
AcDbLine
 62
7
  6
BYLAYER
 10
42.9124731269
 20
56.1252427507
 11
44.7809362895
 21
55.1158302363
  0
LINE
  5
248
100
AcDbEntity
  8
0
100
AcDbLine
 62
7
  6
BYLAYER
 10
38.5624731275
 20
52.5197161845
 11
38.5624731275
 21
70.7339377223
  0
LINE
  5
249
100
AcDbEntity
  8
0
100
AcDbLine
 62
7
  6
BYLAYER
 10
38.5624731275
 20
74.0989023463
 11
38.5624731275
 21
95.235602133
  0
LINE
  5
24A
100
AcDbEntity
  8
0
100
AcDbLine
 62
7
  6
BYLAYER
 10
39.0624731277
 20
74.0990690194
 11
39.0624731277
 21
70.7339377223
  0
LINE
  5
24B
100
AcDbEntity
  8
0
100
AcDbLine
 62
7
  6
BYLAYER
 10
39.0624731277
 20
52.5198828575
 11
39.0624731277
 21
49.1599402691
  0
LINE
  5
24C
100
AcDbEntity
  8
0
100
AcDbLine
 62
7
  6
BYLAYER
 10
39.0624731269
 20
69.1939858989
 11
39.0624731269
 21
70.4519917508
  0
LINE
  5
24D
100
AcDbEntity
  8
0
100
AcDbLine
 62
7
  6
BYLAYER
 10
39.0624731269
 20
90.7731720608
 11
39.0624731269
 21
92.0311779127
  0
LINE
  5
24E
100
AcDbEntity
  8
0
100
AcDbLine
 62
7
  6
BYLAYER
 10
39.4124731275
 20
120.0490908952
 11
39.4124731275
 21
124.5025510204
  0
LINE
  5
24F
100
AcDbEntity
  8
0
100
AcDbLine
 62
7
  6
BYLAYER
 10
39.6624731271
 20
78.9757749429
 11
39.6624731271
 21
73.4824827229
  0
LINE
  5
250
100
AcDbEntity
  8
0
100
AcDbLine
 62
7
  6
BYLAYER
 10
39.6624731271
 20
57.396588781
 11
39.6624731271
 21
51.903296561
  0
LINE
  5
251
100
AcDbEntity
  8
0
100
AcDbLine
 62
7
  6
BYLAYER
 10
39.7124731278
 20
13.2828067418
 11
39.7124731278
 21
17.5025510205
  0
LINE
  5
252
100
AcDbEntity
  8
0
100
AcDbLine
 62
7
  6
BYLAYER
 10
39.7546698635
 20
55.6872778033
 11
39.7546698635
 21
57.396588781
  0
LINE
  5
253
100
AcDbEntity
  8
0
100
AcDbLine
 62
7
  6
BYLAYER
 10
39.7546698635
 20
77.2664639652
 11
39.7546698635
 21
78.9757749429
  0
LINE
  5
254
100
AcDbEntity
  8
0
100
AcDbLine
 62
7
  6
BYLAYER
 10
40.2982595646
 20
92.8014138227
 11
40.2982595646
 21
92.5498126523
  0
LINE
  5
255
100
AcDbEntity
  8
0
100
AcDbLine
 62
7
  6
BYLAYER
 10
40.2982595646
 20
71.2222276608
 11
40.2982595646
 21
70.9706264904
  0
LINE
  5
256
100
AcDbEntity
  8
0
100
AcDbLine
 62
7
  6
BYLAYER
 10
40.3124731269
 20
56.1252427507
 11
40.3124731269
 21
57.396588781
  0
LINE
  5
257
100
AcDbEntity
  8
0
100
AcDbLine
 62
7
  6
BYLAYER
 10
40.3124731269
 20
77.7044289125
 11
40.3124731269
 21
78.9757749429
  0
LINE
  5
258
100
AcDbEntity
  8
0
100
AcDbLine
 62
7
  6
BYLAYER
 10
40.3624731275
 20
17.5025510205
 11
40.3624731275
 21
12.3025510204
  0
LINE
  5
259
100
AcDbEntity
  8
0
100
AcDbLine
 62
7
  6
BYLAYER
 10
41.1624731275
 20
17.5025510205
 11
41.1624731275
 21
11.8025510204
  0
LINE
  5
25A
100
AcDbEntity
  8
0
100
AcDbLine
 62
7
  6
BYLAYER
 10
41.5652498776
 20
28.5025510219
 11
41.5652498776
 21
46.4025510203
  0
LINE
  5
25B
100
AcDbEntity
  8
0
100
AcDbLine
 62
7
  6
BYLAYER
 10
39.7161881798
 20
75.2035677985
 11
39.7546698635
 21
77.2664639652
  0
LINE
  5
25C
100
AcDbEntity
  8
0
100
AcDbLine
 62
7
  6
BYLAYER
 10
39.7161881798
 20
53.6243816366
 11
39.7546698635
 21
55.6872778033
  0
LINE
  5
25D
100
AcDbEntity
  8
0
100
AcDbLine
 62
7
  6
BYLAYER
 10
39.7161881798
 20
75.2035677985
 11
39.6624731271
 21
73.4824827229
  0
LINE
  5
25E
100
AcDbEntity
  8
0
100
AcDbLine
 62
7
  6
BYLAYER
 10
39.7161881798
 20
53.6243816366
 11
39.6624731271
 21
51.903296561
  0
LINE
  5
25F
100
AcDbEntity
  8
0
100
AcDbLine
 62
7
  6
BYLAYER
 10
47.8124731269
 20
77.7044289125
 11
45.9440099644
 21
76.6950163982
  0
LINE
  5
260
100
AcDbEntity
  8
0
100
AcDbLine
 62
7
  6
BYLAYER
 10
39.6624731271
 20
57.396588781
 11
44.8624731269
 21
57.396588781
  0
LINE
  5
261
100
AcDbEntity
  8
0
100
AcDbLine
 62
7
  6
BYLAYER
 10
45.8624731269
 20
57.396588781
 11
52.3624731269
 21
57.396588781
  0
LINE
  5
262
100
AcDbEntity
  8
0
100
AcDbLine
 62
7
  6
BYLAYER
 10
53.3624731269
 20
57.396588781
 11
58.5624731272
 21
57.396588781
  0
LINE
  5
263
100
AcDbEntity
  8
0
100
AcDbLine
 62
7
  6
BYLAYER
 10
59.6624731275
 20
58.0676642116
 11
38.5624731275
 21
58.0676641983
  0
LINE
  5
264
100
AcDbEntity
  8
0
100
AcDbLine
 62
7
  6
BYLAYER
 10
52.2809362895
 20
55.1158302364
 11
50.412473127
 21
56.1252427507
  0
LINE
  5
265
100
AcDbEntity
  8
0
100
AcDbLine
 62
7
  6
BYLAYER
 10
56.6596963774
 20
46.4025510207
 11
60.4124731278
 21
42.1814016642
  0
LINE
  5
266
100
AcDbEntity
  8
0
100
AcDbLine
 62
7
  6
BYLAYER
 10
44.8624731269
 20
51.903296561
 11
44.8087580743
 21
53.6243816366
  0
LINE
  5
267
100
AcDbEntity
  8
0
100
AcDbLine
 62
7
  6
BYLAYER
 10
44.8624731269
 20
73.4824827229
 11
44.8087580743
 21
75.2035677985
  0
LINE
  5
268
100
AcDbEntity
  8
0
100
AcDbLine
 62
7
  6
BYLAYER
 10
44.8087580743
 20
53.6243816366
 11
44.7809362895
 21
55.1158302363
  0
LINE
  5
269
100
AcDbEntity
  8
0
100
AcDbLine
 62
7
  6
BYLAYER
 10
44.8087580743
 20
75.2035677985
 11
44.7809362895
 21
76.6950163982
  0
LINE
  5
26A
100
AcDbEntity
  8
0
100
AcDbLine
 62
7
  6
BYLAYER
 10
42.7124731277
 20
17.5025510205
 11
42.7124731277
 21
12.0025510205
  0
LINE
  5
26B
100
AcDbEntity
  8
0
100
AcDbLine
 62
7
  6
BYLAYER
 10
42.9124731269
 20
78.9757749429
 11
42.9124731269
 21
77.7044289125
  0
LINE
  5
26C
100
AcDbEntity
  8
0
100
AcDbLine
 62
7
  6
BYLAYER
 10
42.9124731269
 20
57.396588781
 11
42.9124731269
 21
56.1252427507
  0
LINE
  5
26D
100
AcDbEntity
  8
0
100
AcDbLine
 62
7
  6
BYLAYER
 10
43.1266866893
 20
70.9706264904
 11
43.1266866893
 21
71.2222276608
  0
LINE
  5
26E
100
AcDbEntity
  8
0
100
AcDbLine
 62
7
  6
BYLAYER
 10
43.1266866893
 20
92.5498126523
 11
43.1266866893
 21
92.8014138226
  0
LINE
  5
26F
100
AcDbEntity
  8
0
100
AcDbLine
 62
7
  6
BYLAYER
 10
43.5124731275
 20
11.0025510204
 11
43.5124731275
 21
11.8025510204
  0
LINE
  5
270
100
AcDbEntity
  8
0
100
AcDbLine
 62
7
  6
BYLAYER
 10
44.3624731269
 20
69.1939858989
 11
44.3624731269
 21
70.4519917508
  0
LINE
  5
271
100
AcDbEntity
  8
0
100
AcDbLine
 62
7
  6
BYLAYER
 10
44.3624731269
 20
90.7731720608
 11
44.3624731269
 21
92.0311779127
  0
LINE
  5
272
100
AcDbEntity
  8
0
100
AcDbLine
 62
7
  6
BYLAYER
 10
44.7124731277
 20
12.0025510205
 11
44.7124731277
 21
22.1016409952
  0
LINE
  5
273
100
AcDbEntity
  8
0
100
AcDbLine
 62
7
  6
BYLAYER
 10
44.7809362895
 20
78.9757749429
 11
44.7809362895
 21
76.6950163983
  0
LINE
  5
274
100
AcDbEntity
  8
0
100
AcDbLine
 62
7
  6
BYLAYER
 10
44.7809362895
 20
57.396588781
 11
44.7809362895
 21
55.1158302364
  0
LINE
  5
275
100
AcDbEntity
  8
0
100
AcDbLine
 62
7
  6
BYLAYER
 10
44.8624731269
 20
51.903296561
 11
44.8624731269
 21
57.396588781
  0
LINE
  5
276
100
AcDbEntity
  8
0
100
AcDbLine
 62
7
  6
BYLAYER
 10
44.8624731269
 20
73.4824827229
 11
44.8624731269
 21
78.9757749429
  0
LINE
  5
277
100
AcDbEntity
  8
0
100
AcDbLine
 62
7
  6
BYLAYER
 10
45.5124731275
 20
11.8025510204
 11
45.5124731275
 21
11.0025510204
  0
LINE
  5
278
100
AcDbEntity
  8
0
100
AcDbLine
 62
7
  6
BYLAYER
 10
45.9161881796
 20
75.2035677985
 11
45.8624731269
 21
73.4824827229
  0
LINE
  5
279
100
AcDbEntity
  8
0
100
AcDbLine
 62
7
  6
BYLAYER
 10
43.1266866893
 20
71.2222276608
 11
43.586306097
 21
71.4725543315
  0
LINE
  5
27A
100
AcDbEntity
  8
0
100
AcDbLine
 62
7
  6
BYLAYER
 10
55.3124731269
 20
77.7044289126
 11
53.4440099644
 21
76.6950163982
  0
LINE
  5
27B
100
AcDbEntity
  8
0
100
AcDbLine
 62
7
  6
BYLAYER
 10
59.6624731275
 20
60.8168196139
 11
38.5624731275
 21
60.8168196139
  0
LINE
  5
27C
100
AcDbEntity
  8
0
100
AcDbLine
 62
7
  6
BYLAYER
 10
58.4702763908
 20
55.687277803
 11
57.9124731269
 21
56.1252427507
  0
LINE
  5
27D
100
AcDbEntity
  8
0
100
AcDbLine
 62
7
  6
BYLAYER
 10
58.4927065042
 20
21.99274037
 11
56.6596963774
 21
28.5025510219
  0
LINE
  5
27E
100
AcDbEntity
  8
0
100
AcDbLine
 62
7
  6
BYLAYER
 10
45.8624731269
 20
78.9757749429
 11
45.8624731269
 21
73.4824827229
  0
LINE
  5
27F
100
AcDbEntity
  8
0
100
AcDbLine
 62
7
  6
BYLAYER
 10
45.8624731269
 20
57.396588781
 11
45.8624731269
 21
51.903296561
  0
LINE
  5
280
100
AcDbEntity
  8
0
100
AcDbLine
 62
7
  6
BYLAYER
 10
45.9440099644
 20
78.9757749429
 11
45.9440099644
 21
76.6950163982
  0
LINE
  5
281
100
AcDbEntity
  8
0
100
AcDbLine
 62
7
  6
BYLAYER
 10
45.9440099644
 20
57.396588781
 11
45.9440099644
 21
55.1158302363
  0
LINE
  5
282
100
AcDbEntity
  8
0
100
AcDbLine
 62
7
  6
BYLAYER
 10
46.4624731269
 20
69.1939858989
 11
46.4624731269
 21
70.4519917508
  0
LINE
  5
283
100
AcDbEntity
  8
0
100
AcDbLine
 62
7
  6
BYLAYER
 10
46.4624731269
 20
90.7731720608
 11
46.4624731269
 21
92.0311779127
  0
LINE
  5
284
100
AcDbEntity
  8
0
100
AcDbLine
 62
7
  6
BYLAYER
 10
47.6982595646
 20
92.8014138227
 11
47.6982595646
 21
92.5498126523
  0
LINE
  5
285
100
AcDbEntity
  8
0
100
AcDbLine
 62
7
  6
BYLAYER
 10
47.6982595646
 20
71.2222276608
 11
47.6982595646
 21
70.9706264904
  0
LINE
  5
286
100
AcDbEntity
  8
0
100
AcDbLine
 62
7
  6
BYLAYER
 10
47.8124731269
 20
56.1252427507
 11
47.8124731269
 21
57.396588781
  0
LINE
  5
287
100
AcDbEntity
  8
0
100
AcDbLine
 62
7
  6
BYLAYER
 10
47.8124731269
 20
77.7044289125
 11
47.8124731269
 21
78.9757749429
  0
LINE
  5
288
100
AcDbEntity
  8
0
100
AcDbLine
 62
7
  6
BYLAYER
 10
45.9440099644
 20
76.6950163982
 11
45.9161881796
 21
75.2035677985
  0
LINE
  5
289
100
AcDbEntity
  8
0
100
AcDbLine
 62
7
  6
BYLAYER
 10
45.9440099644
 20
55.1158302363
 11
45.9161881796
 21
53.6243816366
  0
LINE
  5
28A
100
AcDbEntity
  8
0
100
AcDbLine
 62
7
  6
BYLAYER
 10
45.9161881796
 20
53.6243816366
 11
45.8624731269
 21
51.903296561
  0
LINE
  5
28B
100
AcDbEntity
  8
0
100
AcDbLine
 62
7
  6
BYLAYER
 10
50.5266866893
 20
71.2222276608
 11
50.986306097
 21
71.4725543315
  0
LINE
  5
28C
100
AcDbEntity
  8
0
100
AcDbLine
 62
7
  6
BYLAYER
 10
59.6624731275
 20
66.3269851237
 11
38.5624731275
 21
66.3269851237
  0
LINE
  5
28D
100
AcDbEntity
  8
0
100
AcDbLine
 62
7
  6
BYLAYER
 10
38.5624731275
 20
67.6692202553
 11
59.6624731275
 21
67.6692202553
  0
LINE
  5
28E
100
AcDbEntity
  8
0
100
AcDbLine
 62
7
  6
BYLAYER
 10
39.8386401569
 20
71.4725543315
 11
40.2982595646
 21
71.2222276608
  0
LINE
  5
28F
100
AcDbEntity
  8
0
100
AcDbLine
 62
7
  6
BYLAYER
 10
52.3624731269
 20
51.903296561
 11
52.3087580743
 21
53.6243816366
  0
LINE
  5
290
100
AcDbEntity
  8
0
100
AcDbLine
 62
7
  6
BYLAYER
 10
52.3624731269
 20
73.4824827229
 11
52.3087580743
 21
75.2035677985
  0
LINE
  5
291
100
AcDbEntity
  8
0
100
AcDbLine
 62
7
  6
BYLAYER
 10
52.2809362895
 20
55.1158302363
 11
52.3087580743
 21
53.6243816366
  0
LINE
  5
292
100
AcDbEntity
  8
0
100
AcDbLine
 62
7
  6
BYLAYER
 10
52.2809362895
 20
76.6950163982
 11
52.3087580743
 21
75.2035677985
  0
LINE
  5
293
100
AcDbEntity
  8
0
100
AcDbLine
 62
7
  6
BYLAYER
 10
50.4124731269
 20
78.9757749429
 11
50.4124731269
 21
77.7044289125
  0
LINE
  5
294
100
AcDbEntity
  8
0
100
AcDbLine
 62
7
  6
BYLAYER
 10
50.4124731269
 20
57.396588781
 11
50.4124731269
 21
56.1252427507
  0
LINE
  5
295
100
AcDbEntity
  8
0
100
AcDbLine
 62
7
  6
BYLAYER
 10
50.5266866893
 20
70.9706264904
 11
50.5266866893
 21
71.2222276608
  0
LINE
  5
296
100
AcDbEntity
  8
0
100
AcDbLine
 62
7
  6
BYLAYER
 10
50.5266866893
 20
92.5498126523
 11
50.5266866893
 21
92.8014138226
  0
LINE
  5
297
100
AcDbEntity
  8
0
100
AcDbLine
 62
7
  6
BYLAYER
 10
51.7624731269
 20
69.1939858989
 11
51.7624731269
 21
70.4519917508
  0
LINE
  5
298
100
AcDbEntity
  8
0
100
AcDbLine
 62
7
  6
BYLAYER
 10
51.7624731269
 20
90.7731720608
 11
51.7624731269
 21
92.0311779127
  0
LINE
  5
299
100
AcDbEntity
  8
0
100
AcDbLine
 62
7
  6
BYLAYER
 10
52.2809362895
 20
78.9757749429
 11
52.2809362895
 21
76.6950163983
  0
LINE
  5
29A
100
AcDbEntity
  8
0
100
AcDbLine
 62
7
  6
BYLAYER
 10
52.2809362895
 20
57.396588781
 11
52.2809362895
 21
55.1158302364
  0
LINE
  5
29B
100
AcDbEntity
  8
0
100
AcDbLine
 62
7
  6
BYLAYER
 10
52.3624731269
 20
51.903296561
 11
52.3624731269
 21
57.396588781
  0
LINE
  5
29C
100
AcDbEntity
  8
0
100
AcDbLine
 62
7
  6
BYLAYER
 10
52.3624731269
 20
73.4824827229
 11
52.3624731269
 21
78.9757749429
  0
LINE
  5
29D
100
AcDbEntity
  8
0
100
AcDbLine
 62
7
  6
BYLAYER
 10
52.7124731275
 20
11.0025510204
 11
52.7124731275
 21
11.8025510204
  0
LINE
  5
29E
100
AcDbEntity
  8
0
100
AcDbLine
 62
7
  6
BYLAYER
 10
53.3624731269
 20
78.9757749429
 11
53.3624731269
 21
73.4824827229
  0
LINE
  5
29F
100
AcDbEntity
  8
0
100
AcDbLine
 62
7
  6
BYLAYER
 10
53.3624731269
 20
57.396588781
 11
53.3624731269
 21
51.903296561
  0
LINE
  5
2A0
100
AcDbEntity
  8
0
100
AcDbLine
 62
7
  6
BYLAYER
 10
53.4440099644
 20
55.1158302364
 11
53.4440099644
 21
57.396588781
  0
LINE
  5
2A1
100
AcDbEntity
  8
0
100
AcDbLine
 62
7
  6
BYLAYER
 10
53.4440099644
 20
76.6950163982
 11
53.4440099644
 21
78.9757749429
  0
LINE
  5
2A2
100
AcDbEntity
  8
0
100
AcDbLine
 62
7
  6
BYLAYER
 10
53.4440099644
 20
76.6950163982
 11
53.4161881796
 21
75.2035677985
  0
LINE
  5
2A3
100
AcDbEntity
  8
0
100
AcDbLine
 62
7
  6
BYLAYER
 10
53.4161881796
 20
75.2035677985
 11
53.3624731269
 21
73.4824827229
  0
LINE
  5
2A4
100
AcDbEntity
  8
0
100
AcDbLine
 62
7
  6
BYLAYER
 10
41.5652498777
 20
28.5025510219
 11
39.7738929753
 21
22.1406689603
  0
LINE
  5
2A5
100
AcDbEntity
  8
0
100
AcDbLine
 62
7
  6
BYLAYER
 10
40.3124731269
 20
56.1252427507
 11
39.7546698635
 21
55.6872778033
  0
LINE
  5
2A6
100
AcDbEntity
  8
0
100
AcDbLine
 62
7
  6
BYLAYER
 10
57.9266866893
 20
71.2222276608
 11
58.386306097
 21
71.4725543315
  0
LINE
  5
2A7
100
AcDbEntity
  8
0
100
AcDbLine
 62
7
  6
BYLAYER
 10
38.5624731275
 20
70.7339377223
 11
39.0624731277
 21
70.7339377223
  0
LINE
  5
2A8
100
AcDbEntity
  8
0
100
AcDbLine
 62
7
  6
BYLAYER
 10
59.1624731275
 20
70.7339377223
 11
59.6624731275
 21
70.7339377223
  0
LINE
  5
2A9
100
AcDbEntity
  8
0
100
AcDbLine
 62
7
  6
BYLAYER
 10
39.0624731277
 20
71.5940659483
 11
41.253981075
 21
71.5940659483
  0
LINE
  5
2AA
100
AcDbEntity
  8
0
100
AcDbLine
 62
7
  6
BYLAYER
 10
42.1709741699
 20
71.5940659483
 11
48.653981075
 21
71.5940659483
  0
LINE
  5
2AB
100
AcDbEntity
  8
0
100
AcDbLine
 62
7
  6
BYLAYER
 10
49.5709741699
 20
71.5940659483
 11
56.053981075
 21
71.5940659483
  0
LINE
  5
2AC
100
AcDbEntity
  8
0
100
AcDbLine
 62
7
  6
BYLAYER
 10
56.9709741699
 20
71.5940659483
 11
59.1624731275
 21
71.5940659483
  0
LINE
  5
2AD
100
AcDbEntity
  8
0
100
AcDbLine
 62
7
  6
BYLAYER
 10
39.0624731277
 20
71.9281709469
 11
59.1624731275
 21
71.9281709469
  0
LINE
  5
2AE
100
AcDbEntity
  8
0
100
AcDbLine
 62
7
  6
BYLAYER
 10
47.2386401569
 20
71.4725543315
 11
47.6982595646
 21
71.2222276608
  0
LINE
  5
2AF
100
AcDbEntity
  8
0
100
AcDbLine
 62
7
  6
BYLAYER
 10
53.5124731275
 20
12.0025510205
 11
53.5124731275
 21
22.0320975067
  0
LINE
  5
2B0
100
AcDbEntity
  8
0
100
AcDbLine
 62
7
  6
BYLAYER
 10
53.8624731269
 20
69.1939858989
 11
53.8624731269
 21
70.4519917508
  0
LINE
  5
2B1
100
AcDbEntity
  8
0
100
AcDbLine
 62
7
  6
BYLAYER
 10
53.8624731269
 20
90.7731720608
 11
53.8624731269
 21
92.0311779127
  0
LINE
  5
2B2
100
AcDbEntity
  8
0
100
AcDbLine
 62
7
  6
BYLAYER
 10
54.7124731275
 20
11.8025510204
 11
54.7124731275
 21
11.0025510204
  0
LINE
  5
2B3
100
AcDbEntity
  8
0
100
AcDbLine
 62
7
  6
BYLAYER
 10
55.0982595646
 20
92.8014138227
 11
55.0982595646
 21
92.5498126523
  0
LINE
  5
2B4
100
AcDbEntity
  8
0
100
AcDbLine
 62
7
  6
BYLAYER
 10
55.0982595646
 20
71.2222276608
 11
55.0982595646
 21
70.9706264904
  0
LINE
  5
2B5
100
AcDbEntity
  8
0
100
AcDbLine
 62
7
  6
BYLAYER
 10
55.3124731269
 20
56.1252427507
 11
55.3124731269
 21
57.396588781
  0
LINE
  5
2B6
100
AcDbEntity
  8
0
100
AcDbLine
 62
7
  6
BYLAYER
 10
55.3124731269
 20
77.7044289125
 11
55.3124731269
 21
78.9757749429
  0
LINE
  5
2B7
100
AcDbEntity
  8
0
100
AcDbLine
 62
7
  6
BYLAYER
 10
55.5124731275
 20
12.0025510205
 11
55.5124731275
 21
17.5025510205
  0
LINE
  5
2B8
100
AcDbEntity
  8
0
100
AcDbLine
 62
7
  6
BYLAYER
 10
56.6596963774
 20
46.4025510207
 11
56.6596963774
 21
28.5025510219
  0
LINE
  5
2B9
100
AcDbEntity
  8
0
100
AcDbLine
 62
7
  6
BYLAYER
 10
57.0624731275
 20
11.8025510204
 11
57.0624731275
 21
17.5025510205
  0
LINE
  5
2BA
100
AcDbEntity
  8
0
100
AcDbLine
 62
7
  6
BYLAYER
 10
53.4440099644
 20
55.1158302363
 11
53.4161881796
 21
53.6243816366
  0
LINE
  5
2BB
100
AcDbEntity
  8
0
100
AcDbLine
 62
7
  6
BYLAYER
 10
53.4161881796
 20
53.6243816366
 11
53.3624731269
 21
51.903296561
  0
LINE
  5
2BC
100
AcDbEntity
  8
0
100
AcDbLine
 62
7
  6
BYLAYER
 10
38.5624731275
 20
74.0989023463
 11
39.0624731277
 21
74.0990690194
  0
LINE
  5
2BD
100
AcDbEntity
  8
0
100
AcDbLine
 62
7
  6
BYLAYER
 10
39.0624731277
 20
72.8115148686
 11
59.1624731275
 21
72.8115148686
  0
LINE
  5
2BE
100
AcDbEntity
  8
0
100
AcDbLine
 62
7
  6
BYLAYER
 10
39.6624731271
 20
73.4824827229
 11
44.8624731269
 21
73.4824827229
  0
LINE
  5
2BF
100
AcDbEntity
  8
0
100
AcDbLine
 62
7
  6
BYLAYER
 10
45.8624731269
 20
73.4824827229
 11
52.3624731269
 21
73.4824827229
  0
LINE
  5
2C0
100
AcDbEntity
  8
0
100
AcDbLine
 62
7
  6
BYLAYER
 10
53.3624731269
 20
73.4824827229
 11
58.5624731272
 21
73.4824827229
  0
LINE
  5
2C1
100
AcDbEntity
  8
0
100
AcDbLine
 62
7
  6
BYLAYER
 10
58.5087580745
 20
75.2035677985
 11
53.4161881796
 21
75.2035677985
  0
LINE
  5
2C2
100
AcDbEntity
  8
0
100
AcDbLine
 62
7
  6
BYLAYER
 10
39.7161881798
 20
75.2035677985
 11
44.8087580743
 21
75.2035677985
  0
LINE
  5
2C3
100
AcDbEntity
  8
0
100
AcDbLine
 62
7
  6
BYLAYER
 10
45.9161881796
 20
75.2035677985
 11
52.3087580743
 21
75.2035677985
  0
LINE
  5
2C4
100
AcDbEntity
  8
0
100
AcDbLine
 62
7
  6
BYLAYER
 10
59.1624731275
 20
74.0990690194
 11
59.6624731275
 21
74.0989023593
  0
LINE
  5
2C5
100
AcDbEntity
  8
0
100
AcDbLine
 62
7
  6
BYLAYER
 10
42.9124731269
 20
77.7044289125
 11
44.7809362895
 21
76.6950163982
  0
LINE
  5
2C6
100
AcDbEntity
  8
0
100
AcDbLine
 62
7
  6
BYLAYER
 10
54.6386401569
 20
71.4725543315
 11
55.0982595646
 21
71.2222276608
  0
LINE
  5
2C7
100
AcDbEntity
  8
0
100
AcDbLine
 62
7
  6
BYLAYER
 10
58.5624731271
 20
51.903296561
 11
58.5087580745
 21
53.6243816366
  0
LINE
  5
2C8
100
AcDbEntity
  8
0
100
AcDbLine
 62
7
  6
BYLAYER
 10
58.5624731271
 20
73.4824827229
 11
58.5087580745
 21
75.2035677985
  0
LINE
  5
2C9
100
AcDbEntity
  8
0
100
AcDbLine
 62
7
  6
BYLAYER
 10
58.5087580745
 20
53.6243816366
 11
58.4702763908
 21
55.687277803
  0
LINE
  5
2CA
100
AcDbEntity
  8
0
100
AcDbLine
 62
7
  6
BYLAYER
 10
58.5087580745
 20
75.2035677985
 11
58.4702763908
 21
77.2664639649
  0
LINE
  5
2CB
100
AcDbEntity
  8
0
100
AcDbLine
 62
7
  6
BYLAYER
 10
57.8624731275
 20
17.5025510205
 11
57.8624731275
 21
12.3025510205
  0
LINE
  5
2CC
100
AcDbEntity
  8
0
100
AcDbLine
 62
7
  6
BYLAYER
 10
57.9124731269
 20
78.9757749429
 11
57.9124731269
 21
77.7044289125
  0
LINE
  5
2CD
100
AcDbEntity
  8
0
100
AcDbLine
 62
7
  6
BYLAYER
 10
57.9124731269
 20
57.396588781
 11
57.9124731269
 21
56.1252427507
  0
LINE
  5
2CE
100
AcDbEntity
  8
0
100
AcDbLine
 62
7
  6
BYLAYER
 10
57.9266866893
 20
70.9706264904
 11
57.9266866893
 21
71.2222276608
  0
LINE
  5
2CF
100
AcDbEntity
  8
0
100
AcDbLine
 62
7
  6
BYLAYER
 10
57.9266866893
 20
92.5498126523
 11
57.9266866893
 21
92.8014138226
  0
LINE
  5
2D0
100
AcDbEntity
  8
0
100
AcDbLine
 62
7
  6
BYLAYER
 10
58.4702763908
 20
78.9757749429
 11
58.4702763908
 21
77.2664639649
  0
LINE
  5
2D1
100
AcDbEntity
  8
0
100
AcDbLine
 62
7
  6
BYLAYER
 10
58.4702763908
 20
57.396588781
 11
58.4702763908
 21
55.687277803
  0
LINE
  5
2D2
100
AcDbEntity
  8
0
100
AcDbLine
 62
7
  6
BYLAYER
 10
58.5124731272
 20
13.2828067418
 11
58.5124731272
 21
17.5025510205
  0
LINE
  5
2D3
100
AcDbEntity
  8
0
100
AcDbLine
 62
7
  6
BYLAYER
 10
58.5624731272
 20
51.903296561
 11
58.5624731272
 21
57.396588781
  0
LINE
  5
2D4
100
AcDbEntity
  8
0
100
AcDbLine
 62
7
  6
BYLAYER
 10
58.5624731272
 20
73.4824827229
 11
58.5624731272
 21
78.9757749429
  0
LINE
  5
2D5
100
AcDbEntity
  8
0
100
AcDbLine
 62
7
  6
BYLAYER
 10
58.8124731275
 20
120.0490908951
 11
58.8124731275
 21
124.5025510205
  0
LINE
  5
2D6
100
AcDbEntity
  8
0
100
AcDbLine
 62
7
  6
BYLAYER
 10
59.1624731275
 20
49.1599402691
 11
59.1624731275
 21
52.5198828575
  0
LINE
  5
2D7
100
AcDbEntity
  8
0
100
AcDbLine
 62
7
  6
BYLAYER
 10
59.1624731269
 20
69.1939858989
 11
59.1624731269
 21
70.4519917508
  0
LINE
  5
2D8
100
AcDbEntity
  8
0
100
AcDbLine
 62
7
  6
BYLAYER
 10
59.1624731275
 20
70.7339377223
 11
59.1624731275
 21
74.0990690194
  0
LINE
  5
2D9
100
AcDbEntity
  8
0
100
AcDbLine
 62
7
  6
BYLAYER
 10
59.1624731269
 20
90.7731720608
 11
59.1624731269
 21
92.0311779127
  0
LINE
  5
2DA
100
AcDbEntity
  8
0
100
AcDbLine
 62
7
  6
BYLAYER
 10
59.6624731275
 20
52.5197161974
 11
59.6624731275
 21
70.7339377223
  0
LINE
  5
2DB
100
AcDbEntity
  8
0
100
AcDbLine
 62
7
  6
BYLAYER
 10
59.6624731275
 20
74.0989023593
 11
59.6624731275
 21
95.2356021331
  0
LINE
  5
2DC
100
AcDbEntity
  8
0
100
AcDbLine
 62
7
  6
BYLAYER
 10
60.4124731278
 20
13.2828067418
 11
60.4124731278
 21
124.5025510204
  0
LINE
  5
2DD
100
AcDbEntity
  8
0
100
AcDbLine
 62
7
  6
BYLAYER
 10
37.8124731278
 20
42.181401665
 11
41.5652498776
 21
46.4025510203
  0
LINE
  5
2DE
100
AcDbEntity
  8
0
100
AcDbLine
 62
7
  6
BYLAYER
 10
47.8124731269
 20
56.1252427507
 11
45.9440099644
 21
55.1158302363
  0
LINE
  5
2DF
100
AcDbEntity
  8
0
100
AcDbLine
 62
7
  6
BYLAYER
 10
40.3124731269
 20
77.7044289125
 11
42.9124731269
 21
77.7044289125
  0
LINE
  5
2E0
100
AcDbEntity
  8
0
100
AcDbLine
 62
7
  6
BYLAYER
 10
47.8124731269
 20
77.7044289125
 11
50.4124731269
 21
77.7044289125
  0
LINE
  5
2E1
100
AcDbEntity
  8
0
100
AcDbLine
 62
7
  6
BYLAYER
 10
55.3124731269
 20
77.7044289125
 11
57.9124731269
 21
77.7044289125
  0
LINE
  5
2E2
100
AcDbEntity
  8
0
100
AcDbLine
 62
7
  6
BYLAYER
 10
57.9124731269
 20
78.0039803818
 11
55.3124731269
 21
78.0039803818
  0
LINE
  5
2E3
100
AcDbEntity
  8
0
100
AcDbLine
 62
7
  6
BYLAYER
 10
40.3124731269
 20
78.0039803818
 11
42.9124731269
 21
78.0039803818
  0
LINE
  5
2E4
100
AcDbEntity
  8
0
100
AcDbLine
 62
7
  6
BYLAYER
 10
47.8124731269
 20
78.0039803818
 11
50.4124731269
 21
78.0039803818
  0
LINE
  5
2E5
100
AcDbEntity
  8
0
100
AcDbLine
 62
7
  6
BYLAYER
 10
39.6624731271
 20
78.9757749429
 11
44.8624731269
 21
78.9757749429
  0
LINE
  5
2E6
100
AcDbEntity
  8
0
100
AcDbLine
 62
7
  6
BYLAYER
 10
45.8624731269
 20
78.9757749429
 11
52.3624731269
 21
78.9757749429
  0
LINE
  5
2E7
100
AcDbEntity
  8
0
100
AcDbLine
 62
7
  6
BYLAYER
 10
53.3624731269
 20
78.9757749429
 11
58.5624731272
 21
78.9757749429
  0
LINE
  5
2E8
100
AcDbEntity
  8
0
100
AcDbLine
 62
7
  6
BYLAYER
 10
59.6624731275
 20
79.6468503735
 11
38.5624731275
 21
79.6468503602
  0
LINE
  5
2E9
100
AcDbEntity
  8
0
100
AcDbLine
 62
7
  6
BYLAYER
 10
52.2809362895
 20
76.6950163983
 11
50.412473127
 21
77.7044289126
  0
LINE
  5
2EA
100
AcDbEntity
  8
0
100
AcDbLine
 62
7
  6
BYLAYER
 10
55.3124731269
 20
56.1252427507
 11
53.4440099644
 21
55.1158302364
  0
LINE
  5
2EB
100
AcDbEntity
  8
0
100
AcDbLine
 62
7
  6
BYLAYER
 10
59.6624731275
 20
82.3960057757
 11
38.5624731275
 21
82.3960057757
  0
LINE
  5
2EC
100
AcDbEntity
  8
0
100
AcDbLine
 62
7
  6
BYLAYER
 10
58.4702763908
 20
77.2664639649
 11
57.9124731269
 21
77.7044289125
  0
LINE
  5
2ED
100
AcDbEntity
  8
0
100
AcDbLine
 62
7
  6
BYLAYER
 10
39.8386401569
 20
93.0517404934
 11
40.2982595646
 21
92.8014138227
  0
LINE
  5
2EE
100
AcDbEntity
  8
0
100
AcDbLine
 62
7
  6
BYLAYER
 10
59.6624731275
 20
87.9061712856
 11
38.5624731275
 21
87.9061712856
  0
LINE
  5
2EF
100
AcDbEntity
  8
0
100
AcDbLine
 62
7
  6
BYLAYER
 10
38.5624731275
 20
89.2484064172
 11
59.6624731275
 21
89.2484064172
  0
LINE
  5
2F0
100
AcDbEntity
  8
0
100
AcDbLine
 62
7
  6
BYLAYER
 10
47.2386401569
 20
93.0517404934
 11
47.6982595646
 21
92.8014138227
  0
LINE
  5
2F1
100
AcDbEntity
  8
0
100
AcDbLine
 62
7
  6
BYLAYER
 10
59.6624731275
 20
95.2356021331
 11
38.5624731275
 21
95.2356021331
  0
LINE
  5
2F2
100
AcDbEntity
  8
0
100
AcDbLine
 62
7
  6
BYLAYER
 10
54.6386401569
 20
93.0517404934
 11
55.0982595646
 21
92.8014138227
  0
LINE
  5
2F3
100
AcDbEntity
  8
0
100
AcDbLine
 62
7
  6
BYLAYER
 10
58.4927065042
 20
21.99274037
 11
60.4124731278
 21
24.1321308859
  0
LINE
  5
2F4
100
AcDbEntity
  8
0
100
AcDbLine
 62
7
  6
BYLAYER
 10
60.4124731278
 20
117.164245217
 11
37.8124731278
 21
117.164245217
  0
LINE
  5
2F5
100
AcDbEntity
  8
0
100
AcDbLine
 62
7
  6
BYLAYER
 10
58.8124731275
 20
120.0490908953
 11
39.4124731275
 21
120.0490908952
  0
LINE
  5
2F6
100
AcDbEntity
  8
0
100
AcDbLine
 62
7
  6
BYLAYER
 10
39.4124731275
 20
120.4524144755
 11
58.8124731275
 21
120.4524144755
  0
LINE
  5
2F7
100
AcDbEntity
  8
0
100
AcDbLine
 62
7
  6
BYLAYER
 10
39.4124731275
 20
120.9717937921
 11
58.8124731275
 21
120.9717937921
  0
LINE
  5
2F8
100
AcDbEntity
  8
0
100
AcDbLine
 62
7
  6
BYLAYER
 10
58.8124731275
 20
121.1686932313
 11
39.4124731275
 21
121.1686932313
  0
LINE
  5
2F9
100
AcDbEntity
  8
0
100
AcDbLine
 62
7
  6
BYLAYER
 10
58.8124731275
 20
122.140347744
 11
39.4124731275
 21
122.140347744
  0
LINE
  5
2FA
100
AcDbEntity
  8
0
100
AcDbLine
 62
7
  6
BYLAYER
 10
58.8124731275
 20
124.4025510204
 11
39.4124731275
 21
124.4025510204
  0
LINE
  5
2FB
100
AcDbEntity
  8
0
100
AcDbLine
 62
7
  6
BYLAYER
 10
37.8124731278
 20
124.5025510204
 11
60.4124731278
 21
124.5025510204
  0
ARC
  5
2FC
100
AcDbEntity
  8
0
100
AcDbCircle
 62
7
  6
BYLAYER
 10
41.6624731275
 20
12.3025510204
 40
1.3
100
AcDbArc
 50
180.0
 51
270.0
  0
ARC
  5
2FD
100
AcDbEntity
  8
0
100
AcDbCircle
 62
7
  6
BYLAYER
 10
56.5624731275
 20
12.3025510204
 40
1.3
100
AcDbArc
 50
270.0
 51
360.0
  0
SPLINE
  5
2FE
100
AcDbEntity
  8
0
100
AcDbSpline
 62
7
  6
BYLAYER
 70
0
 71
3
 72
15
 73
11
 74
0
 42
0.0000001
 43
0.0000001
 44
0.0000000001
 40
0.0
 40
0.0
 40
0.0
 40
0.0
 40
0.1167958856
 40
0.2404683285
 40
0.3689930725
 40
0.5000000231
 40
0.6310069702
 40
0.7595317057
 40
0.8832041367
 40
1.0
 40
1.0
 40
1.0
 40
1.0
 10
54.8883601157
 20
92.9200253026
 30
0.0
 10
55.0075719358
 20
92.9703910147
 30
0.0
 10
55.259672687
 20
93.0587485291
 30
0.0
 10
55.6582522302
 20
93.1526478092
 30
0.0
 10
56.0795934344
 20
93.2100457035
 30
0.0
 10
56.5124733147
 20
93.2293400547
 30
0.0
 10
56.9453531839
 20
93.2100456693
 30
0.0
 10
57.366694358
 20
93.152647748
 30
0.0
 10
57.7652738468
 20
93.0587484451
 30
0.0
 10
58.0173745569
 20
92.9703909281
 30
0.0
 10
58.1365863502
 20
92.9200252163
 30
0.0
  0
SPLINE
  5
2FF
100
AcDbEntity
  8
0
100
AcDbSpline
 62
7
  6
BYLAYER
 70
0
 71
3
 72
27
 73
23
 74
0
 42
0.0000001
 43
0.0000001
 44
0.0000000001
 40
0.0
 40
0.0
 40
0.0
 40
0.0
 40
0.0216290063
 40
0.0437654599
 40
0.0909888787
 40
0.1168263671
 40
0.1443515314
 40
0.2046167564
 40
0.2716366541
 40
0.3443419572
 40
0.4211137033
 40
0.4999983599
 40
0.5788827273
 40
0.6556537683
 40
0.7283585455
 40
0.7953787429
 40
0.8556451565
 40
0.8831710625
 40
0.9090091017
 40
0.9562338992
 40
0.9783708453
 40
1.0
 40
1.0
 40
1.0
 40
1.0
 10
54.5124731269
 20
92.0311779127
 30
0.0
 10
54.5124731269
 20
91.9954665627
 30
0.0
 10
54.5191189824
 20
91.9230415445
 30
0.0
 10
54.5590839172
 20
91.7775527974
 30
0.0
 10
54.6391437223
 20
91.6389689755
 30
0.0
 10
54.7487413377
 20
91.5139227707
 30
0.0
 10
54.8883289703
 20
91.3879407386
 30
0.0
 10
55.1041760495
 20
91.2480449033
 30
0.0
 10
55.4075627926
 20
91.114968848
 30
0.0
 10
55.7521071059
 20
91.0162494944
 30
0.0
 10
56.1250245552
 20
90.9555167411
 30
0.0
 10
56.5124641901
 20
90.9350116481
 30
0.0
 10
56.8999027362
 20
90.9555148891
 30
0.0
 10
57.2728180582
 20
91.0162450931
 30
0.0
 10
57.6173614431
 20
91.1149617823
 30
0.0
 10
57.9207511672
 20
91.2480351628
 30
0.0
 10
58.1366023281
 20
91.3879312293
 30
0.0
 10
58.2761955909
 20
91.5139131708
 30
0.0
 10
58.3857972768
 20
91.6389617125
 30
0.0
 10
58.4658605115
 20
91.7775483933
 30
0.0
 10
58.5058266109
 20
91.9230402835
 30
0.0
 10
58.5124731269
 20
91.9954663177
 30
0.0
 10
58.5124731269
 20
92.0311779127
 30
0.0
  0
SPLINE
  5
300
100
AcDbEntity
  8
0
100
AcDbSpline
 62
7
  6
BYLAYER
 70
0
 71
3
 72
14
 73
10
 74
0
 42
0.0000001
 43
0.0000001
 44
0.0000000001
 40
0.0
 40
0.0
 40
0.0
 40
0.0
 40
0.1056485254
 40
0.2137578927
 40
0.3263152915
 40
0.4450358007
 40
0.5712103842
 40
0.7056611294
 40
1.0
 40
1.0
 40
1.0
 40
1.0
 10
53.8624731269
 20
92.0311779128
 30
0.0
 10
53.8624731269
 20
92.0785011961
 30
0.0
 10
53.8712585934
 20
92.1744591412
 30
0.0
 10
53.9102035973
 20
92.3160570625
 30
0.0
 10
53.9745541051
 20
92.4545052125
 30
0.0
 10
54.0633098535
 20
92.5884033417
 30
0.0
 10
54.1755397901
 20
92.7165985868
 30
0.0
 10
54.3604190109
 20
92.8834089875
 30
0.0
 10
54.5228555742
 20
92.98867969
 30
0.0
 10
54.6386401569
 20
93.0517404934
 30
0.0
  0
SPLINE
  5
301
100
AcDbEntity
  8
0
100
AcDbSpline
 62
7
  6
BYLAYER
 70
0
 71
3
 72
14
 73
10
 74
0
 42
0.0000001
 43
0.0000001
 44
0.0000000001
 40
0.0
 40
0.0
 40
0.0
 40
0.0
 40
0.2943388706
 40
0.4287896158
 40
0.5549641993
 40
0.6736847085
 40
0.7862421073
 40
0.8943514746
 40
1.0
 40
1.0
 40
1.0
 40
1.0
 10
58.386306097
 20
93.0517404934
 30
0.0
 10
58.5020906797
 20
92.98867969
 30
0.0
 10
58.664527243
 20
92.8834089875
 30
0.0
 10
58.8494064638
 20
92.7165985867
 30
0.0
 10
58.9616364004
 20
92.5884033417
 30
0.0
 10
59.0503921488
 20
92.4545052125
 30
0.0
 10
59.1147426566
 20
92.3160570625
 30
0.0
 10
59.1536876605
 20
92.1744591412
 30
0.0
 10
59.1624731269
 20
92.0785011961
 30
0.0
 10
59.1624731269
 20
92.0311779127
 30
0.0
  0
SPLINE
  5
302
100
AcDbEntity
  8
0
100
AcDbSpline
 62
7
  6
BYLAYER
 70
0
 71
3
 72
15
 73
11
 74
0
 42
0.0000001
 43
0.0000001
 44
0.0000000001
 40
0.0
 40
0.0
 40
0.0
 40
0.0
 40
0.1167958856
 40
0.2404683285
 40
0.3689930725
 40
0.5000000231
 40
0.6310069702
 40
0.7595317057
 40
0.8832041367
 40
1.0
 40
1.0
 40
1.0
 40
1.0
 10
40.0883601157
 20
92.9200253026
 30
0.0
 10
40.2075719358
 20
92.9703910147
 30
0.0
 10
40.459672687
 20
93.0587485291
 30
0.0
 10
40.8582522302
 20
93.1526478092
 30
0.0
 10
41.2795934344
 20
93.2100457035
 30
0.0
 10
41.7124733147
 20
93.2293400547
 30
0.0
 10
42.1453531839
 20
93.2100456693
 30
0.0
 10
42.566694358
 20
93.152647748
 30
0.0
 10
42.9652738468
 20
93.0587484451
 30
0.0
 10
43.2173745569
 20
92.9703909281
 30
0.0
 10
43.3365863502
 20
92.9200252163
 30
0.0
  0
SPLINE
  5
303
100
AcDbEntity
  8
0
100
AcDbSpline
 62
7
  6
BYLAYER
 70
0
 71
3
 72
27
 73
23
 74
0
 42
0.0000001
 43
0.0000001
 44
0.0000000001
 40
0.0
 40
0.0
 40
0.0
 40
0.0
 40
0.0216290063
 40
0.0437654599
 40
0.0909888787
 40
0.1168263671
 40
0.1443515314
 40
0.2046167564
 40
0.2716366541
 40
0.3443419572
 40
0.4211137033
 40
0.4999983599
 40
0.5788827273
 40
0.6556537683
 40
0.7283585455
 40
0.7953787429
 40
0.8556451565
 40
0.8831710625
 40
0.9090091017
 40
0.9562338992
 40
0.9783708453
 40
1.0
 40
1.0
 40
1.0
 40
1.0
 10
39.7124731269
 20
92.0311779127
 30
0.0
 10
39.7124731269
 20
91.9954665627
 30
0.0
 10
39.7191189824
 20
91.9230415445
 30
0.0
 10
39.7590839172
 20
91.7775527974
 30
0.0
 10
39.8391437223
 20
91.6389689755
 30
0.0
 10
39.9487413377
 20
91.5139227707
 30
0.0
 10
40.0883289703
 20
91.3879407386
 30
0.0
 10
40.3041760495
 20
91.2480449033
 30
0.0
 10
40.6075627926
 20
91.114968848
 30
0.0
 10
40.9521071059
 20
91.0162494944
 30
0.0
 10
41.3250245552
 20
90.9555167411
 30
0.0
 10
41.7124641901
 20
90.9350116481
 30
0.0
 10
42.0999027362
 20
90.9555148891
 30
0.0
 10
42.4728180582
 20
91.0162450931
 30
0.0
 10
42.8173614431
 20
91.1149617823
 30
0.0
 10
43.1207511672
 20
91.2480351628
 30
0.0
 10
43.3366023281
 20
91.3879312293
 30
0.0
 10
43.4761955909
 20
91.5139131708
 30
0.0
 10
43.5857972768
 20
91.6389617125
 30
0.0
 10
43.6658605115
 20
91.7775483933
 30
0.0
 10
43.7058266109
 20
91.9230402835
 30
0.0
 10
43.7124731269
 20
91.9954663177
 30
0.0
 10
43.7124731269
 20
92.0311779127
 30
0.0
  0
SPLINE
  5
304
100
AcDbEntity
  8
0
100
AcDbSpline
 62
7
  6
BYLAYER
 70
0
 71
3
 72
14
 73
10
 74
0
 42
0.0000001
 43
0.0000001
 44
0.0000000001
 40
0.0
 40
0.0
 40
0.0
 40
0.0
 40
0.1056485254
 40
0.2137578927
 40
0.3263152915
 40
0.4450358007
 40
0.5712103842
 40
0.7056611294
 40
1.0
 40
1.0
 40
1.0
 40
1.0
 10
39.0624731269
 20
92.0311779128
 30
0.0
 10
39.0624731269
 20
92.0785011961
 30
0.0
 10
39.0712585934
 20
92.1744591412
 30
0.0
 10
39.1102035973
 20
92.3160570625
 30
0.0
 10
39.1745541051
 20
92.4545052125
 30
0.0
 10
39.2633098535
 20
92.5884033417
 30
0.0
 10
39.3755397901
 20
92.7165985868
 30
0.0
 10
39.5604190109
 20
92.8834089875
 30
0.0
 10
39.7228555742
 20
92.98867969
 30
0.0
 10
39.8386401569
 20
93.0517404934
 30
0.0
  0
SPLINE
  5
305
100
AcDbEntity
  8
0
100
AcDbSpline
 62
7
  6
BYLAYER
 70
0
 71
3
 72
14
 73
10
 74
0
 42
0.0000001
 43
0.0000001
 44
0.0000000001
 40
0.0
 40
0.0
 40
0.0
 40
0.0
 40
0.2943388706
 40
0.4287896158
 40
0.5549641993
 40
0.6736847085
 40
0.7862421073
 40
0.8943514746
 40
1.0
 40
1.0
 40
1.0
 40
1.0
 10
43.586306097
 20
93.0517404934
 30
0.0
 10
43.7020906797
 20
92.98867969
 30
0.0
 10
43.864527243
 20
92.8834089875
 30
0.0
 10
44.0494064638
 20
92.7165985867
 30
0.0
 10
44.1616364004
 20
92.5884033417
 30
0.0
 10
44.2503921488
 20
92.4545052125
 30
0.0
 10
44.3147426566
 20
92.3160570625
 30
0.0
 10
44.3536876605
 20
92.1744591412
 30
0.0
 10
44.3624731269
 20
92.0785011961
 30
0.0
 10
44.3624731269
 20
92.0311779127
 30
0.0
  0
SPLINE
  5
306
100
AcDbEntity
  8
0
100
AcDbSpline
 62
7
  6
BYLAYER
 70
0
 71
3
 72
15
 73
11
 74
0
 42
0.0000001
 43
0.0000001
 44
0.0000000001
 40
0.0
 40
0.0
 40
0.0
 40
0.0
 40
0.1167958856
 40
0.2404683285
 40
0.3689930725
 40
0.5000000231
 40
0.6310069702
 40
0.7595317057
 40
0.8832041367
 40
1.0
 40
1.0
 40
1.0
 40
1.0
 10
47.4883601157
 20
92.9200253026
 30
0.0
 10
47.6075719358
 20
92.9703910147
 30
0.0
 10
47.859672687
 20
93.0587485291
 30
0.0
 10
48.2582522302
 20
93.1526478092
 30
0.0
 10
48.6795934344
 20
93.2100457035
 30
0.0
 10
49.1124733147
 20
93.2293400547
 30
0.0
 10
49.5453531839
 20
93.2100456693
 30
0.0
 10
49.966694358
 20
93.152647748
 30
0.0
 10
50.3652738468
 20
93.0587484451
 30
0.0
 10
50.6173745569
 20
92.9703909281
 30
0.0
 10
50.7365863502
 20
92.9200252163
 30
0.0
  0
SPLINE
  5
307
100
AcDbEntity
  8
0
100
AcDbSpline
 62
7
  6
BYLAYER
 70
0
 71
3
 72
27
 73
23
 74
0
 42
0.0000001
 43
0.0000001
 44
0.0000000001
 40
0.0
 40
0.0
 40
0.0
 40
0.0
 40
0.0216290063
 40
0.0437654599
 40
0.0909888787
 40
0.1168263671
 40
0.1443515314
 40
0.2046167564
 40
0.2716366541
 40
0.3443419572
 40
0.4211137033
 40
0.4999983599
 40
0.5788827273
 40
0.6556537683
 40
0.7283585455
 40
0.7953787429
 40
0.8556451565
 40
0.8831710625
 40
0.9090091017
 40
0.9562338992
 40
0.9783708453
 40
1.0
 40
1.0
 40
1.0
 40
1.0
 10
47.1124731269
 20
92.0311779127
 30
0.0
 10
47.1124731269
 20
91.9954665627
 30
0.0
 10
47.1191189824
 20
91.9230415445
 30
0.0
 10
47.1590839172
 20
91.7775527974
 30
0.0
 10
47.2391437223
 20
91.6389689755
 30
0.0
 10
47.3487413377
 20
91.5139227707
 30
0.0
 10
47.4883289703
 20
91.3879407386
 30
0.0
 10
47.7041760495
 20
91.2480449033
 30
0.0
 10
48.0075627926
 20
91.114968848
 30
0.0
 10
48.3521071059
 20
91.0162494944
 30
0.0
 10
48.7250245552
 20
90.9555167411
 30
0.0
 10
49.1124641901
 20
90.9350116481
 30
0.0
 10
49.4999027362
 20
90.9555148891
 30
0.0
 10
49.8728180582
 20
91.0162450931
 30
0.0
 10
50.2173614431
 20
91.1149617823
 30
0.0
 10
50.5207511672
 20
91.2480351628
 30
0.0
 10
50.7366023281
 20
91.3879312293
 30
0.0
 10
50.8761955909
 20
91.5139131708
 30
0.0
 10
50.9857972768
 20
91.6389617125
 30
0.0
 10
51.0658605115
 20
91.7775483933
 30
0.0
 10
51.1058266109
 20
91.9230402835
 30
0.0
 10
51.1124731269
 20
91.9954663177
 30
0.0
 10
51.1124731269
 20
92.0311779127
 30
0.0
  0
SPLINE
  5
308
100
AcDbEntity
  8
0
100
AcDbSpline
 62
7
  6
BYLAYER
 70
0
 71
3
 72
14
 73
10
 74
0
 42
0.0000001
 43
0.0000001
 44
0.0000000001
 40
0.0
 40
0.0
 40
0.0
 40
0.0
 40
0.1056485254
 40
0.2137578927
 40
0.3263152915
 40
0.4450358007
 40
0.5712103842
 40
0.7056611294
 40
1.0
 40
1.0
 40
1.0
 40
1.0
 10
46.4624731269
 20
92.0311779128
 30
0.0
 10
46.4624731269
 20
92.0785011961
 30
0.0
 10
46.4712585934
 20
92.1744591412
 30
0.0
 10
46.5102035973
 20
92.3160570625
 30
0.0
 10
46.5745541051
 20
92.4545052125
 30
0.0
 10
46.6633098535
 20
92.5884033417
 30
0.0
 10
46.7755397901
 20
92.7165985868
 30
0.0
 10
46.9604190109
 20
92.8834089875
 30
0.0
 10
47.1228555742
 20
92.98867969
 30
0.0
 10
47.2386401569
 20
93.0517404934
 30
0.0
  0
SPLINE
  5
309
100
AcDbEntity
  8
0
100
AcDbSpline
 62
7
  6
BYLAYER
 70
0
 71
3
 72
14
 73
10
 74
0
 42
0.0000001
 43
0.0000001
 44
0.0000000001
 40
0.0
 40
0.0
 40
0.0
 40
0.0
 40
0.2943388706
 40
0.4287896158
 40
0.5549641993
 40
0.6736847085
 40
0.7862421073
 40
0.8943514746
 40
1.0
 40
1.0
 40
1.0
 40
1.0
 10
50.986306097
 20
93.0517404934
 30
0.0
 10
51.1020906797
 20
92.98867969
 30
0.0
 10
51.264527243
 20
92.8834089875
 30
0.0
 10
51.4494064638
 20
92.7165985867
 30
0.0
 10
51.5616364004
 20
92.5884033417
 30
0.0
 10
51.6503921488
 20
92.4545052125
 30
0.0
 10
51.7147426566
 20
92.3160570625
 30
0.0
 10
51.7536876605
 20
92.1744591412
 30
0.0
 10
51.7624731269
 20
92.0785011961
 30
0.0
 10
51.7624731269
 20
92.0311779127
 30
0.0
  0
SPLINE
  5
30A
100
AcDbEntity
  8
0
100
AcDbSpline
 62
7
  6
BYLAYER
 70
0
 71
3
 72
29
 73
25
 74
0
 42
0.0000001
 43
0.0000001
 44
0.0000000001
 40
0.0
 40
0.0
 40
0.0
 40
0.0
 40
0.0216259094
 40
0.0437552426
 40
0.0667943976
 40
0.0910971252
 40
0.1169288083
 40
0.1444461529
 40
0.2046952476
 40
0.2716981684
 40
0.3443843317
 40
0.4211358579
 40
0.4999997559
 40
0.5788633393
 40
0.6556140076
 40
0.7282992772
 40
0.7953018801
 40
0.8555514274
 40
0.8830691722
 40
0.9089012299
 40
0.9332043812
 40
0.9562441127
 40
0.9783739286
 40
1.0
 40
1.0
 40
1.0
 40
1.0
 10
59.1624731269
 20
92.0311779127
 30
0.0
 10
59.1624731269
 20
91.9838544261
 30
0.0
 10
59.1536865276
 20
91.8878968375
 30
0.0
 10
59.1147440313
 20
91.7463008283
 30
0.0
 10
59.0504013888
 20
91.6078493621
 30
0.0
 10
58.9616343382
 20
91.4739432205
 30
0.0
 10
58.8493973292
 20
91.3457627807
 30
0.0
 10
58.6644860302
 20
91.1789157706
 30
0.0
 10
58.3784616095
 20
90.9935119858
 30
0.0
 10
57.9764822329
 20
90.8171960003
 30
0.0
 10
57.5199536286
 20
90.6863886904
 30
0.0
 10
57.0258362204
 20
90.6059181469
 30
0.0
 10
56.5124755955
 20
90.5787495454
 30
0.0
 10
55.9991168332
 20
90.6059175781
 30
0.0
 10
55.5050037759
 20
90.6863865134
 30
0.0
 10
55.048479155
 20
90.8171910792
 30
0.0
 10
54.6465003184
 20
90.9935039798
 30
0.0
 10
54.3604734701
 20
91.1789062048
 30
0.0
 10
54.1755588865
 20
91.3457535277
 30
0.0
 10
54.0633183961
 20
91.4739344299
 30
0.0
 10
53.974548775
 20
91.6078425149
 30
0.0
 10
53.9102038357
 20
91.7462965588
 30
0.0
 10
53.8712606613
 20
91.887895142
 30
0.0
 10
53.8624731269
 20
91.9838540716
 30
0.0
 10
53.8624731269
 20
92.0311779128
 30
0.0
  0
SPLINE
  5
30B
100
AcDbEntity
  8
0
100
AcDbSpline
 62
7
  6
BYLAYER
 70
0
 71
3
 72
29
 73
25
 74
0
 42
0.0000001
 43
0.0000001
 44
0.0000000001
 40
0.0
 40
0.0
 40
0.0
 40
0.0
 40
0.0216259094
 40
0.0437552426
 40
0.0667943976
 40
0.0910971252
 40
0.1169288083
 40
0.1444461529
 40
0.2046952476
 40
0.2716981684
 40
0.3443843317
 40
0.4211358579
 40
0.4999997559
 40
0.5788633393
 40
0.6556140076
 40
0.7282992772
 40
0.7953018801
 40
0.8555514274
 40
0.8830691722
 40
0.9089012299
 40
0.9332043812
 40
0.9562441127
 40
0.9783739286
 40
1.0
 40
1.0
 40
1.0
 40
1.0
 10
46.4624731269
 20
90.7731720608
 30
0.0
 10
46.4624731269
 20
90.7258485742
 30
0.0
 10
46.4712597263
 20
90.6298909856
 30
0.0
 10
46.5102022226
 20
90.4882949764
 30
0.0
 10
46.5745448651
 20
90.3498435102
 30
0.0
 10
46.6633119157
 20
90.2159373686
 30
0.0
 10
46.7755489246
 20
90.0877569288
 30
0.0
 10
46.9604602236
 20
89.9209099187
 30
0.0
 10
47.2464846444
 20
89.7355061339
 30
0.0
 10
47.648464021
 20
89.5591901484
 30
0.0
 10
48.1049926252
 20
89.4283828385
 30
0.0
 10
48.5991100335
 20
89.347912295
 30
0.0
 10
49.1124706583
 20
89.3207436935
 30
0.0
 10
49.6258294206
 20
89.3479117262
 30
0.0
 10
50.119942478
 20
89.4283806615
 30
0.0
 10
50.5764670988
 20
89.5591852273
 30
0.0
 10
50.9784459354
 20
89.7354981279
 30
0.0
 10
51.2644727837
 20
89.9209003529
 30
0.0
 10
51.4493873673
 20
90.0877476757
 30
0.0
 10
51.5616278578
 20
90.215928578
 30
0.0
 10
51.6503974789
 20
90.349836663
 30
0.0
 10
51.7147424182
 20
90.4882907068
 30
0.0
 10
51.7536855926
 20
90.6298892901
 30
0.0
 10
51.7624731269
 20
90.7258482197
 30
0.0
 10
51.7624731269
 20
90.7731720608
 30
0.0
  0
SPLINE
  5
30C
100
AcDbEntity
  8
0
100
AcDbSpline
 62
7
  6
BYLAYER
 70
0
 71
3
 72
13
 73
9
 74
0
 42
0.0000001
 43
0.0000001
 44
0.0000000001
 40
0.0
 40
0.0
 40
0.0
 40
0.0
 40
0.1057173255
 40
0.2138970955
 40
0.4446743984
 40
0.570931149
 40
0.7054694509
 40
1.0
 40
1.0
 40
1.0
 40
1.0
 10
43.7124731269
 20
92.0311779127
 30
0.0
 10
43.7124731269
 20
92.0668935983
 30
0.0
 10
43.7058344709
 20
92.1393221416
 30
0.0
 10
43.6658584276
 20
92.2848084385
 30
0.0
 10
43.58580041
 20
92.4233740913
 30
0.0
 10
43.4762141542
 20
92.5484367113
 30
0.0
 10
43.3366528895
 20
92.6743981452
 30
0.0
 10
43.21407128
 20
92.7538207635
 30
0.0
 10
43.1266866893
 20
92.8014138227
 30
0.0
  0
SPLINE
  5
30D
100
AcDbEntity
  8
0
100
AcDbSpline
 62
7
  6
BYLAYER
 70
0
 71
3
 72
29
 73
25
 74
0
 42
0.0000001
 43
0.0000001
 44
0.0000000001
 40
0.0
 40
0.0
 40
0.0
 40
0.0
 40
0.0216259094
 40
0.0437552426
 40
0.0667943976
 40
0.0910971252
 40
0.1169288083
 40
0.1444461529
 40
0.2046952476
 40
0.2716981684
 40
0.3443843317
 40
0.4211358579
 40
0.4999997559
 40
0.5788633393
 40
0.6556140076
 40
0.7282992772
 40
0.7953018801
 40
0.8555514274
 40
0.8830691722
 40
0.9089012299
 40
0.9332043812
 40
0.9562441127
 40
0.9783739286
 40
1.0
 40
1.0
 40
1.0
 40
1.0
 10
53.8624731269
 20
90.7731720608
 30
0.0
 10
53.8624731269
 20
90.7258485742
 30
0.0
 10
53.8712597263
 20
90.6298909856
 30
0.0
 10
53.9102022226
 20
90.4882949764
 30
0.0
 10
53.9745448651
 20
90.3498435102
 30
0.0
 10
54.0633119157
 20
90.2159373686
 30
0.0
 10
54.1755489246
 20
90.0877569288
 30
0.0
 10
54.3604602236
 20
89.9209099187
 30
0.0
 10
54.6464846444
 20
89.7355061339
 30
0.0
 10
55.0484640209
 20
89.5591901484
 30
0.0
 10
55.5049926252
 20
89.4283828385
 30
0.0
 10
55.9991100335
 20
89.347912295
 30
0.0
 10
56.5124706583
 20
89.3207436935
 30
0.0
 10
57.0258294206
 20
89.3479117262
 30
0.0
 10
57.519942478
 20
89.4283806615
 30
0.0
 10
57.9764670988
 20
89.5591852273
 30
0.0
 10
58.3784459354
 20
89.7354981279
 30
0.0
 10
58.6644727837
 20
89.9209003529
 30
0.0
 10
58.8493873673
 20
90.0877476757
 30
0.0
 10
58.9616278578
 20
90.215928578
 30
0.0
 10
59.0503974789
 20
90.349836663
 30
0.0
 10
59.1147424182
 20
90.4882907068
 30
0.0
 10
59.1536855926
 20
90.6298892901
 30
0.0
 10
59.1624731269
 20
90.7258482197
 30
0.0
 10
59.1624731269
 20
90.7731720608
 30
0.0
  0
SPLINE
  5
30E
100
AcDbEntity
  8
0
100
AcDbSpline
 62
7
  6
BYLAYER
 70
0
 71
3
 72
13
 73
9
 74
0
 42
0.0000001
 43
0.0000001
 44
0.0000000001
 40
0.0
 40
0.0
 40
0.0
 40
0.0
 40
0.2945305491
 40
0.429068851
 40
0.5553256016
 40
0.7861029045
 40
0.8942826745
 40
1.0
 40
1.0
 40
1.0
 40
1.0
 10
40.2982595646
 20
92.8014138227
 30
0.0
 10
40.2108749739
 20
92.7538207635
 30
0.0
 10
40.0882933644
 20
92.6743981452
 30
0.0
 10
39.9487320997
 20
92.5484367113
 30
0.0
 10
39.8391458439
 20
92.4233740913
 30
0.0
 10
39.7590878263
 20
92.2848084385
 30
0.0
 10
39.719111783
 20
92.1393221416
 30
0.0
 10
39.7124731269
 20
92.0668935983
 30
0.0
 10
39.7124731269
 20
92.0311779127
 30
0.0
  0
SPLINE
  5
30F
100
AcDbEntity
  8
0
100
AcDbSpline
 62
7
  6
BYLAYER
 70
0
 71
3
 72
13
 73
9
 74
0
 42
0.0000001
 43
0.0000001
 44
0.0000000001
 40
0.0
 40
0.0
 40
0.0
 40
0.0
 40
0.2945305491
 40
0.429068851
 40
0.5553256016
 40
0.7861029045
 40
0.8942826745
 40
1.0
 40
1.0
 40
1.0
 40
1.0
 10
55.0982595646
 20
92.8014138227
 30
0.0
 10
55.0108749739
 20
92.7538207635
 30
0.0
 10
54.8882933644
 20
92.6743981452
 30
0.0
 10
54.7487320997
 20
92.5484367113
 30
0.0
 10
54.6391458439
 20
92.4233740913
 30
0.0
 10
54.5590878263
 20
92.2848084385
 30
0.0
 10
54.519111783
 20
92.1393221416
 30
0.0
 10
54.5124731269
 20
92.0668935983
 30
0.0
 10
54.5124731269
 20
92.0311779127
 30
0.0
  0
SPLINE
  5
310
100
AcDbEntity
  8
0
100
AcDbSpline
 62
7
  6
BYLAYER
 70
0
 71
3
 72
15
 73
11
 74
0
 42
0.0000001
 43
0.0000001
 44
0.0000000001
 40
0.0
 40
0.0
 40
0.0
 40
0.0
 40
0.1134473341
 40
0.2365167223
 40
0.3664696276
 40
0.5000000181
 40
0.6335304055
 40
0.7634833041
 40
0.8865526782
 40
1.0
 40
1.0
 40
1.0
 40
1.0
 10
57.9266866893
 20
92.5498126523
 30
0.0
 10
57.8295077729
 20
92.6027400835
 30
0.0
 10
57.6173007906
 20
92.6958330532
 30
0.0
 10
57.2728585934
 20
92.7945008603
 30
0.0
 10
56.8999096534
 20
92.8552486039
 30
0.0
 10
56.5124730767
 20
92.8757474871
 30
0.0
 10
56.1250365069
 20
92.8552485949
 30
0.0
 10
55.7520875921
 20
92.7945008433
 30
0.0
 10
55.4076454272
 20
92.6958330409
 30
0.0
 10
55.1954384705
 20
92.6027400778
 30
0.0
 10
55.0982595646
 20
92.5498126523
 30
0.0
  0
SPLINE
  5
311
100
AcDbEntity
  8
0
100
AcDbSpline
 62
7
  6
BYLAYER
 70
0
 71
3
 72
29
 73
25
 74
0
 42
0.0000001
 43
0.0000001
 44
0.0000000001
 40
0.0
 40
0.0
 40
0.0
 40
0.0
 40
0.0216259094
 40
0.0437552426
 40
0.0667943976
 40
0.0910971252
 40
0.1169288083
 40
0.1444461529
 40
0.2046952476
 40
0.2716981684
 40
0.3443843317
 40
0.4211358579
 40
0.4999997559
 40
0.5788633393
 40
0.6556140076
 40
0.7282992772
 40
0.7953018801
 40
0.8555514274
 40
0.8830691722
 40
0.9089012299
 40
0.9332043812
 40
0.9562441127
 40
0.9783739286
 40
1.0
 40
1.0
 40
1.0
 40
1.0
 10
44.3624731269
 20
92.0311779127
 30
0.0
 10
44.3624731269
 20
91.9838544261
 30
0.0
 10
44.3536865276
 20
91.8878968375
 30
0.0
 10
44.3147440313
 20
91.7463008283
 30
0.0
 10
44.2504013888
 20
91.6078493621
 30
0.0
 10
44.1616343382
 20
91.4739432205
 30
0.0
 10
44.0493973292
 20
91.3457627807
 30
0.0
 10
43.8644860303
 20
91.1789157706
 30
0.0
 10
43.5784616095
 20
90.9935119858
 30
0.0
 10
43.1764822329
 20
90.8171960003
 30
0.0
 10
42.7199536286
 20
90.6863886904
 30
0.0
 10
42.2258362204
 20
90.6059181469
 30
0.0
 10
41.7124755955
 20
90.5787495454
 30
0.0
 10
41.1991168332
 20
90.6059175781
 30
0.0
 10
40.7050037759
 20
90.6863865134
 30
0.0
 10
40.2484791551
 20
90.8171910792
 30
0.0
 10
39.8465003184
 20
90.9935039798
 30
0.0
 10
39.5604734701
 20
91.1789062048
 30
0.0
 10
39.3755588865
 20
91.3457535277
 30
0.0
 10
39.2633183961
 20
91.4739344299
 30
0.0
 10
39.174548775
 20
91.6078425149
 30
0.0
 10
39.1102038357
 20
91.7462965588
 30
0.0
 10
39.0712606613
 20
91.887895142
 30
0.0
 10
39.0624731269
 20
91.9838540716
 30
0.0
 10
39.0624731269
 20
92.0311779128
 30
0.0
  0
SPLINE
  5
312
100
AcDbEntity
  8
0
100
AcDbSpline
 62
7
  6
BYLAYER
 70
0
 71
3
 72
15
 73
11
 74
0
 42
0.0000001
 43
0.0000001
 44
0.0000000001
 40
0.0
 40
0.0
 40
0.0
 40
0.0
 40
0.1134473341
 40
0.2365167223
 40
0.3664696276
 40
0.5000000181
 40
0.6335304055
 40
0.7634833041
 40
0.8865526782
 40
1.0
 40
1.0
 40
1.0
 40
1.0
 10
50.5266866893
 20
92.5498126523
 30
0.0
 10
50.4295077729
 20
92.6027400835
 30
0.0
 10
50.2173007906
 20
92.6958330532
 30
0.0
 10
49.8728585934
 20
92.7945008603
 30
0.0
 10
49.4999096534
 20
92.8552486039
 30
0.0
 10
49.1124730767
 20
92.8757474871
 30
0.0
 10
48.725036507
 20
92.8552485949
 30
0.0
 10
48.3520875921
 20
92.7945008433
 30
0.0
 10
48.0076454272
 20
92.6958330409
 30
0.0
 10
47.7954384705
 20
92.6027400778
 30
0.0
 10
47.6982595646
 20
92.5498126523
 30
0.0
  0
SPLINE
  5
313
100
AcDbEntity
  8
0
100
AcDbSpline
 62
7
  6
BYLAYER
 70
0
 71
3
 72
13
 73
9
 74
0
 42
0.0000001
 43
0.0000001
 44
0.0000000001
 40
0.0
 40
0.0
 40
0.0
 40
0.0
 40
0.1057173255
 40
0.2138970955
 40
0.4446743984
 40
0.570931149
 40
0.7054694509
 40
1.0
 40
1.0
 40
1.0
 40
1.0
 10
51.1124731269
 20
92.0311779127
 30
0.0
 10
51.1124731269
 20
92.0668935983
 30
0.0
 10
51.1058344709
 20
92.1393221416
 30
0.0
 10
51.0658584276
 20
92.2848084385
 30
0.0
 10
50.98580041
 20
92.4233740913
 30
0.0
 10
50.8762141542
 20
92.5484367113
 30
0.0
 10
50.7366528895
 20
92.6743981452
 30
0.0
 10
50.61407128
 20
92.7538207635
 30
0.0
 10
50.5266866893
 20
92.8014138227
 30
0.0
  0
SPLINE
  5
314
100
AcDbEntity
  8
0
100
AcDbSpline
 62
7
  6
BYLAYER
 70
0
 71
3
 72
13
 73
9
 74
0
 42
0.0000001
 43
0.0000001
 44
0.0000000001
 40
0.0
 40
0.0
 40
0.0
 40
0.0
 40
0.2945305491
 40
0.429068851
 40
0.5553256016
 40
0.7861029045
 40
0.8942826745
 40
1.0
 40
1.0
 40
1.0
 40
1.0
 10
47.6982595646
 20
92.8014138227
 30
0.0
 10
47.6108749739
 20
92.7538207635
 30
0.0
 10
47.4882933644
 20
92.6743981452
 30
0.0
 10
47.3487320997
 20
92.5484367113
 30
0.0
 10
47.2391458439
 20
92.4233740913
 30
0.0
 10
47.1590878263
 20
92.2848084385
 30
0.0
 10
47.119111783
 20
92.1393221416
 30
0.0
 10
47.1124731269
 20
92.0668935983
 30
0.0
 10
47.1124731269
 20
92.0311779127
 30
0.0
  0
SPLINE
  5
315
100
AcDbEntity
  8
0
100
AcDbSpline
 62
7
  6
BYLAYER
 70
0
 71
3
 72
29
 73
25
 74
0
 42
0.0000001
 43
0.0000001
 44
0.0000000001
 40
0.0
 40
0.0
 40
0.0
 40
0.0
 40
0.0216259094
 40
0.0437552426
 40
0.0667943976
 40
0.0910971252
 40
0.1169288083
 40
0.1444461529
 40
0.2046952476
 40
0.2716981684
 40
0.3443843317
 40
0.4211358579
 40
0.4999997559
 40
0.5788633393
 40
0.6556140076
 40
0.7282992772
 40
0.7953018801
 40
0.8555514274
 40
0.8830691722
 40
0.9089012299
 40
0.9332043812
 40
0.9562441127
 40
0.9783739286
 40
1.0
 40
1.0
 40
1.0
 40
1.0
 10
39.0624731269
 20
90.7731720608
 30
0.0
 10
39.0624731269
 20
90.7258485742
 30
0.0
 10
39.0712597263
 20
90.6298909856
 30
0.0
 10
39.1102022226
 20
90.4882949764
 30
0.0
 10
39.1745448651
 20
90.3498435102
 30
0.0
 10
39.2633119157
 20
90.2159373686
 30
0.0
 10
39.3755489246
 20
90.0877569288
 30
0.0
 10
39.5604602236
 20
89.9209099187
 30
0.0
 10
39.8464846444
 20
89.7355061339
 30
0.0
 10
40.248464021
 20
89.5591901484
 30
0.0
 10
40.7049926252
 20
89.4283828385
 30
0.0
 10
41.1991100335
 20
89.347912295
 30
0.0
 10
41.7124706583
 20
89.3207436935
 30
0.0
 10
42.2258294206
 20
89.3479117262
 30
0.0
 10
42.719942478
 20
89.4283806615
 30
0.0
 10
43.1764670988
 20
89.5591852273
 30
0.0
 10
43.5784459354
 20
89.7354981279
 30
0.0
 10
43.8644727837
 20
89.9209003529
 30
0.0
 10
44.0493873673
 20
90.0877476757
 30
0.0
 10
44.1616278578
 20
90.215928578
 30
0.0
 10
44.2503974789
 20
90.349836663
 30
0.0
 10
44.3147424182
 20
90.4882907068
 30
0.0
 10
44.3536855926
 20
90.6298892901
 30
0.0
 10
44.3624731269
 20
90.7258482197
 30
0.0
 10
44.3624731269
 20
90.7731720608
 30
0.0
  0
SPLINE
  5
316
100
AcDbEntity
  8
0
100
AcDbSpline
 62
7
  6
BYLAYER
 70
0
 71
3
 72
29
 73
25
 74
0
 42
0.0000001
 43
0.0000001
 44
0.0000000001
 40
0.0
 40
0.0
 40
0.0
 40
0.0
 40
0.0216259094
 40
0.0437552426
 40
0.0667943976
 40
0.0910971252
 40
0.1169288083
 40
0.1444461529
 40
0.2046952476
 40
0.2716981684
 40
0.3443843317
 40
0.4211358579
 40
0.4999997559
 40
0.5788633393
 40
0.6556140076
 40
0.7282992772
 40
0.7953018801
 40
0.8555514274
 40
0.8830691722
 40
0.9089012299
 40
0.9332043812
 40
0.9562441127
 40
0.9783739286
 40
1.0
 40
1.0
 40
1.0
 40
1.0
 10
51.7624731269
 20
92.0311779127
 30
0.0
 10
51.7624731269
 20
91.9838544261
 30
0.0
 10
51.7536865276
 20
91.8878968375
 30
0.0
 10
51.7147440313
 20
91.7463008283
 30
0.0
 10
51.6504013888
 20
91.6078493621
 30
0.0
 10
51.5616343382
 20
91.4739432205
 30
0.0
 10
51.4493973292
 20
91.3457627807
 30
0.0
 10
51.2644860303
 20
91.1789157706
 30
0.0
 10
50.9784616095
 20
90.9935119858
 30
0.0
 10
50.5764822329
 20
90.8171960003
 30
0.0
 10
50.1199536286
 20
90.6863886904
 30
0.0
 10
49.6258362204
 20
90.6059181469
 30
0.0
 10
49.1124755955
 20
90.5787495454
 30
0.0
 10
48.5991168332
 20
90.6059175781
 30
0.0
 10
48.1050037759
 20
90.6863865134
 30
0.0
 10
47.6484791551
 20
90.8171910792
 30
0.0
 10
47.2465003184
 20
90.9935039798
 30
0.0
 10
46.9604734701
 20
91.1789062048
 30
0.0
 10
46.7755588865
 20
91.3457535277
 30
0.0
 10
46.6633183961
 20
91.4739344299
 30
0.0
 10
46.574548775
 20
91.6078425149
 30
0.0
 10
46.5102038357
 20
91.7462965588
 30
0.0
 10
46.4712606613
 20
91.887895142
 30
0.0
 10
46.4624731269
 20
91.9838540716
 30
0.0
 10
46.4624731269
 20
92.0311779128
 30
0.0
  0
SPLINE
  5
317
100
AcDbEntity
  8
0
100
AcDbSpline
 62
7
  6
BYLAYER
 70
0
 71
3
 72
13
 73
9
 74
0
 42
0.0000001
 43
0.0000001
 44
0.0000000001
 40
0.0
 40
0.0
 40
0.0
 40
0.0
 40
0.1057173255
 40
0.2138970955
 40
0.4446743984
 40
0.570931149
 40
0.7054694509
 40
1.0
 40
1.0
 40
1.0
 40
1.0
 10
58.5124731269
 20
92.0311779127
 30
0.0
 10
58.5124731269
 20
92.0668935983
 30
0.0
 10
58.5058344709
 20
92.1393221416
 30
0.0
 10
58.4658584276
 20
92.2848084385
 30
0.0
 10
58.38580041
 20
92.4233740913
 30
0.0
 10
58.2762141542
 20
92.5484367113
 30
0.0
 10
58.1366528895
 20
92.6743981452
 30
0.0
 10
58.01407128
 20
92.7538207635
 30
0.0
 10
57.9266866893
 20
92.8014138227
 30
0.0
  0
SPLINE
  5
318
100
AcDbEntity
  8
0
100
AcDbSpline
 62
7
  6
BYLAYER
 70
0
 71
3
 72
15
 73
11
 74
0
 42
0.0000001
 43
0.0000001
 44
0.0000000001
 40
0.0
 40
0.0
 40
0.0
 40
0.0
 40
0.1134473341
 40
0.2365167223
 40
0.3664696276
 40
0.5000000181
 40
0.6335304055
 40
0.7634833041
 40
0.8865526782
 40
1.0
 40
1.0
 40
1.0
 40
1.0
 10
43.1266866893
 20
92.5498126523
 30
0.0
 10
43.0295077729
 20
92.6027400835
 30
0.0
 10
42.8173007906
 20
92.6958330532
 30
0.0
 10
42.4728585934
 20
92.7945008603
 30
0.0
 10
42.0999096534
 20
92.8552486039
 30
0.0
 10
41.7124730767
 20
92.8757474871
 30
0.0
 10
41.325036507
 20
92.8552485949
 30
0.0
 10
40.9520875921
 20
92.7945008433
 30
0.0
 10
40.6076454272
 20
92.6958330409
 30
0.0
 10
40.3954384705
 20
92.6027400778
 30
0.0
 10
40.2982595646
 20
92.5498126523
 30
0.0
  0
SPLINE
  5
319
100
AcDbEntity
  8
0
100
AcDbSpline
 62
7
  6
BYLAYER
 70
0
 71
3
 72
15
 73
11
 74
0
 42
0.0000001
 43
0.0000001
 44
0.0000000001
 40
0.0
 40
0.0
 40
0.0
 40
0.0
 40
0.1167958856
 40
0.2404683285
 40
0.3689930725
 40
0.5000000231
 40
0.6310069702
 40
0.7595317057
 40
0.8832041367
 40
1.0
 40
1.0
 40
1.0
 40
1.0
 10
54.8883601157
 20
71.3408391408
 30
0.0
 10
55.0075719358
 20
71.3912048528
 30
0.0
 10
55.259672687
 20
71.4795623672
 30
0.0
 10
55.6582522302
 20
71.5734616474
 30
0.0
 10
56.0795934344
 20
71.6308595416
 30
0.0
 10
56.5124733147
 20
71.6501538928
 30
0.0
 10
56.9453531839
 20
71.6308595074
 30
0.0
 10
57.366694358
 20
71.5734615861
 30
0.0
 10
57.7652738468
 20
71.4795622832
 30
0.0
 10
58.0173745569
 20
71.3912047663
 30
0.0
 10
58.1365863502
 20
71.3408390544
 30
0.0
  0
SPLINE
  5
31A
100
AcDbEntity
  8
0
100
AcDbSpline
 62
7
  6
BYLAYER
 70
0
 71
3
 72
27
 73
23
 74
0
 42
0.0000001
 43
0.0000001
 44
0.0000000001
 40
0.0
 40
0.0
 40
0.0
 40
0.0
 40
0.0216290063
 40
0.0437654599
 40
0.0909888787
 40
0.1168263671
 40
0.1443515314
 40
0.2046167564
 40
0.2716366541
 40
0.3443419572
 40
0.4211137033
 40
0.4999983599
 40
0.5788827273
 40
0.6556537683
 40
0.7283585455
 40
0.7953787429
 40
0.8556451565
 40
0.8831710625
 40
0.9090091017
 40
0.9562338992
 40
0.9783708453
 40
1.0
 40
1.0
 40
1.0
 40
1.0
 10
54.5124731269
 20
70.4519917508
 30
0.0
 10
54.5124731269
 20
70.4162804008
 30
0.0
 10
54.5191189824
 20
70.3438553826
 30
0.0
 10
54.5590839172
 20
70.1983666355
 30
0.0
 10
54.6391437223
 20
70.0597828136
 30
0.0
 10
54.7487413377
 20
69.9347366088
 30
0.0
 10
54.8883289703
 20
69.8087545767
 30
0.0
 10
55.1041760495
 20
69.6688587414
 30
0.0
 10
55.4075627926
 20
69.5357826861
 30
0.0
 10
55.7521071059
 20
69.4370633325
 30
0.0
 10
56.1250245552
 20
69.3763305792
 30
0.0
 10
56.5124641901
 20
69.3558254862
 30
0.0
 10
56.8999027362
 20
69.3763287273
 30
0.0
 10
57.2728180582
 20
69.4370589312
 30
0.0
 10
57.6173614431
 20
69.5357756204
 30
0.0
 10
57.9207511672
 20
69.6688490009
 30
0.0
 10
58.1366023281
 20
69.8087450674
 30
0.0
 10
58.2761955909
 20
69.9347270089
 30
0.0
 10
58.3857972768
 20
70.0597755506
 30
0.0
 10
58.4658605115
 20
70.1983622314
 30
0.0
 10
58.5058266109
 20
70.3438541216
 30
0.0
 10
58.5124731269
 20
70.4162801558
 30
0.0
 10
58.5124731269
 20
70.4519917508
 30
0.0
  0
SPLINE
  5
31B
100
AcDbEntity
  8
0
100
AcDbSpline
 62
7
  6
BYLAYER
 70
0
 71
3
 72
14
 73
10
 74
0
 42
0.0000001
 43
0.0000001
 44
0.0000000001
 40
0.0
 40
0.0
 40
0.0
 40
0.0
 40
0.1056485254
 40
0.2137578927
 40
0.3263152915
 40
0.4450358007
 40
0.5712103842
 40
0.7056611294
 40
1.0
 40
1.0
 40
1.0
 40
1.0
 10
53.8624731269
 20
70.4519917509
 30
0.0
 10
53.8624731269
 20
70.4993150342
 30
0.0
 10
53.8712585934
 20
70.5952729793
 30
0.0
 10
53.9102035973
 20
70.7368709006
 30
0.0
 10
53.9745541051
 20
70.8753190507
 30
0.0
 10
54.0633098535
 20
71.0092171798
 30
0.0
 10
54.1755397901
 20
71.1374124249
 30
0.0
 10
54.3604190109
 20
71.3042228256
 30
0.0
 10
54.5228555742
 20
71.4094935281
 30
0.0
 10
54.6386401569
 20
71.4725543315
 30
0.0
  0
SPLINE
  5
31C
100
AcDbEntity
  8
0
100
AcDbSpline
 62
7
  6
BYLAYER
 70
0
 71
3
 72
11
 73
7
 74
0
 42
0.0000001
 43
0.0000001
 44
0.0000000001
 40
0.0
 40
0.0
 40
0.0
 40
0.0
 40
0.2862400812
 40
0.5469772351
 40
0.7833608607
 40
1.0
 40
1.0
 40
1.0
 40
1.0
 10
58.386306097
 20
71.4725543315
 30
0.0
 10
58.4772712249
 20
71.423011172
 30
0.0
 10
58.6456601739
 20
71.3176139749
 30
0.0
 10
58.861565711
 20
71.131927475
 30
0.0
 10
59.0243835391
 20
70.9293011492
 30
0.0
 10
59.0968452999
 20
70.7800779418
 30
0.0
 10
59.1212429212
 20
70.7055757904
 30
0.0
  0
SPLINE
  5
31D
100
AcDbEntity
  8
0
100
AcDbSpline
 62
7
  6
BYLAYER
 70
0
 71
3
 72
9
 73
5
 74
0
 42
0.0000001
 43
0.0000001
 44
0.0000000001
 40
0.0
 40
0.0
 40
0.0
 40
0.0
 40
0.5047503202
 40
1.0
 40
1.0
 40
1.0
 40
1.0
 10
59.1212429212
 20
70.7055757904
 30
0.0
 10
59.1347378152
 20
70.6643669107
 30
0.0
 10
59.1554047299
 20
70.5805826021
 30
0.0
 10
59.1624731269
 20
70.4945378078
 30
0.0
 10
59.1624731269
 20
70.4519917508
 30
0.0
  0
SPLINE
  5
31E
100
AcDbEntity
  8
0
100
AcDbSpline
 62
7
  6
BYLAYER
 70
0
 71
3
 72
15
 73
11
 74
0
 42
0.0000001
 43
0.0000001
 44
0.0000000001
 40
0.0
 40
0.0
 40
0.0
 40
0.0
 40
0.1167958856
 40
0.2404683285
 40
0.3689930725
 40
0.5000000231
 40
0.6310069702
 40
0.7595317057
 40
0.8832041367
 40
1.0
 40
1.0
 40
1.0
 40
1.0
 10
40.0883601157
 20
71.3408391408
 30
0.0
 10
40.2075719358
 20
71.3912048528
 30
0.0
 10
40.459672687
 20
71.4795623672
 30
0.0
 10
40.8582522302
 20
71.5734616474
 30
0.0
 10
41.2795934344
 20
71.6308595416
 30
0.0
 10
41.7124733147
 20
71.6501538928
 30
0.0
 10
42.1453531839
 20
71.6308595074
 30
0.0
 10
42.566694358
 20
71.5734615861
 30
0.0
 10
42.9652738468
 20
71.4795622832
 30
0.0
 10
43.2173745569
 20
71.3912047663
 30
0.0
 10
43.3365863502
 20
71.3408390544
 30
0.0
  0
SPLINE
  5
31F
100
AcDbEntity
  8
0
100
AcDbSpline
 62
7
  6
BYLAYER
 70
0
 71
3
 72
27
 73
23
 74
0
 42
0.0000001
 43
0.0000001
 44
0.0000000001
 40
0.0
 40
0.0
 40
0.0
 40
0.0
 40
0.0216290063
 40
0.0437654599
 40
0.0909888787
 40
0.1168263671
 40
0.1443515314
 40
0.2046167564
 40
0.2716366541
 40
0.3443419572
 40
0.4211137033
 40
0.4999983599
 40
0.5788827273
 40
0.6556537683
 40
0.7283585455
 40
0.7953787429
 40
0.8556451565
 40
0.8831710625
 40
0.9090091017
 40
0.9562338992
 40
0.9783708453
 40
1.0
 40
1.0
 40
1.0
 40
1.0
 10
39.7124731269
 20
70.4519917508
 30
0.0
 10
39.7124731269
 20
70.4162804008
 30
0.0
 10
39.7191189824
 20
70.3438553826
 30
0.0
 10
39.7590839172
 20
70.1983666355
 30
0.0
 10
39.8391437223
 20
70.0597828136
 30
0.0
 10
39.9487413377
 20
69.9347366088
 30
0.0
 10
40.0883289703
 20
69.8087545767
 30
0.0
 10
40.3041760495
 20
69.6688587414
 30
0.0
 10
40.6075627926
 20
69.5357826861
 30
0.0
 10
40.9521071059
 20
69.4370633325
 30
0.0
 10
41.3250245552
 20
69.3763305792
 30
0.0
 10
41.7124641901
 20
69.3558254862
 30
0.0
 10
42.0999027362
 20
69.3763287273
 30
0.0
 10
42.4728180582
 20
69.4370589312
 30
0.0
 10
42.8173614431
 20
69.5357756204
 30
0.0
 10
43.1207511672
 20
69.6688490009
 30
0.0
 10
43.3366023281
 20
69.8087450674
 30
0.0
 10
43.4761955909
 20
69.9347270089
 30
0.0
 10
43.5857972768
 20
70.0597755506
 30
0.0
 10
43.6658605115
 20
70.1983622314
 30
0.0
 10
43.7058266109
 20
70.3438541216
 30
0.0
 10
43.7124731269
 20
70.4162801558
 30
0.0
 10
43.7124731269
 20
70.4519917508
 30
0.0
  0
SPLINE
  5
320
100
AcDbEntity
  8
0
100
AcDbSpline
 62
7
  6
BYLAYER
 70
0
 71
3
 72
9
 73
5
 74
0
 42
0.0000001
 43
0.0000001
 44
0.0000000001
 40
0.0
 40
0.0
 40
0.0
 40
0.0
 40
0.4952496798
 40
1.0
 40
1.0
 40
1.0
 40
1.0
 10
39.0624731269
 20
70.4519917509
 30
0.0
 10
39.0624731269
 20
70.4945378079
 30
0.0
 10
39.069541524
 20
70.5805826024
 30
0.0
 10
39.0902084387
 20
70.6643669111
 30
0.0
 10
39.1037033328
 20
70.7055757908
 30
0.0
  0
SPLINE
  5
321
100
AcDbEntity
  8
0
100
AcDbSpline
 62
7
  6
BYLAYER
 70
0
 71
3
 72
11
 73
7
 74
0
 42
0.0000001
 43
0.0000001
 44
0.0000000001
 40
0.0
 40
0.0
 40
0.0
 40
0.0
 40
0.2166391393
 40
0.4530227649
 40
0.7137599188
 40
1.0
 40
1.0
 40
1.0
 40
1.0
 10
39.1037033328
 20
70.7055757908
 30
0.0
 10
39.1281009542
 20
70.7800779422
 30
0.0
 10
39.200562715
 20
70.9293011495
 30
0.0
 10
39.3633805431
 20
71.1319274752
 30
0.0
 10
39.5792860801
 20
71.317613975
 30
0.0
 10
39.747675029
 20
71.4230111721
 30
0.0
 10
39.8386401569
 20
71.4725543315
 30
0.0
  0
SPLINE
  5
322
100
AcDbEntity
  8
0
100
AcDbSpline
 62
7
  6
BYLAYER
 70
0
 71
3
 72
14
 73
10
 74
0
 42
0.0000001
 43
0.0000001
 44
0.0000000001
 40
0.0
 40
0.0
 40
0.0
 40
0.0
 40
0.2943388706
 40
0.4287896158
 40
0.5549641993
 40
0.6736847085
 40
0.7862421073
 40
0.8943514746
 40
1.0
 40
1.0
 40
1.0
 40
1.0
 10
43.586306097
 20
71.4725543315
 30
0.0
 10
43.7020906797
 20
71.4094935281
 30
0.0
 10
43.864527243
 20
71.3042228256
 30
0.0
 10
44.0494064638
 20
71.1374124248
 30
0.0
 10
44.1616364004
 20
71.0092171798
 30
0.0
 10
44.2503921488
 20
70.8753190506
 30
0.0
 10
44.3147426566
 20
70.7368709006
 30
0.0
 10
44.3536876605
 20
70.5952729793
 30
0.0
 10
44.3624731269
 20
70.4993150342
 30
0.0
 10
44.3624731269
 20
70.4519917508
 30
0.0
  0
SPLINE
  5
323
100
AcDbEntity
  8
0
100
AcDbSpline
 62
7
  6
BYLAYER
 70
0
 71
3
 72
15
 73
11
 74
0
 42
0.0000001
 43
0.0000001
 44
0.0000000001
 40
0.0
 40
0.0
 40
0.0
 40
0.0
 40
0.1167958856
 40
0.2404683285
 40
0.3689930725
 40
0.5000000231
 40
0.6310069702
 40
0.7595317057
 40
0.8832041367
 40
1.0
 40
1.0
 40
1.0
 40
1.0
 10
47.4883601157
 20
71.3408391408
 30
0.0
 10
47.6075719358
 20
71.3912048528
 30
0.0
 10
47.859672687
 20
71.4795623672
 30
0.0
 10
48.2582522302
 20
71.5734616474
 30
0.0
 10
48.6795934344
 20
71.6308595416
 30
0.0
 10
49.1124733147
 20
71.6501538928
 30
0.0
 10
49.5453531839
 20
71.6308595074
 30
0.0
 10
49.966694358
 20
71.5734615861
 30
0.0
 10
50.3652738468
 20
71.4795622832
 30
0.0
 10
50.6173745569
 20
71.3912047663
 30
0.0
 10
50.7365863502
 20
71.3408390544
 30
0.0
  0
SPLINE
  5
324
100
AcDbEntity
  8
0
100
AcDbSpline
 62
7
  6
BYLAYER
 70
0
 71
3
 72
27
 73
23
 74
0
 42
0.0000001
 43
0.0000001
 44
0.0000000001
 40
0.0
 40
0.0
 40
0.0
 40
0.0
 40
0.0216290063
 40
0.0437654599
 40
0.0909888787
 40
0.1168263671
 40
0.1443515314
 40
0.2046167564
 40
0.2716366541
 40
0.3443419572
 40
0.4211137033
 40
0.4999983599
 40
0.5788827273
 40
0.6556537683
 40
0.7283585455
 40
0.7953787429
 40
0.8556451565
 40
0.8831710625
 40
0.9090091017
 40
0.9562338992
 40
0.9783708453
 40
1.0
 40
1.0
 40
1.0
 40
1.0
 10
47.1124731269
 20
70.4519917508
 30
0.0
 10
47.1124731269
 20
70.4162804008
 30
0.0
 10
47.1191189824
 20
70.3438553826
 30
0.0
 10
47.1590839172
 20
70.1983666355
 30
0.0
 10
47.2391437223
 20
70.0597828136
 30
0.0
 10
47.3487413377
 20
69.9347366088
 30
0.0
 10
47.4883289703
 20
69.8087545767
 30
0.0
 10
47.7041760495
 20
69.6688587414
 30
0.0
 10
48.0075627926
 20
69.5357826861
 30
0.0
 10
48.3521071059
 20
69.4370633325
 30
0.0
 10
48.7250245552
 20
69.3763305792
 30
0.0
 10
49.1124641901
 20
69.3558254862
 30
0.0
 10
49.4999027362
 20
69.3763287273
 30
0.0
 10
49.8728180582
 20
69.4370589312
 30
0.0
 10
50.2173614431
 20
69.5357756204
 30
0.0
 10
50.5207511672
 20
69.6688490009
 30
0.0
 10
50.7366023281
 20
69.8087450674
 30
0.0
 10
50.8761955909
 20
69.9347270089
 30
0.0
 10
50.9857972768
 20
70.0597755506
 30
0.0
 10
51.0658605115
 20
70.1983622314
 30
0.0
 10
51.1058266109
 20
70.3438541216
 30
0.0
 10
51.1124731269
 20
70.4162801558
 30
0.0
 10
51.1124731269
 20
70.4519917508
 30
0.0
  0
SPLINE
  5
325
100
AcDbEntity
  8
0
100
AcDbSpline
 62
7
  6
BYLAYER
 70
0
 71
3
 72
14
 73
10
 74
0
 42
0.0000001
 43
0.0000001
 44
0.0000000001
 40
0.0
 40
0.0
 40
0.0
 40
0.0
 40
0.1056485254
 40
0.2137578927
 40
0.3263152915
 40
0.4450358007
 40
0.5712103842
 40
0.7056611294
 40
1.0
 40
1.0
 40
1.0
 40
1.0
 10
46.4624731269
 20
70.4519917509
 30
0.0
 10
46.4624731269
 20
70.4993150342
 30
0.0
 10
46.4712585934
 20
70.5952729793
 30
0.0
 10
46.5102035973
 20
70.7368709006
 30
0.0
 10
46.5745541051
 20
70.8753190507
 30
0.0
 10
46.6633098535
 20
71.0092171798
 30
0.0
 10
46.7755397901
 20
71.1374124249
 30
0.0
 10
46.9604190109
 20
71.3042228256
 30
0.0
 10
47.1228555742
 20
71.4094935281
 30
0.0
 10
47.2386401569
 20
71.4725543315
 30
0.0
  0
SPLINE
  5
326
100
AcDbEntity
  8
0
100
AcDbSpline
 62
7
  6
BYLAYER
 70
0
 71
3
 72
14
 73
10
 74
0
 42
0.0000001
 43
0.0000001
 44
0.0000000001
 40
0.0
 40
0.0
 40
0.0
 40
0.0
 40
0.2943388706
 40
0.4287896158
 40
0.5549641993
 40
0.6736847085
 40
0.7862421073
 40
0.8943514746
 40
1.0
 40
1.0
 40
1.0
 40
1.0
 10
50.986306097
 20
71.4725543315
 30
0.0
 10
51.1020906797
 20
71.4094935281
 30
0.0
 10
51.264527243
 20
71.3042228256
 30
0.0
 10
51.4494064638
 20
71.1374124248
 30
0.0
 10
51.5616364004
 20
71.0092171798
 30
0.0
 10
51.6503921488
 20
70.8753190506
 30
0.0
 10
51.7147426566
 20
70.7368709006
 30
0.0
 10
51.7536876605
 20
70.5952729793
 30
0.0
 10
51.7624731269
 20
70.4993150342
 30
0.0
 10
51.7624731269
 20
70.4519917508
 30
0.0
  0
SPLINE
  5
327
100
AcDbEntity
  8
0
100
AcDbSpline
 62
7
  6
BYLAYER
 70
0
 71
3
 72
29
 73
25
 74
0
 42
0.0000001
 43
0.0000001
 44
0.0000000001
 40
0.0
 40
0.0
 40
0.0
 40
0.0
 40
0.0216259094
 40
0.0437552426
 40
0.0667943976
 40
0.0910971252
 40
0.1169288083
 40
0.1444461529
 40
0.2046952476
 40
0.2716981684
 40
0.3443843317
 40
0.4211358579
 40
0.4999997559
 40
0.5788633393
 40
0.6556140076
 40
0.7282992772
 40
0.7953018801
 40
0.8555514274
 40
0.8830691722
 40
0.9089012299
 40
0.9332043812
 40
0.9562441127
 40
0.9783739286
 40
1.0
 40
1.0
 40
1.0
 40
1.0
 10
59.1624731269
 20
70.4519917508
 30
0.0
 10
59.1624731269
 20
70.4046682643
 30
0.0
 10
59.1536865276
 20
70.3087106757
 30
0.0
 10
59.1147440313
 20
70.1671146664
 30
0.0
 10
59.0504013888
 20
70.0286632002
 30
0.0
 10
58.9616343382
 20
69.8947570586
 30
0.0
 10
58.8493973292
 20
69.7665766188
 30
0.0
 10
58.6644860302
 20
69.5997296088
 30
0.0
 10
58.3784616095
 20
69.4143258239
 30
0.0
 10
57.9764822329
 20
69.2380098384
 30
0.0
 10
57.5199536286
 20
69.1072025286
 30
0.0
 10
57.0258362204
 20
69.026731985
 30
0.0
 10
56.5124755955
 20
68.9995633835
 30
0.0
 10
55.9991168332
 20
69.0267314162
 30
0.0
 10
55.5050037759
 20
69.1072003515
 30
0.0
 10
55.048479155
 20
69.2380049173
 30
0.0
 10
54.6465003184
 20
69.4143178179
 30
0.0
 10
54.3604734701
 20
69.5997200429
 30
0.0
 10
54.1755588865
 20
69.7665673658
 30
0.0
 10
54.0633183961
 20
69.894748268
 30
0.0
 10
53.974548775
 20
70.028656353
 30
0.0
 10
53.9102038357
 20
70.1671103969
 30
0.0
 10
53.8712606613
 20
70.3087089801
 30
0.0
 10
53.8624731269
 20
70.4046679098
 30
0.0
 10
53.8624731269
 20
70.4519917509
 30
0.0
  0
SPLINE
  5
328
100
AcDbEntity
  8
0
100
AcDbSpline
 62
7
  6
BYLAYER
 70
0
 71
3
 72
29
 73
25
 74
0
 42
0.0000001
 43
0.0000001
 44
0.0000000001
 40
0.0
 40
0.0
 40
0.0
 40
0.0
 40
0.0216259094
 40
0.0437552426
 40
0.0667943976
 40
0.0910971252
 40
0.1169288083
 40
0.1444461529
 40
0.2046952476
 40
0.2716981684
 40
0.3443843317
 40
0.4211358579
 40
0.4999997559
 40
0.5788633393
 40
0.6556140076
 40
0.7282992772
 40
0.7953018801
 40
0.8555514274
 40
0.8830691722
 40
0.9089012299
 40
0.9332043812
 40
0.9562441127
 40
0.9783739286
 40
1.0
 40
1.0
 40
1.0
 40
1.0
 10
46.4624731269
 20
69.1939858989
 30
0.0
 10
46.4624731269
 20
69.1466624123
 30
0.0
 10
46.4712597263
 20
69.0507048237
 30
0.0
 10
46.5102022226
 20
68.9091088145
 30
0.0
 10
46.5745448651
 20
68.7706573483
 30
0.0
 10
46.6633119157
 20
68.6367512067
 30
0.0
 10
46.7755489246
 20
68.5085707669
 30
0.0
 10
46.9604602236
 20
68.3417237568
 30
0.0
 10
47.2464846444
 20
68.156319972
 30
0.0
 10
47.648464021
 20
67.9800039865
 30
0.0
 10
48.1049926252
 20
67.8491966766
 30
0.0
 10
48.5991100335
 20
67.7687261331
 30
0.0
 10
49.1124706583
 20
67.7415575316
 30
0.0
 10
49.6258294206
 20
67.7687255643
 30
0.0
 10
50.119942478
 20
67.8491944996
 30
0.0
 10
50.5764670988
 20
67.9799990654
 30
0.0
 10
50.9784459354
 20
68.156311966
 30
0.0
 10
51.2644727837
 20
68.341714191
 30
0.0
 10
51.4493873673
 20
68.5085615138
 30
0.0
 10
51.5616278578
 20
68.6367424161
 30
0.0
 10
51.6503974789
 20
68.7706505011
 30
0.0
 10
51.7147424182
 20
68.9091045449
 30
0.0
 10
51.7536855926
 20
69.0507031282
 30
0.0
 10
51.7624731269
 20
69.1466620578
 30
0.0
 10
51.7624731269
 20
69.1939858989
 30
0.0
  0
SPLINE
  5
329
100
AcDbEntity
  8
0
100
AcDbSpline
 62
7
  6
BYLAYER
 70
0
 71
3
 72
13
 73
9
 74
0
 42
0.0000001
 43
0.0000001
 44
0.0000000001
 40
0.0
 40
0.0
 40
0.0
 40
0.0
 40
0.1057173255
 40
0.2138970955
 40
0.4446743984
 40
0.570931149
 40
0.7054694509
 40
1.0
 40
1.0
 40
1.0
 40
1.0
 10
43.7124731269
 20
70.4519917508
 30
0.0
 10
43.7124731269
 20
70.4877074364
 30
0.0
 10
43.7058344709
 20
70.5601359797
 30
0.0
 10
43.6658584276
 20
70.7056222766
 30
0.0
 10
43.58580041
 20
70.8441879294
 30
0.0
 10
43.4762141542
 20
70.9692505494
 30
0.0
 10
43.3366528895
 20
71.0952119833
 30
0.0
 10
43.21407128
 20
71.1746346016
 30
0.0
 10
43.1266866893
 20
71.2222276608
 30
0.0
  0
SPLINE
  5
32A
100
AcDbEntity
  8
0
100
AcDbSpline
 62
7
  6
BYLAYER
 70
0
 71
3
 72
29
 73
25
 74
0
 42
0.0000001
 43
0.0000001
 44
0.0000000001
 40
0.0
 40
0.0
 40
0.0
 40
0.0
 40
0.0216259094
 40
0.0437552426
 40
0.0667943976
 40
0.0910971252
 40
0.1169288083
 40
0.1444461529
 40
0.2046952476
 40
0.2716981684
 40
0.3443843317
 40
0.4211358579
 40
0.4999997559
 40
0.5788633393
 40
0.6556140076
 40
0.7282992772
 40
0.7953018801
 40
0.8555514274
 40
0.8830691722
 40
0.9089012299
 40
0.9332043812
 40
0.9562441127
 40
0.9783739286
 40
1.0
 40
1.0
 40
1.0
 40
1.0
 10
53.8624731269
 20
69.1939858989
 30
0.0
 10
53.8624731269
 20
69.1466624123
 30
0.0
 10
53.8712597263
 20
69.0507048237
 30
0.0
 10
53.9102022226
 20
68.9091088145
 30
0.0
 10
53.9745448651
 20
68.7706573483
 30
0.0
 10
54.0633119157
 20
68.6367512067
 30
0.0
 10
54.1755489246
 20
68.5085707669
 30
0.0
 10
54.3604602236
 20
68.3417237568
 30
0.0
 10
54.6464846444
 20
68.156319972
 30
0.0
 10
55.0484640209
 20
67.9800039865
 30
0.0
 10
55.5049926252
 20
67.8491966766
 30
0.0
 10
55.9991100335
 20
67.7687261331
 30
0.0
 10
56.5124706583
 20
67.7415575316
 30
0.0
 10
57.0258294206
 20
67.7687255643
 30
0.0
 10
57.519942478
 20
67.8491944996
 30
0.0
 10
57.9764670988
 20
67.9799990654
 30
0.0
 10
58.3784459354
 20
68.156311966
 30
0.0
 10
58.6644727837
 20
68.341714191
 30
0.0
 10
58.8493873673
 20
68.5085615138
 30
0.0
 10
58.9616278578
 20
68.6367424161
 30
0.0
 10
59.0503974789
 20
68.7706505011
 30
0.0
 10
59.1147424182
 20
68.9091045449
 30
0.0
 10
59.1536855926
 20
69.0507031282
 30
0.0
 10
59.1624731269
 20
69.1466620578
 30
0.0
 10
59.1624731269
 20
69.1939858989
 30
0.0
  0
SPLINE
  5
32B
100
AcDbEntity
  8
0
100
AcDbSpline
 62
7
  6
BYLAYER
 70
0
 71
3
 72
13
 73
9
 74
0
 42
0.0000001
 43
0.0000001
 44
0.0000000001
 40
0.0
 40
0.0
 40
0.0
 40
0.0
 40
0.2945305491
 40
0.429068851
 40
0.5553256016
 40
0.7861029045
 40
0.8942826745
 40
1.0
 40
1.0
 40
1.0
 40
1.0
 10
40.2982595646
 20
71.2222276608
 30
0.0
 10
40.2108749739
 20
71.1746346016
 30
0.0
 10
40.0882933644
 20
71.0952119833
 30
0.0
 10
39.9487320997
 20
70.9692505494
 30
0.0
 10
39.8391458439
 20
70.8441879294
 30
0.0
 10
39.7590878263
 20
70.7056222766
 30
0.0
 10
39.719111783
 20
70.5601359797
 30
0.0
 10
39.7124731269
 20
70.4877074364
 30
0.0
 10
39.7124731269
 20
70.4519917508
 30
0.0
  0
SPLINE
  5
32C
100
AcDbEntity
  8
0
100
AcDbSpline
 62
7
  6
BYLAYER
 70
0
 71
3
 72
13
 73
9
 74
0
 42
0.0000001
 43
0.0000001
 44
0.0000000001
 40
0.0
 40
0.0
 40
0.0
 40
0.0
 40
0.2945305491
 40
0.429068851
 40
0.5553256016
 40
0.7861029045
 40
0.8942826745
 40
1.0
 40
1.0
 40
1.0
 40
1.0
 10
55.0982595646
 20
71.2222276608
 30
0.0
 10
55.0108749739
 20
71.1746346016
 30
0.0
 10
54.8882933644
 20
71.0952119833
 30
0.0
 10
54.7487320997
 20
70.9692505494
 30
0.0
 10
54.6391458439
 20
70.8441879294
 30
0.0
 10
54.5590878263
 20
70.7056222766
 30
0.0
 10
54.519111783
 20
70.5601359797
 30
0.0
 10
54.5124731269
 20
70.4877074364
 30
0.0
 10
54.5124731269
 20
70.4519917508
 30
0.0
  0
SPLINE
  5
32D
100
AcDbEntity
  8
0
100
AcDbSpline
 62
7
  6
BYLAYER
 70
0
 71
3
 72
15
 73
11
 74
0
 42
0.0000001
 43
0.0000001
 44
0.0000000001
 40
0.0
 40
0.0
 40
0.0
 40
0.0
 40
0.1134473341
 40
0.2365167223
 40
0.3664696276
 40
0.5000000181
 40
0.6335304055
 40
0.7634833041
 40
0.8865526782
 40
1.0
 40
1.0
 40
1.0
 40
1.0
 10
57.9266866893
 20
70.9706264904
 30
0.0
 10
57.8295077729
 20
71.0235539216
 30
0.0
 10
57.6173007906
 20
71.1166468913
 30
0.0
 10
57.2728585934
 20
71.2153146984
 30
0.0
 10
56.8999096534
 20
71.276062442
 30
0.0
 10
56.5124730767
 20
71.2965613252
 30
0.0
 10
56.1250365069
 20
71.276062433
 30
0.0
 10
55.7520875921
 20
71.2153146814
 30
0.0
 10
55.4076454272
 20
71.116646879
 30
0.0
 10
55.1954384705
 20
71.0235539159
 30
0.0
 10
55.0982595646
 20
70.9706264904
 30
0.0
  0
SPLINE
  5
32E
100
AcDbEntity
  8
0
100
AcDbSpline
 62
7
  6
BYLAYER
 70
0
 71
3
 72
29
 73
25
 74
0
 42
0.0000001
 43
0.0000001
 44
0.0000000001
 40
0.0
 40
0.0
 40
0.0
 40
0.0
 40
0.0216259094
 40
0.0437552426
 40
0.0667943976
 40
0.0910971252
 40
0.1169288083
 40
0.1444461529
 40
0.2046952476
 40
0.2716981684
 40
0.3443843317
 40
0.4211358579
 40
0.4999997559
 40
0.5788633393
 40
0.6556140076
 40
0.7282992772
 40
0.7953018801
 40
0.8555514274
 40
0.8830691722
 40
0.9089012299
 40
0.9332043812
 40
0.9562441127
 40
0.9783739286
 40
1.0
 40
1.0
 40
1.0
 40
1.0
 10
44.3624731269
 20
70.4519917508
 30
0.0
 10
44.3624731269
 20
70.4046682643
 30
0.0
 10
44.3536865276
 20
70.3087106757
 30
0.0
 10
44.3147440313
 20
70.1671146664
 30
0.0
 10
44.2504013888
 20
70.0286632002
 30
0.0
 10
44.1616343382
 20
69.8947570586
 30
0.0
 10
44.0493973292
 20
69.7665766188
 30
0.0
 10
43.8644860303
 20
69.5997296088
 30
0.0
 10
43.5784616095
 20
69.4143258239
 30
0.0
 10
43.1764822329
 20
69.2380098384
 30
0.0
 10
42.7199536286
 20
69.1072025286
 30
0.0
 10
42.2258362204
 20
69.026731985
 30
0.0
 10
41.7124755955
 20
68.9995633835
 30
0.0
 10
41.1991168332
 20
69.0267314162
 30
0.0
 10
40.7050037759
 20
69.1072003515
 30
0.0
 10
40.2484791551
 20
69.2380049173
 30
0.0
 10
39.8465003184
 20
69.4143178179
 30
0.0
 10
39.5604734701
 20
69.5997200429
 30
0.0
 10
39.3755588865
 20
69.7665673658
 30
0.0
 10
39.2633183961
 20
69.894748268
 30
0.0
 10
39.174548775
 20
70.028656353
 30
0.0
 10
39.1102038357
 20
70.1671103969
 30
0.0
 10
39.0712606613
 20
70.3087089801
 30
0.0
 10
39.0624731269
 20
70.4046679098
 30
0.0
 10
39.0624731269
 20
70.4519917509
 30
0.0
  0
SPLINE
  5
32F
100
AcDbEntity
  8
0
100
AcDbSpline
 62
7
  6
BYLAYER
 70
0
 71
3
 72
15
 73
11
 74
0
 42
0.0000001
 43
0.0000001
 44
0.0000000001
 40
0.0
 40
0.0
 40
0.0
 40
0.0
 40
0.1134473341
 40
0.2365167223
 40
0.3664696276
 40
0.5000000181
 40
0.6335304055
 40
0.7634833041
 40
0.8865526782
 40
1.0
 40
1.0
 40
1.0
 40
1.0
 10
50.5266866893
 20
70.9706264904
 30
0.0
 10
50.4295077729
 20
71.0235539216
 30
0.0
 10
50.2173007906
 20
71.1166468913
 30
0.0
 10
49.8728585934
 20
71.2153146984
 30
0.0
 10
49.4999096534
 20
71.276062442
 30
0.0
 10
49.1124730767
 20
71.2965613252
 30
0.0
 10
48.725036507
 20
71.276062433
 30
0.0
 10
48.3520875921
 20
71.2153146814
 30
0.0
 10
48.0076454272
 20
71.116646879
 30
0.0
 10
47.7954384705
 20
71.0235539159
 30
0.0
 10
47.6982595646
 20
70.9706264904
 30
0.0
  0
SPLINE
  5
330
100
AcDbEntity
  8
0
100
AcDbSpline
 62
7
  6
BYLAYER
 70
0
 71
3
 72
13
 73
9
 74
0
 42
0.0000001
 43
0.0000001
 44
0.0000000001
 40
0.0
 40
0.0
 40
0.0
 40
0.0
 40
0.1057173255
 40
0.2138970955
 40
0.4446743984
 40
0.570931149
 40
0.7054694509
 40
1.0
 40
1.0
 40
1.0
 40
1.0
 10
51.1124731269
 20
70.4519917508
 30
0.0
 10
51.1124731269
 20
70.4877074364
 30
0.0
 10
51.1058344709
 20
70.5601359797
 30
0.0
 10
51.0658584276
 20
70.7056222766
 30
0.0
 10
50.98580041
 20
70.8441879294
 30
0.0
 10
50.8762141542
 20
70.9692505494
 30
0.0
 10
50.7366528895
 20
71.0952119833
 30
0.0
 10
50.61407128
 20
71.1746346016
 30
0.0
 10
50.5266866893
 20
71.2222276608
 30
0.0
  0
SPLINE
  5
331
100
AcDbEntity
  8
0
100
AcDbSpline
 62
7
  6
BYLAYER
 70
0
 71
3
 72
13
 73
9
 74
0
 42
0.0000001
 43
0.0000001
 44
0.0000000001
 40
0.0
 40
0.0
 40
0.0
 40
0.0
 40
0.2945305491
 40
0.429068851
 40
0.5553256016
 40
0.7861029045
 40
0.8942826745
 40
1.0
 40
1.0
 40
1.0
 40
1.0
 10
47.6982595646
 20
71.2222276608
 30
0.0
 10
47.6108749739
 20
71.1746346016
 30
0.0
 10
47.4882933644
 20
71.0952119833
 30
0.0
 10
47.3487320997
 20
70.9692505494
 30
0.0
 10
47.2391458439
 20
70.8441879294
 30
0.0
 10
47.1590878263
 20
70.7056222766
 30
0.0
 10
47.119111783
 20
70.5601359797
 30
0.0
 10
47.1124731269
 20
70.4877074364
 30
0.0
 10
47.1124731269
 20
70.4519917508
 30
0.0
  0
SPLINE
  5
332
100
AcDbEntity
  8
0
100
AcDbSpline
 62
7
  6
BYLAYER
 70
0
 71
3
 72
29
 73
25
 74
0
 42
0.0000001
 43
0.0000001
 44
0.0000000001
 40
0.0
 40
0.0
 40
0.0
 40
0.0
 40
0.0216259094
 40
0.0437552426
 40
0.0667943976
 40
0.0910971252
 40
0.1169288083
 40
0.1444461529
 40
0.2046952476
 40
0.2716981684
 40
0.3443843317
 40
0.4211358579
 40
0.4999997559
 40
0.5788633393
 40
0.6556140076
 40
0.7282992772
 40
0.7953018801
 40
0.8555514274
 40
0.8830691722
 40
0.9089012299
 40
0.9332043812
 40
0.9562441127
 40
0.9783739286
 40
1.0
 40
1.0
 40
1.0
 40
1.0
 10
39.0624731269
 20
69.1939858989
 30
0.0
 10
39.0624731269
 20
69.1466624123
 30
0.0
 10
39.0712597263
 20
69.0507048237
 30
0.0
 10
39.1102022226
 20
68.9091088145
 30
0.0
 10
39.1745448651
 20
68.7706573483
 30
0.0
 10
39.2633119157
 20
68.6367512067
 30
0.0
 10
39.3755489246
 20
68.5085707669
 30
0.0
 10
39.5604602236
 20
68.3417237568
 30
0.0
 10
39.8464846444
 20
68.156319972
 30
0.0
 10
40.248464021
 20
67.9800039865
 30
0.0
 10
40.7049926252
 20
67.8491966766
 30
0.0
 10
41.1991100335
 20
67.7687261331
 30
0.0
 10
41.7124706583
 20
67.7415575316
 30
0.0
 10
42.2258294206
 20
67.7687255643
 30
0.0
 10
42.719942478
 20
67.8491944996
 30
0.0
 10
43.1764670988
 20
67.9799990654
 30
0.0
 10
43.5784459354
 20
68.156311966
 30
0.0
 10
43.8644727837
 20
68.341714191
 30
0.0
 10
44.0493873673
 20
68.5085615138
 30
0.0
 10
44.1616278578
 20
68.6367424161
 30
0.0
 10
44.2503974789
 20
68.7706505011
 30
0.0
 10
44.3147424182
 20
68.9091045449
 30
0.0
 10
44.3536855926
 20
69.0507031282
 30
0.0
 10
44.3624731269
 20
69.1466620578
 30
0.0
 10
44.3624731269
 20
69.1939858989
 30
0.0
  0
SPLINE
  5
333
100
AcDbEntity
  8
0
100
AcDbSpline
 62
7
  6
BYLAYER
 70
0
 71
3
 72
29
 73
25
 74
0
 42
0.0000001
 43
0.0000001
 44
0.0000000001
 40
0.0
 40
0.0
 40
0.0
 40
0.0
 40
0.0216259094
 40
0.0437552426
 40
0.0667943976
 40
0.0910971252
 40
0.1169288083
 40
0.1444461529
 40
0.2046952476
 40
0.2716981684
 40
0.3443843317
 40
0.4211358579
 40
0.4999997559
 40
0.5788633393
 40
0.6556140076
 40
0.7282992772
 40
0.7953018801
 40
0.8555514274
 40
0.8830691722
 40
0.9089012299
 40
0.9332043812
 40
0.9562441127
 40
0.9783739286
 40
1.0
 40
1.0
 40
1.0
 40
1.0
 10
51.7624731269
 20
70.4519917508
 30
0.0
 10
51.7624731269
 20
70.4046682643
 30
0.0
 10
51.7536865276
 20
70.3087106757
 30
0.0
 10
51.7147440313
 20
70.1671146664
 30
0.0
 10
51.6504013888
 20
70.0286632002
 30
0.0
 10
51.5616343382
 20
69.8947570586
 30
0.0
 10
51.4493973292
 20
69.7665766188
 30
0.0
 10
51.2644860303
 20
69.5997296088
 30
0.0
 10
50.9784616095
 20
69.4143258239
 30
0.0
 10
50.5764822329
 20
69.2380098384
 30
0.0
 10
50.1199536286
 20
69.1072025286
 30
0.0
 10
49.6258362204
 20
69.026731985
 30
0.0
 10
49.1124755955
 20
68.9995633835
 30
0.0
 10
48.5991168332
 20
69.0267314162
 30
0.0
 10
48.1050037759
 20
69.1072003515
 30
0.0
 10
47.6484791551
 20
69.2380049173
 30
0.0
 10
47.2465003184
 20
69.4143178179
 30
0.0
 10
46.9604734701
 20
69.5997200429
 30
0.0
 10
46.7755588865
 20
69.7665673658
 30
0.0
 10
46.6633183961
 20
69.894748268
 30
0.0
 10
46.574548775
 20
70.028656353
 30
0.0
 10
46.5102038357
 20
70.1671103969
 30
0.0
 10
46.4712606613
 20
70.3087089801
 30
0.0
 10
46.4624731269
 20
70.4046679098
 30
0.0
 10
46.4624731269
 20
70.4519917509
 30
0.0
  0
SPLINE
  5
334
100
AcDbEntity
  8
0
100
AcDbSpline
 62
7
  6
BYLAYER
 70
0
 71
3
 72
13
 73
9
 74
0
 42
0.0000001
 43
0.0000001
 44
0.0000000001
 40
0.0
 40
0.0
 40
0.0
 40
0.0
 40
0.1057173255
 40
0.2138970955
 40
0.4446743984
 40
0.570931149
 40
0.7054694509
 40
1.0
 40
1.0
 40
1.0
 40
1.0
 10
58.5124731269
 20
70.4519917508
 30
0.0
 10
58.5124731269
 20
70.4877074364
 30
0.0
 10
58.5058344709
 20
70.5601359797
 30
0.0
 10
58.4658584276
 20
70.7056222766
 30
0.0
 10
58.38580041
 20
70.8441879294
 30
0.0
 10
58.2762141542
 20
70.9692505494
 30
0.0
 10
58.1366528895
 20
71.0952119833
 30
0.0
 10
58.01407128
 20
71.1746346016
 30
0.0
 10
57.9266866893
 20
71.2222276608
 30
0.0
  0
SPLINE
  5
335
100
AcDbEntity
  8
0
100
AcDbSpline
 62
7
  6
BYLAYER
 70
0
 71
3
 72
15
 73
11
 74
0
 42
0.0000001
 43
0.0000001
 44
0.0000000001
 40
0.0
 40
0.0
 40
0.0
 40
0.0
 40
0.1134473341
 40
0.2365167223
 40
0.3664696276
 40
0.5000000181
 40
0.6335304055
 40
0.7634833041
 40
0.8865526782
 40
1.0
 40
1.0
 40
1.0
 40
1.0
 10
43.1266866893
 20
70.9706264904
 30
0.0
 10
43.0295077729
 20
71.0235539216
 30
0.0
 10
42.8173007906
 20
71.1166468913
 30
0.0
 10
42.4728585934
 20
71.2153146984
 30
0.0
 10
42.0999096534
 20
71.276062442
 30
0.0
 10
41.7124730767
 20
71.2965613252
 30
0.0
 10
41.325036507
 20
71.276062433
 30
0.0
 10
40.9520875921
 20
71.2153146814
 30
0.0
 10
40.6076454272
 20
71.116646879
 30
0.0
 10
40.3954384705
 20
71.0235539159
 30
0.0
 10
40.2982595646
 20
70.9706264904
 30
0.0
  0
ENDSEC
  0
SECTION
  2
OBJECTS
  0
DICTIONARY
  5
C
100
AcDbDictionary
280
0
281
1
  3
ACAD_GROUP
350
D
  3
ACAD_MLINESTYLE
350
17
  3
ACAD_LAYOUT
350
1A
  3
ACAD_PLOTSETTINGS
350
19
  3
ACAD_PLOTSTYLENAME
350
E
  0
DICTIONARY
  5
D
102
{ACAD_REACTORS
330
C
102
}
100
AcDbDictionary
280
0
281
1
  0
ACDBDICTIONARYWDFLT
  5
E
102
{ACAD_REACTORS
330
C
102
}
100
AcDbDictionary
281
1
  3
Normal
350
F
100
AcDbDictionaryWithDefault
340
F
  0
DICTIONARY
  5
17
102
{ACAD_REACTORS
330
C
102
}
100
AcDbDictionary
280
0
281
1
  3
Standard
350
18
  0
DICTIONARY
  5
19
102
{ACAD_REACTORS
330
C
102
}
100
AcDbDictionary
281
1
  0
DICTIONARY
  5
1A
102
{ACAD_REACTORS
330
C
102
}
100
AcDbDictionary
281
1
  3
Model
350
336
  3
Layout1
350
337
  0
ACDBPLACEHOLDER
  5
F
102
{ACAD_REACTORS
330
E
102
}
  0
MLINESTYLE
  5
18
102
{ACAD_REACTORS
330
17
102
}
100
AcDbMlineStyle
  2
STANDARD
 70
0
  3

 62
256
 51
90.0
 52
90.0
 71
2
 49
0.5
 62
256
  6
BYLAYER
 49
-0.5
 62
256
  6
BYLAYER
  0
LAYOUT
  5
336
102
{ACAD_REACTORS
330
1A
102
}
100
AcDbPlotSettings
  1

  2
none_device
  4

  6

 40
0.0
 41
0.0
 42
0.0
 43
0.0
 44
210.0
 45
297.0
 46
0.0
 47
0.0
 48
0.0
 49
0.0
140
0.0
141
0.0
142
1.0
143
1.0
 70
1024
 72
1
 73
0
 74
0
  7

 75
0
147
1.0
148
0.0
149
0.0
100
AcDbLayout
  1
Model
 70
0
 71
0
 10
0.0
 20
0.0
 11
210.0
 21
297.0
 12
0.0
 22
0.0
 32
0.0
 14
0.0
 24
0.0
 34
0.0
 15
0.0
 25
0.0
 35
0.0
146
0.0
 13
0.0
 23
0.0
 33
0.0
 16
1.0
 26
0.0
 36
0.0
 17
0.0
 27
1.0
 37
0.0
 76
0
330
210
345
0
346
0
  0
LAYOUT
  5
337
102
{ACAD_REACTORS
330
1A
102
}
100
AcDbPlotSettings
  1

  2
none_device
  4

  6

 40
0.0
 41
0.0
 42
0.0
 43
0.0
 44
210.0
 45
297.0
 46
0.0
 47
0.0
 48
0.0
 49
0.0
140
0.0
141
0.0
142
1.0
143
1.0
 70
0
 72
1
 73
0
 74
0
  7

 75
0
147
1.0
148
0.0
149
0.0
100
AcDbLayout
  1
Layout1
 70
0
 71
1
 10
0.0
 20
0.0
 11
210.0
 21
297.0
 12
0.0
 22
0.0
 32
0.0
 14
0.0
 24
0.0
 34
0.0
 15
0.0
 25
0.0
 35
0.0
146
0.0
 13
0.0
 23
0.0
 33
0.0
 16
1.0
 26
0.0
 36
0.0
 17
0.0
 27
1.0
 37
0.0
 76
0
330
211
345
0
346
0
  0
ENDSEC
  0
EOF
