999
DXF file: Y:\001_SCHNEIDER_PARIS\78_2020_429_Grey Project M580\TRAVAIL LUCAS SANTANA G2P1\CAD3D\2D views\BMXDDI6402K_2D-Views\BMXDDI6402K_2D-REAR.dxf
999
Pro/ENGINEER 2018260 by Parametric Technology Corporation
  0
SECTION
  2
HEADER
  9
$ACADVER
  1
AC1027
  9
$DWGCODEPAGE
  3
ANSI_1252
  9
$EXTMAX
 10
558.8
 20
431.8
 30
0.0
  9
$EXTMIN
 10
0.0
 20
0.0
 30
0.0
  9
$LIMMIN
 10
0.0
 20
0.0
  9
$LIMMAX
 10
558.8
 20
431.8
  9
$VIEWCTR
 10
279.4
 20
215.9
  9
$VIEWSIZE
 40
431.8
  9
$CLAYER
  8
0
  9
$LTSCALE
 40
30.734
  9
$CELTYPE
  6
BYLAYER
  9
$DIMSCALE
 40
1.0
  9
$DIMASZ
 40
3.5
  9
$DIMEXO
 40
1.0
  9
$DIMDLI
 40
21.2344
  9
$DIMEXE
 40
3.0
  9
$DIMCEN
 40
5.0292
  9
$DIMLFAC
 40
1.0
  9
$DIMBLK
  1
_FILLED
  9
$DIMALT
 70
0
  9
$DIMALTF
 40
0.0393700787
  9
$DIMTXT
 40
4.0
  9
$DIMTOL
 70
1
  9
$DIMLIM
 70
0
  9
$DIMTFAC
 40
1.0
  9
$DIMTP
 40
0.0001
  9
$DIMTM
 40
0.0001
  9
$DIMGAP
 40
0.625
  9
$DIMDSEP
 70
46
  9
$AUNITS
 70
0
  9
$PDMODE
 70
0
  9
$PDSIZE
 40
0.01
  9
$HANDSEED
  5
451
  9
$TILEMODE
 70
1
  9
$MEASUREMENT
 70
1
  9
$INSUNITS
 70
4
  0
ENDSEC
  0
SECTION
  2
CLASSES
  0
CLASS
  1
ACDBDICTIONARYWDFLT
  2
AcDbDictionaryWithDefault
  3
AutoCAD 2000
 90
0
 91
1
280
0
281
0
  0
CLASS
  1
ACDBPLACEHOLDER
  2
AcDbPlaceHolder
  3
AutoCAD 2000
 90
0
 91
1
280
0
281
0
  0
CLASS
  1
LAYOUT
  2
AcDbLayout
  3
AutoCAD 2000
 90
0
 91
0
280
0
281
0
  0
ENDSEC
  0
SECTION
  2
TABLES
  0
TABLE
  2
VPORT
  5
8
100
AcDbSymbolTable
 70
2
  0
VPORT
  5
1F4
100
AcDbSymbolTableRecord
100
AcDbViewportTableRecord
  2
*ACTIVE
 70
0
 10
0.0
 20
0.0
 11
1.0
 21
1.0
 12
279.4
 22
215.9
 13
0.0
 23
0.0
 14
1.0
 24
1.0
 15
0.0
 25
0.0
 16
0.0
 26
0.0
 36
1.0
 17
0.0
 27
0.0
 37
0.0
 40
431.8
 41
1.2941176471
 42
50.0
 43
0.0
 44
0.0
 50
0.0
 51
0.0
 71
0
 72
100
 73
1
 74
1
 75
0
 76
0
 77
0
 78
0
  0
ENDTAB
  0
TABLE
  2
LTYPE
  5
5
100
AcDbSymbolTable
 70
6
  0
LTYPE
  5
14
100
AcDbSymbolTableRecord
100
AcDbLinetypeTableRecord
  2
BYBLOCK
 70
0
  3

 72
65
 73
0
 40
0.0
  0
LTYPE
  5
15
100
AcDbSymbolTableRecord
100
AcDbLinetypeTableRecord
  2
BYLAYER
 70
0
  3

 72
65
 73
0
 40
0.0
  0
LTYPE
  5
16
100
AcDbSymbolTableRecord
100
AcDbLinetypeTableRecord
  2
CONTINUOUS
 70
64
  3
Solid line
 72
65
 73
0
 40
0.0
  0
LTYPE
  5
1F5
100
AcDbSymbolTableRecord
100
AcDbLinetypeTableRecord
  2
CENTER
 70
64
  3
____ _ ____ _ ____ _ ____ _ ____ _ ____ _ ____
 72
65
 73
4
 40
0.6
 49
0.375
 74
0
 49
-0.075
 74
0
 49
0.075
 74
0
 49
-0.075
 74
0
  0
LTYPE
  5
1F6
100
AcDbSymbolTableRecord
100
AcDbLinetypeTableRecord
  2
HIDDEN
 70
64
  3
- - - - - - - - - - - - - - - - - - - -
 72
65
 73
2
 40
0.2
 49
0.1
 74
0
 49
-0.1
 74
0
  0
LTYPE
  5
1F7
100
AcDbSymbolTableRecord
100
AcDbLinetypeTableRecord
  2
PHANTOM
 70
64
  3
_____ _ _ _____ _ _ _____ _ _ _____
 72
65
 73
6
 40
0.8
 49
0.45
 74
0
 49
-0.05
 74
0
 49
0.1
 74
0
 49
-0.05
 74
0
 49
0.1
 74
0
 49
-0.05
 74
0
  0
LTYPE
  5
1F8
100
AcDbSymbolTableRecord
100
AcDbLinetypeTableRecord
  2
DOT
 70
64
  3
. . . . . . . . . . . . . . . . . . . .
 72
65
 73
2
 40
0.2
 49
0.1
 74
0
 49
-0.1
 74
0
  0
LTYPE
  5
1F9
100
AcDbSymbolTableRecord
100
AcDbLinetypeTableRecord
  2
DASHED
 70
64
  3
- - - - - - - - - - - - - - - - - - - -
 72
65
 73
2
 40
0.2
 49
0.1
 74
0
 49
-0.1
 74
0
  0
ENDTAB
  0
TABLE
  2
LAYER
  5
2
100
AcDbSymbolTable
 70
36
  0
LAYER
  5
10
100
AcDbSymbolTableRecord
100
AcDbLayerTableRecord
  2
0
 70
0
 62
7
  6
CONTINUOUS
370
-3
390
F
  0
LAYER
  5
1FA
100
AcDbSymbolTableRecord
100
AcDbLayerTableRecord
  2
DEFAULT_1
 70
0
 62
7
  6
CENTER
370
-3
390
F
  0
LAYER
  5
1FB
100
AcDbSymbolTableRecord
100
AcDbLayerTableRecord
  2
DEFAULT_2
 70
0
 62
8
  6
HIDDEN
370
-3
390
F
  0
LAYER
  5
1FC
100
AcDbSymbolTableRecord
100
AcDbLayerTableRecord
  2
DEFAULT_3
 70
0
 62
7
  6
PHANTOM
370
-3
390
F
  0
LAYER
  5
1FD
100
AcDbSymbolTableRecord
100
AcDbLayerTableRecord
  2
01_ALL_DTM_PLN
 70
0
 62
7
  6
CONTINUOUS
370
-3
390
F
  0
LAYER
  5
1FE
100
AcDbSymbolTableRecord
100
AcDbLayerTableRecord
  2
01__ASM_ALL_DTM_PLN
 70
0
 62
7
  6
CONTINUOUS
370
-3
390
F
  0
LAYER
  5
1FF
100
AcDbSymbolTableRecord
100
AcDbLayerTableRecord
  2
01__ASM_DEF_DTM_PLN
 70
0
 62
7
  6
CONTINUOUS
370
-3
390
F
  0
LAYER
  5
200
100
AcDbSymbolTableRecord
100
AcDbLayerTableRecord
  2
01___PRT_ALL_DTM_PLN
 70
0
 62
7
  6
CONTINUOUS
370
-3
390
F
  0
LAYER
  5
201
100
AcDbSymbolTableRecord
100
AcDbLayerTableRecord
  2
01___PRT_DEF_DTM_PLN
 70
0
 62
7
  6
CONTINUOUS
370
-3
390
F
  0
LAYER
  5
202
100
AcDbSymbolTableRecord
100
AcDbLayerTableRecord
  2
02_ALL_AXES
 70
0
 62
7
  6
CONTINUOUS
370
-3
390
F
  0
LAYER
  5
203
100
AcDbSymbolTableRecord
100
AcDbLayerTableRecord
  2
02__ASM_ALL_AXES
 70
0
 62
7
  6
CONTINUOUS
370
-3
390
F
  0
LAYER
  5
204
100
AcDbSymbolTableRecord
100
AcDbLayerTableRecord
  2
02___PRT_ALL_AXES
 70
0
 62
7
  6
CONTINUOUS
370
-3
390
F
  0
LAYER
  5
205
100
AcDbSymbolTableRecord
100
AcDbLayerTableRecord
  2
03_ALL_CURVES
 70
0
 62
7
  6
CONTINUOUS
370
-3
390
F
  0
LAYER
  5
206
100
AcDbSymbolTableRecord
100
AcDbLayerTableRecord
  2
03__ASM_ALL_CURVES
 70
0
 62
7
  6
CONTINUOUS
370
-3
390
F
  0
LAYER
  5
207
100
AcDbSymbolTableRecord
100
AcDbLayerTableRecord
  2
03___PRT_ALL_CURVES
 70
0
 62
7
  6
CONTINUOUS
370
-3
390
F
  0
LAYER
  5
208
100
AcDbSymbolTableRecord
100
AcDbLayerTableRecord
  2
04_ALL_DTM_PNT
 70
0
 62
7
  6
CONTINUOUS
370
-3
390
F
  0
LAYER
  5
209
100
AcDbSymbolTableRecord
100
AcDbLayerTableRecord
  2
04__ASM_ALL_DTM_PNT
 70
0
 62
7
  6
CONTINUOUS
370
-3
390
F
  0
LAYER
  5
20A
100
AcDbSymbolTableRecord
100
AcDbLayerTableRecord
  2
04___PRT_ALL_DTM_PNT
 70
0
 62
7
  6
CONTINUOUS
370
-3
390
F
  0
LAYER
  5
20B
100
AcDbSymbolTableRecord
100
AcDbLayerTableRecord
  2
05_ALL_DTM_CSYS
 70
0
 62
7
  6
CONTINUOUS
370
-3
390
F
  0
LAYER
  5
20C
100
AcDbSymbolTableRecord
100
AcDbLayerTableRecord
  2
05__ASM_ALL_DTM_CSYS
 70
0
 62
7
  6
CONTINUOUS
370
-3
390
F
  0
LAYER
  5
20D
100
AcDbSymbolTableRecord
100
AcDbLayerTableRecord
  2
05__ASM_DEF_DTM_CSYS
 70
0
 62
7
  6
CONTINUOUS
370
-3
390
F
  0
LAYER
  5
20E
100
AcDbSymbolTableRecord
100
AcDbLayerTableRecord
  2
05___PRT_ALL_DTM_CSYS
 70
0
 62
7
  6
CONTINUOUS
370
-3
390
F
  0
LAYER
  5
20F
100
AcDbSymbolTableRecord
100
AcDbLayerTableRecord
  2
05___PRT_DEF_DTM_CSYS
 70
0
 62
7
  6
CONTINUOUS
370
-3
390
F
  0
LAYER
  5
210
100
AcDbSymbolTableRecord
100
AcDbLayerTableRecord
  2
06_ALL_SURFS
 70
0
 62
7
  6
CONTINUOUS
370
-3
390
F
  0
LAYER
  5
211
100
AcDbSymbolTableRecord
100
AcDbLayerTableRecord
  2
06__ASM_ALL_SURFS
 70
0
 62
7
  6
CONTINUOUS
370
-3
390
F
  0
LAYER
  5
212
100
AcDbSymbolTableRecord
100
AcDbLayerTableRecord
  2
06___PRT_ALL_SURFS
 70
0
 62
7
  6
CONTINUOUS
370
-3
390
F
  0
LAYER
  5
213
100
AcDbSymbolTableRecord
100
AcDbLayerTableRecord
  2
07__ASM_ALL_SKELETONS
 70
0
 62
7
  6
CONTINUOUS
370
-3
390
F
  0
ENDTAB
  0
TABLE
  2
STYLE
  5
3
100
AcDbSymbolTable
 70
1
  0
STYLE
  5
11
100
AcDbSymbolTableRecord
100
AcDbTextStyleTableRecord
  2
STANDARD
 70
0
 40
0.0
 41
0.6
 50
0.0
 71
0
 42
0.2
  3
txt
  4

  0
STYLE
  5
214
100
AcDbSymbolTableRecord
100
AcDbTextStyleTableRecord
  2
TEXTSTYLE_1
 70
0
 40
0.0
 41
0.8
 50
0.0
 71
0
 42
0.2
  3
gdt
  4

  0
ENDTAB
  0
TABLE
  2
VIEW
  5
6
100
AcDbSymbolTable
 70
0
  0
ENDTAB
  0
TABLE
  2
UCS
  5
7
100
AcDbSymbolTable
 70
0
  0
ENDTAB
  0
TABLE
  2
APPID
  5
9
100
AcDbSymbolTable
 70
1
  0
APPID
  5
215
100
AcDbSymbolTableRecord
100
AcDbRegAppTableRecord
  2
ACAD
 70
0
  0
ENDTAB
  0
TABLE
  2
BLOCK_RECORD
  5
1
100
AcDbSymbolTable
 70
0
  0
BLOCK_RECORD
  5
216
100
AcDbSymbolTableRecord
100
AcDbBlockTableRecord
  2
*Model_Space
  0
BLOCK_RECORD
  5
217
100
AcDbSymbolTableRecord
100
AcDbBlockTableRecord
  2
*Paper_Space
  0
BLOCK_RECORD
  5
218
100
AcDbSymbolTableRecord
100
AcDbBlockTableRecord
  2
_FILLED
  0
ENDTAB
  0
TABLE
  2
DIMSTYLE
  5
A
100
AcDbSymbolTable
 70
1
100
AcDbDimStyleTable
 71
0
  0
DIMSTYLE
105
219
100
AcDbSymbolTableRecord
100
AcDbDimStyleTableRecord
  2
STANDARD
 70
0
  3

  4

 40
1.0
 41
3.5
 42
1.0
 43
0.38
 44
3.0
 45
0.0
 46
0.0
 47
0.0001
 48
0.0001
140
4.0
141
0.09
142
0.0
143
25.4
144
1.0
145
0.0
146
1.0
147
0.625
 71
1.0
 72
0.0
 73
0
 74
0
 75
0
 76
0
 77
1
 78
8
 79
2
170
0
171
3
172
0
173
0
174
0
175
0
176
0
177
0
178
0
270
2
179
4
271
4
272
4
273
2
274
2
275
0
280
0
281
0
282
0
283
1
284
8
285
0
286
0
287
3
288
0
340
11
278
46
341
218
342
218
343
218
344
218
  0
ENDTAB
  0
ENDSEC
  0
SECTION
  2
BLOCKS
  0
BLOCK
  5
20
100
AcDbEntity
  8
0
100
AcDbBlockBegin
  2
*Model_Space
 70
0
 10
0.0
 20
0.0
 30
0.0
  3
*Model_Space
  1

  0
ENDBLK
  5
21
100
AcDbEntity
  8
0
100
AcDbBlockEnd
  0
BLOCK
  5
1C
100
AcDbEntity
  8
0
100
AcDbBlockBegin
  2
*Paper_Space
 70
0
 10
0.0
 20
0.0
 30
0.0
  3
*Paper_Space
  1

  0
ENDBLK
  5
1D
100
AcDbEntity
  8
0
100
AcDbBlockEnd
  0
BLOCK
  5
21A
100
AcDbEntity
  8
0
100
AcDbBlockBegin
  2
_FILLED
 70
64
 10
0.0
 20
0.0
  3
_FILLED
  1

  0
SOLID
  5
21B
100
AcDbEntity
  8
0
  6
BYBLOCK
 62
0
100
AcDbTrace
 10
0.0
 20
0.0
 11
-1.0
 21
0.2857142857
 12
-1.0
 22
-0.2857142857
 13
-1.0
 23
-0.2857142857
  0
ENDBLK
  5
21C
100
AcDbEntity
  8
0
  6
BYBLOCK
 62
0
100
AcDbBlockEnd
  0
ENDSEC
  0
SECTION
  2
ENTITIES
  0
LINE
  5
21D
100
AcDbEntity
  8
0
100
AcDbLine
 62
7
  6
CONTINUOUS
 10
301.6820486886
 20
141.6530113297
 11
333.6820486886
 21
141.6530113297
  0
LINE
  5
21E
100
AcDbEntity
  8
0
100
AcDbLine
 62
7
  6
CONTINUOUS
 10
301.6820486886
 20
141.8188218177
 11
333.6820486886
 21
141.8188218177
  0
LINE
  5
21F
100
AcDbEntity
  8
0
100
AcDbLine
 62
7
  6
CONTINUOUS
 10
307.4466657814
 20
241.8188218177
 11
313.6820486886
 21
245.4188218177
  0
LINE
  5
220
100
AcDbEntity
  8
0
100
AcDbLine
 62
7
  6
CONTINUOUS
 10
301.6820486886
 20
144.2188218177
 11
306.4258870901
 21
144.2188218177
  0
LINE
  5
221
100
AcDbEntity
  8
0
100
AcDbLine
 62
7
  6
CONTINUOUS
 10
328.9382102871
 20
144.2188218177
 11
333.6820486886
 21
144.2188218177
  0
LINE
  5
222
100
AcDbEntity
  8
0
100
AcDbLine
 62
7
  6
CONTINUOUS
 10
306.1571167075
 20
146.2188218177
 11
329.2069806698
 21
146.2188218177
  0
LINE
  5
223
100
AcDbEntity
  8
0
100
AcDbLine
 62
7
  6
CONTINUOUS
 10
306.6820486886
 20
147.6094791167
 11
306.1597080943
 21
147.557376397
  0
LINE
  5
224
100
AcDbEntity
  8
0
100
AcDbLine
 62
7
  6
CONTINUOUS
 10
333.6820486886
 20
147.2188218177
 11
328.4320486886
 21
147.2188218177
  0
LINE
  5
225
100
AcDbEntity
  8
0
100
AcDbLine
 62
7
  6
CONTINUOUS
 10
301.6820486886
 20
147.2188218177
 11
306.9320486886
 21
147.2188218177
  0
LINE
  5
226
100
AcDbEntity
  8
0
100
AcDbLine
 62
7
  6
CONTINUOUS
 10
303.670603268
 20
147.557376397
 11
306.1597080943
 21
147.557376397
  0
LINE
  5
227
100
AcDbEntity
  8
0
100
AcDbLine
 62
7
  6
CONTINUOUS
 10
329.2043892829
 20
147.557376397
 11
331.6934941092
 21
147.557376397
  0
LINE
  5
228
100
AcDbEntity
  8
0
100
AcDbLine
 62
7
  6
CONTINUOUS
 10
306.6820486886
 20
147.6094791167
 11
328.6820486886
 21
147.6094791167
  0
LINE
  5
229
100
AcDbEntity
  8
0
100
AcDbLine
 62
7
  6
CONTINUOUS
 10
312.6820486886
 20
147.6688218177
 11
303.7820486886
 21
147.6688218177
  0
LINE
  5
22A
100
AcDbEntity
  8
0
100
AcDbLine
 62
7
  6
CONTINUOUS
 10
322.6820486886
 20
147.6688218177
 11
331.5820486886
 21
147.6688218177
  0
LINE
  5
22B
100
AcDbEntity
  8
0
100
AcDbLine
 62
7
  6
CONTINUOUS
 10
306.7820486886
 20
147.9188218177
 11
312.6820486886
 21
147.9188218177
  0
LINE
  5
22C
100
AcDbEntity
  8
0
100
AcDbLine
 62
7
  6
CONTINUOUS
 10
322.6820486886
 20
147.9188218177
 11
328.6320486886
 21
147.9188218177
  0
LINE
  5
22D
100
AcDbEntity
  8
0
100
AcDbLine
 62
7
  6
CONTINUOUS
 10
309.1820486886
 20
147.9288218177
 11
312.6820486886
 21
147.9288218177
  0
LINE
  5
22E
100
AcDbEntity
  8
0
100
AcDbLine
 62
7
  6
CONTINUOUS
 10
322.6820486886
 20
147.9288218177
 11
326.1820486886
 21
147.9288218177
  0
LINE
  5
22F
100
AcDbEntity
  8
0
100
AcDbLine
 62
7
  6
CONTINUOUS
 10
303.3293758895
 20
148.4188218177
 11
332.0347214877
 21
148.4188218177
  0
LINE
  5
230
100
AcDbEntity
  8
0
100
AcDbLine
 62
7
  6
CONTINUOUS
 10
329.2043892829
 20
147.557376397
 11
328.6820486886
 21
147.6094791167
  0
LINE
  5
231
100
AcDbEntity
  8
0
100
AcDbLine
 62
7
  6
CONTINUOUS
 10
331.4257431301
 20
151.7875162592
 11
330.0751884831
 21
151.7369616122
  0
LINE
  5
232
100
AcDbEntity
  8
0
100
AcDbLine
 62
7
  6
CONTINUOUS
 10
303.9383542471
 20
152.8501273762
 11
305.2889088941
 21
152.9006820232
  0
LINE
  5
233
100
AcDbEntity
  8
0
100
AcDbLine
 62
7
  6
CONTINUOUS
 10
303.4385488252
 20
151.4688218177
 11
306.8820486886
 21
151.4688218177
  0
LINE
  5
234
100
AcDbEntity
  8
0
100
AcDbLine
 62
7
  6
CONTINUOUS
 10
328.4820486886
 20
151.4688218177
 11
331.9255481871
 21
151.4688218177
  0
LINE
  5
235
100
AcDbEntity
  8
0
100
AcDbLine
 62
7
  6
CONTINUOUS
 10
306.3820486886
 20
151.5688218177
 11
316.1820486886
 21
151.5688218177
  0
LINE
  5
236
100
AcDbEntity
  8
0
100
AcDbLine
 62
7
  6
CONTINUOUS
 10
319.1820486886
 20
151.5688218177
 11
328.9820486886
 21
151.5688218177
  0
LINE
  5
237
100
AcDbEntity
  8
0
100
AcDbLine
 62
7
  6
CONTINUOUS
 10
305.3570486886
 20
151.6688218177
 11
303.7820486886
 21
151.6688218177
  0
LINE
  5
238
100
AcDbEntity
  8
0
100
AcDbLine
 62
7
  6
CONTINUOUS
 10
330.0070486886
 20
151.6688218177
 11
331.5820486886
 21
151.6688218177
  0
LINE
  5
239
100
AcDbEntity
  8
0
100
AcDbLine
 62
7
  6
CONTINUOUS
 10
331.6413913896
 20
151.7875162592
 11
331.4257431301
 21
151.7875162592
  0
LINE
  5
23A
100
AcDbEntity
  8
0
100
AcDbLine
 62
7
  6
CONTINUOUS
 10
303.9383542471
 20
151.7875162592
 11
303.7227059876
 21
151.7875162592
  0
LINE
  5
23B
100
AcDbEntity
  8
0
100
AcDbLine
 62
7
  6
CONTINUOUS
 10
303.7227059876
 20
152.8501273762
 11
303.9383542471
 21
152.8501273762
  0
LINE
  5
23C
100
AcDbEntity
  8
0
100
AcDbLine
 62
7
  6
CONTINUOUS
 10
331.4257431301
 20
152.8501273762
 11
331.6413913896
 21
152.8501273762
  0
LINE
  5
23D
100
AcDbEntity
  8
0
100
AcDbLine
 62
7
  6
CONTINUOUS
 10
303.7820486886
 20
152.9688218177
 11
305.3570486886
 21
152.9688218177
  0
LINE
  5
23E
100
AcDbEntity
  8
0
100
AcDbLine
 62
7
  6
CONTINUOUS
 10
330.0070486886
 20
152.9688218177
 11
331.5820486886
 21
152.9688218177
  0
LINE
  5
23F
100
AcDbEntity
  8
0
100
AcDbLine
 62
7
  6
CONTINUOUS
 10
306.3820486886
 20
153.0688218177
 11
316.1820486886
 21
153.0688218177
  0
LINE
  5
240
100
AcDbEntity
  8
0
100
AcDbLine
 62
7
  6
CONTINUOUS
 10
319.1820486886
 20
153.0688218177
 11
328.9820486886
 21
153.0688218177
  0
LINE
  5
241
100
AcDbEntity
  8
0
100
AcDbLine
 62
7
  6
CONTINUOUS
 10
303.384536657
 20
153.1688218177
 11
306.8820486886
 21
153.1688218177
  0
LINE
  5
242
100
AcDbEntity
  8
0
100
AcDbLine
 62
7
  6
CONTINUOUS
 10
328.4820486886
 20
153.1688218177
 11
331.9795617183
 21
153.1688218177
  0
LINE
  5
243
100
AcDbEntity
  8
0
100
AcDbLine
 62
7
  6
CONTINUOUS
 10
303.9383542471
 20
151.7875162592
 11
305.2889088941
 21
151.7369616122
  0
LINE
  5
244
100
AcDbEntity
  8
0
100
AcDbLine
 62
7
  6
CONTINUOUS
 10
331.4257431301
 20
152.8501273762
 11
330.0751884831
 21
152.9006820232
  0
LINE
  5
245
100
AcDbEntity
  8
0
100
AcDbLine
 62
7
  6
CONTINUOUS
 10
305.3570486886
 20
233.4688218177
 11
305.2889088941
 21
233.4006820232
  0
LINE
  5
246
100
AcDbEntity
  8
0
100
AcDbLine
 62
7
  6
CONTINUOUS
 10
333.6820486886
 20
155.4327486748
 11
331.6874812468
 21
155.4327486748
  0
LINE
  5
247
100
AcDbEntity
  8
0
100
AcDbLine
 62
7
  6
CONTINUOUS
 10
303.6766161305
 20
155.4327486748
 11
301.6820486886
 21
155.4327486748
  0
LINE
  5
248
100
AcDbEntity
  8
0
100
AcDbLine
 62
7
  6
CONTINUOUS
 10
303.3950814637
 20
156.2188218177
 11
331.9690159135
 21
156.2188218177
  0
LINE
  5
249
100
AcDbEntity
  8
0
100
AcDbLine
 62
7
  6
CONTINUOUS
 10
301.6820486886
 20
157.0188218177
 11
303.7183425557
 21
157.0188218177
  0
LINE
  5
24A
100
AcDbEntity
  8
0
100
AcDbLine
 62
7
  6
CONTINUOUS
 10
331.6457548235
 20
157.0188218177
 11
333.6820486886
 21
157.0188218177
  0
LINE
  5
24B
100
AcDbEntity
  8
0
100
AcDbLine
 62
7
  6
CONTINUOUS
 10
303.8443488016
 20
157.185037506
 11
303.7820486886
 21
157.185037506
  0
LINE
  5
24C
100
AcDbEntity
  8
0
100
AcDbLine
 62
7
  6
CONTINUOUS
 10
331.5197485756
 20
157.185037506
 11
331.5820486886
 21
157.185037506
  0
LINE
  5
24D
100
AcDbEntity
  8
0
100
AcDbLine
 62
7
  6
CONTINUOUS
 10
331.4906882461
 20
157.2496212463
 11
322.6820486886
 21
157.2496212463
  0
LINE
  5
24E
100
AcDbEntity
  8
0
100
AcDbLine
 62
7
  6
CONTINUOUS
 10
312.6820486886
 20
157.2496212463
 11
303.8734091312
 21
157.2496212463
  0
LINE
  5
24F
100
AcDbEntity
  8
0
100
AcDbLine
 62
7
  6
CONTINUOUS
 10
322.6820486886
 20
157.2810403631
 11
312.6820486886
 21
157.2810403631
  0
LINE
  5
250
100
AcDbEntity
  8
0
100
AcDbLine
 62
7
  6
CONTINUOUS
 10
303.7227059876
 20
157.3037319475
 11
331.6413913896
 21
157.3037319475
  0
LINE
  5
251
100
AcDbEntity
  8
0
100
AcDbLine
 62
7
  6
CONTINUOUS
 10
305.2889088941
 20
151.7369616122
 11
305.3570486886
 21
151.6688218177
  0
LINE
  5
252
100
AcDbEntity
  8
0
100
AcDbLine
 62
7
  6
CONTINUOUS
 10
303.7820486886
 20
151.6688218177
 11
303.7227059876
 21
151.7875162592
  0
LINE
  5
253
100
AcDbEntity
  8
0
100
AcDbLine
 62
7
  6
CONTINUOUS
 10
303.7820486886
 20
157.185037506
 11
303.7227059876
 21
157.3037319475
  0
LINE
  5
254
100
AcDbEntity
  8
0
100
AcDbLine
 62
7
  6
CONTINUOUS
 10
303.5467822379
 20
228.4339116878
 11
303.6061249388
 21
228.5526061293
  0
LINE
  5
255
100
AcDbEntity
  8
0
100
AcDbLine
 62
7
  6
CONTINUOUS
 10
316.2112432552
 20
239.6355049226
 11
316.1567513516
 21
239.5289550843
  0
LINE
  5
256
100
AcDbEntity
  8
0
100
AcDbLine
 62
7
  6
CONTINUOUS
 10
331.5820486886
 20
147.6688218177
 11
331.6934941092
 21
147.557376397
  0
LINE
  5
257
100
AcDbEntity
  8
0
100
AcDbLine
 62
7
  6
CONTINUOUS
 10
319.2002515593
 20
241.4200439433
 11
319.2120486886
 21
241.4438218177
  0
LINE
  5
258
100
AcDbEntity
  8
0
100
AcDbLine
 62
7
  6
CONTINUOUS
 10
331.8173151394
 20
237.6040882684
 11
331.6820486886
 21
237.4688218177
  0
LINE
  5
259
100
AcDbEntity
  8
0
100
AcDbLine
 62
7
  6
CONTINUOUS
 10
330.0070486886
 20
232.1688218177
 11
330.0751884831
 21
232.2369616122
  0
LINE
  5
25A
100
AcDbEntity
  8
0
100
AcDbLine
 62
7
  6
CONTINUOUS
 10
330.0751884831
 20
152.9006820232
 11
330.0070486886
 21
152.9688218177
  0
LINE
  5
25B
100
AcDbEntity
  8
0
100
AcDbLine
 62
7
  6
CONTINUOUS
 10
301.6820486886
 20
141.6530113296
 11
301.6820486886
 21
241.8188218177
  0
LINE
  5
25C
100
AcDbEntity
  8
0
100
AcDbLine
 62
7
  6
CONTINUOUS
 10
303.0336919362
 20
241.8188218177
 11
303.0336919362
 21
229.4688218177
  0
LINE
  5
25D
100
AcDbEntity
  8
0
100
AcDbLine
 62
7
  6
CONTINUOUS
 10
303.5401224652
 20
225.8107480411
 11
303.5401224652
 21
190.0013680821
  0
LINE
  5
25E
100
AcDbEntity
  8
0
100
AcDbLine
 62
7
  6
CONTINUOUS
 10
303.5412493376
 20
229.4688218177
 11
303.5412494216
 21
241.8188218177
  0
LINE
  5
25F
100
AcDbEntity
  8
0
100
AcDbLine
 62
7
  6
CONTINUOUS
 10
303.5467822379
 20
228.4339116878
 11
303.5467822379
 21
229.4688218177
  0
LINE
  5
260
100
AcDbEntity
  8
0
100
AcDbLine
 62
7
  6
CONTINUOUS
 10
303.5467822379
 20
232.2875162592
 11
303.5467822379
 21
233.3501273762
  0
LINE
  5
261
100
AcDbEntity
  8
0
100
AcDbLine
 62
7
  6
CONTINUOUS
 10
303.5467822379
 20
237.6040882684
 11
303.5467822379
 21
241.8188218177
  0
LINE
  5
262
100
AcDbEntity
  8
0
100
AcDbLine
 62
7
  6
CONTINUOUS
 10
303.5820486886
 20
190.0083495763
 11
303.5820486886
 21
225.7688218177
  0
LINE
  5
263
100
AcDbEntity
  8
0
100
AcDbLine
 62
7
  6
CONTINUOUS
 10
303.6061249388
 20
228.5526061293
 11
303.6061249388
 21
228.9188218177
  0
LINE
  5
264
100
AcDbEntity
  8
0
100
AcDbLine
 62
7
  6
CONTINUOUS
 10
303.6061249388
 20
231.9688218177
 11
303.6061249388
 21
232.1688218177
  0
LINE
  5
265
100
AcDbEntity
  8
0
100
AcDbLine
 62
7
  6
CONTINUOUS
 10
303.6820486886
 20
236.7188218177
 11
303.6820486886
 21
237.4688218177
  0
LINE
  5
266
100
AcDbEntity
  8
0
100
AcDbLine
 62
7
  6
CONTINUOUS
 10
303.7227059876
 20
151.7875162592
 11
303.7227059876
 21
152.8501273762
  0
LINE
  5
267
100
AcDbEntity
  8
0
100
AcDbLine
 62
7
  6
CONTINUOUS
 10
303.7227059876
 20
157.0188218177
 11
303.7227059876
 21
157.3037319475
  0
LINE
  5
268
100
AcDbEntity
  8
0
100
AcDbLine
 62
7
  6
CONTINUOUS
 10
303.7438520875
 20
233.6206808826
 11
303.7438520875
 21
233.6688218177
  0
LINE
  5
269
100
AcDbEntity
  8
0
100
AcDbLine
 62
7
  6
CONTINUOUS
 10
303.7760177564
 20
233.6206808826
 11
303.7760177564
 21
233.6688218177
  0
LINE
  5
26A
100
AcDbEntity
  8
0
100
AcDbLine
 62
7
  6
CONTINUOUS
 10
303.7760177564
 20
236.7188218177
 11
303.7760177564
 21
237.4688218177
  0
LINE
  5
26B
100
AcDbEntity
  8
0
100
AcDbLine
 62
7
  6
CONTINUOUS
 10
303.7820486886
 20
147.6688218177
 11
303.7820486886
 21
148.4188218177
  0
LINE
  5
26C
100
AcDbEntity
  8
0
100
AcDbLine
 62
7
  6
CONTINUOUS
 10
303.7820486886
 20
151.4688218177
 11
303.7820486886
 21
151.6688218177
  0
LINE
  5
26D
100
AcDbEntity
  8
0
100
AcDbLine
 62
7
  6
CONTINUOUS
 10
303.7820486886
 20
152.9688218177
 11
303.7820486886
 21
153.1688218177
  0
LINE
  5
26E
100
AcDbEntity
  8
0
100
AcDbLine
 62
7
  6
CONTINUOUS
 10
303.7820486886
 20
156.2188218177
 11
303.7820486886
 21
157.185037506
  0
LINE
  5
26F
100
AcDbEntity
  8
0
100
AcDbLine
 62
7
  6
CONTINUOUS
 10
303.8443487975
 20
147.6688218177
 11
303.8443487982
 21
148.4188218177
  0
LINE
  5
270
100
AcDbEntity
  8
0
100
AcDbLine
 62
7
  6
CONTINUOUS
 10
303.8443488014
 20
151.4688218177
 11
303.8443488016
 21
151.6688218177
  0
LINE
  5
271
100
AcDbEntity
  8
0
100
AcDbLine
 62
7
  6
CONTINUOUS
 10
303.8443488016
 20
152.9688218177
 11
303.8443488016
 21
153.1688218177
  0
LINE
  5
272
100
AcDbEntity
  8
0
100
AcDbLine
 62
7
  6
CONTINUOUS
 10
303.8443488016
 20
156.2188218177
 11
303.8443488016
 21
157.185037506
  0
LINE
  5
273
100
AcDbEntity
  8
0
100
AcDbLine
 62
7
  6
CONTINUOUS
 10
303.8443488016
 20
228.5526061293
 11
303.8443488016
 21
228.9188218177
  0
LINE
  5
274
100
AcDbEntity
  8
0
100
AcDbLine
 62
7
  6
CONTINUOUS
 10
303.8443488016
 20
231.9688218177
 11
303.8443488016
 21
232.1688218177
  0
LINE
  5
275
100
AcDbEntity
  8
0
100
AcDbLine
 62
7
  6
CONTINUOUS
 10
303.9383542471
 20
152.8501273762
 11
303.9383542471
 21
151.7875162592
  0
LINE
  5
276
100
AcDbEntity
  8
0
100
AcDbLine
 62
7
  6
CONTINUOUS
 10
303.9383542471
 20
232.2875162592
 11
303.9383542471
 21
233.3501273762
  0
LINE
  5
277
100
AcDbEntity
  8
0
100
AcDbLine
 62
7
  6
CONTINUOUS
 10
304.0320486886
 20
231.9688218177
 11
304.0320486886
 21
232.1688218177
  0
LINE
  5
278
100
AcDbEntity
  8
0
100
AcDbLine
 62
7
  6
CONTINUOUS
 10
304.0320486886
 20
233.4688218177
 11
304.0320486886
 21
233.6688218177
  0
LINE
  5
279
100
AcDbEntity
  8
0
100
AcDbLine
 62
7
  6
CONTINUOUS
 10
304.8770486886
 20
228.4827858696
 11
304.8770486886
 21
228.9188218177
  0
LINE
  5
27A
100
AcDbEntity
  8
0
100
AcDbLine
 62
7
  6
CONTINUOUS
 10
304.8770486886
 20
231.9688218177
 11
304.8770486886
 21
232.1688218177
  0
LINE
  5
27B
100
AcDbEntity
  8
0
100
AcDbLine
 62
7
  6
CONTINUOUS
 10
304.8770486886
 20
233.4688218177
 11
304.8770486886
 21
233.6688218177
  0
LINE
  5
27C
100
AcDbEntity
  8
0
100
AcDbLine
 62
7
  6
CONTINUOUS
 10
304.8770486886
 20
236.7188218177
 11
304.8770486886
 21
237.4688218177
  0
LINE
  5
27D
100
AcDbEntity
  8
0
100
AcDbLine
 62
7
  6
CONTINUOUS
 10
305.2889088941
 20
152.9006820232
 11
305.2889088941
 21
151.7369616122
  0
LINE
  5
27E
100
AcDbEntity
  8
0
100
AcDbLine
 62
7
  6
CONTINUOUS
 10
305.2889088941
 20
232.2369616122
 11
305.2889088941
 21
233.4006820232
  0
LINE
  5
27F
100
AcDbEntity
  8
0
100
AcDbLine
 62
7
  6
CONTINUOUS
 10
305.3570486886
 20
152.9688218177
 11
305.3570486886
 21
151.6688218177
  0
LINE
  5
280
100
AcDbEntity
  8
0
100
AcDbLine
 62
7
  6
CONTINUOUS
 10
305.3570486886
 20
232.1688218177
 11
305.3570486886
 21
233.4688218177
  0
LINE
  5
281
100
AcDbEntity
  8
0
100
AcDbLine
 62
7
  6
CONTINUOUS
 10
305.5820486886
 20
190.0083495763
 11
305.5820486886
 21
225.7688218177
  0
LINE
  5
282
100
AcDbEntity
  8
0
100
AcDbLine
 62
7
  6
CONTINUOUS
 10
305.5977710224
 20
190.005731516
 11
305.5977710224
 21
225.7845441515
  0
LINE
  5
283
100
AcDbEntity
  8
0
100
AcDbLine
 62
7
  6
CONTINUOUS
 10
305.7176542737
 20
231.9688218177
 11
305.7176542737
 21
228.9188218177
  0
LINE
  5
284
100
AcDbEntity
  8
0
100
AcDbLine
 62
7
  6
CONTINUOUS
 10
305.7176542737
 20
151.4688218177
 11
305.7176542737
 21
148.4188218177
  0
LINE
  5
285
100
AcDbEntity
  8
0
100
AcDbLine
 62
7
  6
CONTINUOUS
 10
305.7176542737
 20
153.1688218177
 11
305.7176542737
 21
156.2188218177
  0
LINE
  5
286
100
AcDbEntity
  8
0
100
AcDbLine
 62
7
  6
CONTINUOUS
 10
305.7176542737
 20
233.6688218177
 11
305.7176542737
 21
236.7188218177
  0
LINE
  5
287
100
AcDbEntity
  8
0
100
AcDbLine
 62
7
  6
CONTINUOUS
 10
306.1571167075
 20
144.2188218177
 11
306.1571167075
 21
146.2188218177
  0
LINE
  5
288
100
AcDbEntity
  8
0
100
AcDbLine
 62
7
  6
CONTINUOUS
 10
306.3820486886
 20
151.4688218177
 11
306.3820486886
 21
151.5688218177
  0
LINE
  5
289
100
AcDbEntity
  8
0
100
AcDbLine
 62
7
  6
CONTINUOUS
 10
306.3820486886
 20
153.0688218177
 11
306.3820486886
 21
153.1688218177
  0
LINE
  5
28A
100
AcDbEntity
  8
0
100
AcDbLine
 62
7
  6
CONTINUOUS
 10
306.3820486886
 20
231.9688218177
 11
306.3820486886
 21
232.0688218177
  0
LINE
  5
28B
100
AcDbEntity
  8
0
100
AcDbLine
 62
7
  6
CONTINUOUS
 10
306.3820486886
 20
233.5688218177
 11
306.3820486886
 21
233.6688218177
  0
LINE
  5
28C
100
AcDbEntity
  8
0
100
AcDbLine
 62
7
  6
CONTINUOUS
 10
306.4071167075
 20
147.2188218177
 11
306.4071167075
 21
146.2188218177
  0
LINE
  5
28D
100
AcDbEntity
  8
0
100
AcDbLine
 62
7
  6
CONTINUOUS
 10
306.6321038921
 20
232.0688218177
 11
306.6321038921
 21
231.9688218177
  0
LINE
  5
28E
100
AcDbEntity
  8
0
100
AcDbLine
 62
7
  6
CONTINUOUS
 10
306.6321038921
 20
151.5688218177
 11
306.6321038921
 21
151.4688218177
  0
LINE
  5
28F
100
AcDbEntity
  8
0
100
AcDbLine
 62
7
  6
CONTINUOUS
 10
306.6321038921
 20
153.0688218177
 11
306.6321038921
 21
153.1688218177
  0
LINE
  5
290
100
AcDbEntity
  8
0
100
AcDbLine
 62
7
  6
CONTINUOUS
 10
306.6321038921
 20
233.5688218177
 11
306.6321038921
 21
233.6688218177
  0
LINE
  5
291
100
AcDbEntity
  8
0
100
AcDbLine
 62
7
  6
CONTINUOUS
 10
306.6820486886
 20
147.2188218177
 11
306.6820486886
 21
147.6094791167
  0
LINE
  5
292
100
AcDbEntity
  8
0
100
AcDbLine
 62
7
  6
CONTINUOUS
 10
306.7820486886
 20
157.2496212463
 11
306.7820486886
 21
156.2188218177
  0
LINE
  5
293
100
AcDbEntity
  8
0
100
AcDbLine
 62
7
  6
CONTINUOUS
 10
306.7820486886
 20
153.0688218177
 11
306.7820486886
 21
151.5688218177
  0
LINE
  5
294
100
AcDbEntity
  8
0
100
AcDbLine
 62
7
  6
CONTINUOUS
 10
306.7820486886
 20
148.4188218177
 11
306.7820486886
 21
147.9188218177
  0
LINE
  5
295
100
AcDbEntity
  8
0
100
AcDbLine
 62
7
  6
CONTINUOUS
 10
306.8820486886
 20
151.4688218177
 11
306.8820486886
 21
151.5688218177
  0
LINE
  5
296
100
AcDbEntity
  8
0
100
AcDbLine
 62
7
  6
CONTINUOUS
 10
306.8820486886
 20
153.0688218177
 11
306.8820486886
 21
153.1688218177
  0
LINE
  5
297
100
AcDbEntity
  8
0
100
AcDbLine
 62
7
  6
CONTINUOUS
 10
306.8820486886
 20
231.9688218177
 11
306.8820486886
 21
232.0688218177
  0
LINE
  5
298
100
AcDbEntity
  8
0
100
AcDbLine
 62
7
  6
CONTINUOUS
 10
306.8820486886
 20
233.5688218177
 11
306.8820486886
 21
233.6688218177
  0
LINE
  5
299
100
AcDbEntity
  8
0
100
AcDbLine
 62
7
  6
CONTINUOUS
 10
306.9320486886
 20
147.2188218177
 11
306.9320486886
 21
146.2188218177
  0
LINE
  5
29A
100
AcDbEntity
  8
0
100
AcDbLine
 62
7
  6
CONTINUOUS
 10
307.1663263548
 20
190.005731516
 11
307.1663263548
 21
225.7845441515
  0
LINE
  5
29B
100
AcDbEntity
  8
0
100
AcDbLine
 62
7
  6
CONTINUOUS
 10
307.1820486886
 20
236.7188218177
 11
307.1820486886
 21
233.5688218177
  0
LINE
  5
29C
100
AcDbEntity
  8
0
100
AcDbLine
 62
7
  6
CONTINUOUS
 10
307.1820486886
 20
156.2188218177
 11
307.1820486886
 21
153.0688218177
  0
LINE
  5
29D
100
AcDbEntity
  8
0
100
AcDbLine
 62
7
  6
CONTINUOUS
 10
307.1820486886
 20
148.4188218177
 11
307.1820486886
 21
151.5688218177
  0
LINE
  5
29E
100
AcDbEntity
  8
0
100
AcDbLine
 62
7
  6
CONTINUOUS
 10
307.1820486886
 20
190.0083495763
 11
307.1820486886
 21
225.7688218177
  0
LINE
  5
29F
100
AcDbEntity
  8
0
100
AcDbLine
 62
7
  6
CONTINUOUS
 10
307.1820486886
 20
228.9188218177
 11
307.1820486886
 21
232.0688218177
  0
LINE
  5
2A0
100
AcDbEntity
  8
0
100
AcDbLine
 62
7
  6
CONTINUOUS
 10
307.1870486886
 20
157.2496212463
 11
307.1870486886
 21
156.2188218177
  0
LINE
  5
2A1
100
AcDbEntity
  8
0
100
AcDbLine
 62
7
  6
CONTINUOUS
 10
307.1870486886
 20
153.0688218177
 11
307.1870486886
 21
151.5688218177
  0
LINE
  5
2A2
100
AcDbEntity
  8
0
100
AcDbLine
 62
7
  6
CONTINUOUS
 10
303.670603268
 20
147.557376397
 11
303.6766161305
 21
155.4327486748
  0
LINE
  5
2A3
100
AcDbEntity
  8
0
100
AcDbLine
 62
7
  6
CONTINUOUS
 10
306.1571167075
 20
147.2188218177
 11
306.1597080943
 21
147.557376397
  0
LINE
  5
2A4
100
AcDbEntity
  8
0
100
AcDbLine
 62
7
  6
CONTINUOUS
 10
318.9070486886
 20
242.5054869692
 11
319.6820486886
 21
245.0403977485
  0
LINE
  5
2A5
100
AcDbEntity
  8
0
100
AcDbLine
 62
7
  6
CONTINUOUS
 10
331.673974912
 20
225.8107480411
 11
331.6320486886
 21
225.7688218177
  0
LINE
  5
2A6
100
AcDbEntity
  8
0
100
AcDbLine
 62
7
  6
CONTINUOUS
 10
308.5688557976
 20
236.7188218177
 11
308.5688557976
 21
233.5688218177
  0
LINE
  5
2A7
100
AcDbEntity
  8
0
100
AcDbLine
 62
7
  6
CONTINUOUS
 10
308.5688557976
 20
232.0688218177
 11
308.5688557976
 21
228.9188218177
  0
LINE
  5
2A8
100
AcDbEntity
  8
0
100
AcDbLine
 62
7
  6
CONTINUOUS
 10
308.5688557976
 20
156.2188218177
 11
308.5688557976
 21
153.0688218177
  0
LINE
  5
2A9
100
AcDbEntity
  8
0
100
AcDbLine
 62
7
  6
CONTINUOUS
 10
308.5688557976
 20
151.5688218177
 11
308.5688557976
 21
148.4188218177
  0
LINE
  5
2AA
100
AcDbEntity
  8
0
100
AcDbLine
 62
7
  6
CONTINUOUS
 10
309.064594953
 20
227.7188218177
 11
309.064594953
 21
225.8107480411
  0
LINE
  5
2AB
100
AcDbEntity
  8
0
100
AcDbLine
 62
7
  6
CONTINUOUS
 10
309.0715764473
 20
190.0083495763
 11
309.0715764473
 21
225.7688218177
  0
LINE
  5
2AC
100
AcDbEntity
  8
0
100
AcDbLine
 62
7
  6
CONTINUOUS
 10
309.0820486886
 20
225.7688218177
 11
309.0820486886
 21
227.7188218177
  0
LINE
  5
2AD
100
AcDbEntity
  8
0
100
AcDbLine
 62
7
  6
CONTINUOUS
 10
309.1820486886
 20
147.9288218177
 11
309.1820486886
 21
148.4188218177
  0
LINE
  5
2AE
100
AcDbEntity
  8
0
100
AcDbLine
 62
7
  6
CONTINUOUS
 10
309.1820486886
 20
151.5688218177
 11
309.1820486886
 21
153.0688218177
  0
LINE
  5
2AF
100
AcDbEntity
  8
0
100
AcDbLine
 62
7
  6
CONTINUOUS
 10
309.1820486886
 20
191.0988218177
 11
309.1820486886
 21
225.7688218177
  0
LINE
  5
2B0
100
AcDbEntity
  8
0
100
AcDbLine
 62
7
  6
CONTINUOUS
 10
309.3870486886
 20
190.7188218177
 11
309.3870486886
 21
190.3688218177
  0
LINE
  5
2B1
100
AcDbEntity
  8
0
100
AcDbLine
 62
7
  6
CONTINUOUS
 10
309.6820486886
 20
195.2406547431
 11
309.6820486886
 21
222.2869888923
  0
LINE
  5
2B2
100
AcDbEntity
  8
0
100
AcDbLine
 62
7
  6
CONTINUOUS
 10
310.0620486886
 20
190.7188218177
 11
310.0620486886
 21
190.3688218177
  0
LINE
  5
2B3
100
AcDbEntity
  8
0
100
AcDbLine
 62
7
  6
CONTINUOUS
 10
310.5120486886
 20
195.7015352463
 11
310.5120486886
 21
221.826108389
  0
LINE
  5
2B4
100
AcDbEntity
  8
0
100
AcDbLine
 62
7
  6
CONTINUOUS
 10
306.4895736289
 20
146.2188218177
 11
306.4258870901
 21
144.2188218177
  0
LINE
  5
2B5
100
AcDbEntity
  8
0
100
AcDbLine
 62
7
  6
CONTINUOUS
 10
312.3620486886
 20
221.6388218177
 11
312.3620486886
 21
195.8888218177
  0
LINE
  5
2B6
100
AcDbEntity
  8
0
100
AcDbLine
 62
7
  6
CONTINUOUS
 10
312.6820486886
 20
157.2810403631
 11
312.6820486886
 21
156.2188218177
  0
LINE
  5
2B7
100
AcDbEntity
  8
0
100
AcDbLine
 62
7
  6
CONTINUOUS
 10
312.6820486886
 20
153.0688218177
 11
312.6820486886
 21
151.5688218177
  0
LINE
  5
2B8
100
AcDbEntity
  8
0
100
AcDbLine
 62
7
  6
CONTINUOUS
 10
312.6820486886
 20
148.4188218177
 11
312.6820486886
 21
147.6208240448
  0
LINE
  5
2B9
100
AcDbEntity
  8
0
100
AcDbLine
 62
7
  6
CONTINUOUS
 10
312.6820486886
 20
228.4566032722
 11
312.6820486886
 21
228.9188218177
  0
LINE
  5
2BA
100
AcDbEntity
  8
0
100
AcDbLine
 62
7
  6
CONTINUOUS
 10
312.6820486886
 20
232.0688218177
 11
312.6820486886
 21
233.5688218177
  0
LINE
  5
2BB
100
AcDbEntity
  8
0
100
AcDbLine
 62
7
  6
CONTINUOUS
 10
312.6820486886
 20
236.7188218177
 11
312.6820486886
 21
237.5927433403
  0
LINE
  5
2BC
100
AcDbEntity
  8
0
100
AcDbLine
 62
7
  6
CONTINUOUS
 10
312.7320486886
 20
191.0988218177
 11
312.7320486886
 21
190.3688218177
  0
LINE
  5
2BD
100
AcDbEntity
  8
0
100
AcDbLine
 62
7
  6
CONTINUOUS
 10
313.5301316175
 20
148.4188218177
 11
313.5301316175
 21
151.5688218177
  0
LINE
  5
2BE
100
AcDbEntity
  8
0
100
AcDbLine
 62
7
  6
CONTINUOUS
 10
313.5301316175
 20
153.0688218177
 11
313.5301316175
 21
156.2188218177
  0
LINE
  5
2BF
100
AcDbEntity
  8
0
100
AcDbLine
 62
7
  6
CONTINUOUS
 10
313.5301316175
 20
228.9188218177
 11
313.5301316175
 21
232.0688218177
  0
LINE
  5
2C0
100
AcDbEntity
  8
0
100
AcDbLine
 62
7
  6
CONTINUOUS
 10
313.5301316175
 20
233.5688218177
 11
313.5301316175
 21
236.7188218177
  0
LINE
  5
2C1
100
AcDbEntity
  8
0
100
AcDbLine
 62
7
  6
CONTINUOUS
 10
313.9620486886
 20
195.8888218177
 11
313.9620486886
 21
221.6388218177
  0
LINE
  5
2C2
100
AcDbEntity
  8
0
100
AcDbLine
 62
7
  6
CONTINUOUS
 10
331.5197485756
 20
233.4688218177
 11
331.5880796209
 21
233.6206808825
  0
LINE
  5
2C3
100
AcDbEntity
  8
0
100
AcDbLine
 62
7
  6
CONTINUOUS
 10
331.8173151394
 20
232.2875162592
 11
331.7579724384
 21
232.1688218177
  0
LINE
  5
2C4
100
AcDbEntity
  8
0
100
AcDbLine
 62
7
  6
CONTINUOUS
 10
303.5401224652
 20
190.0013680821
 11
331.673974912
 21
190.0013680821
  0
LINE
  5
2C5
100
AcDbEntity
  8
0
100
AcDbLine
 62
7
  6
CONTINUOUS
 10
307.1663263548
 20
190.005731516
 11
305.5977710224
 21
190.005731516
  0
LINE
  5
2C6
100
AcDbEntity
  8
0
100
AcDbLine
 62
7
  6
CONTINUOUS
 10
309.0715764473
 20
190.0083495763
 11
307.1820486886
 21
190.0083495763
  0
LINE
  5
2C7
100
AcDbEntity
  8
0
100
AcDbLine
 62
7
  6
CONTINUOUS
 10
305.5820486886
 20
190.0083495763
 11
303.5820486886
 21
190.0083495763
  0
LINE
  5
2C8
100
AcDbEntity
  8
0
100
AcDbLine
 62
7
  6
CONTINUOUS
 10
329.6320486886
 20
190.0083495763
 11
331.6320486886
 21
190.0083495763
  0
LINE
  5
2C9
100
AcDbEntity
  8
0
100
AcDbLine
 62
7
  6
CONTINUOUS
 10
326.1320486886
 20
190.0188218177
 11
309.0820486886
 21
190.0188218177
  0
LINE
  5
2CA
100
AcDbEntity
  8
0
100
AcDbLine
 62
7
  6
CONTINUOUS
 10
312.7320486886
 20
190.3688218177
 11
309.3870486886
 21
190.3688218177
  0
LINE
  5
2CB
100
AcDbEntity
  8
0
100
AcDbLine
 62
7
  6
CONTINUOUS
 10
322.6320486886
 20
190.3688218177
 11
325.9770486886
 21
190.3688218177
  0
LINE
  5
2CC
100
AcDbEntity
  8
0
100
AcDbLine
 62
7
  6
CONTINUOUS
 10
305.5977710224
 20
190.005731516
 11
305.5820486886
 21
190.0083495763
  0
LINE
  5
2CD
100
AcDbEntity
  8
0
100
AcDbLine
 62
7
  6
CONTINUOUS
 10
331.5820486886
 20
152.9688218177
 11
331.6413913896
 21
152.8501273762
  0
LINE
  5
2CE
100
AcDbEntity
  8
0
100
AcDbLine
 62
7
  6
CONTINUOUS
 10
309.0715764473
 20
225.7688218177
 11
309.064594953
 21
225.8107480411
  0
LINE
  5
2CF
100
AcDbEntity
  8
0
100
AcDbLine
 62
7
  6
CONTINUOUS
 10
315.4370486886
 20
191.0988218177
 11
315.4370486886
 21
190.0188218177
  0
LINE
  5
2D0
100
AcDbEntity
  8
0
100
AcDbLine
 62
7
  6
CONTINUOUS
 10
315.5820486886
 20
190.0188218177
 11
315.5820486886
 21
191.0988218177
  0
LINE
  5
2D1
100
AcDbEntity
  8
0
100
AcDbLine
 62
7
  6
CONTINUOUS
 10
315.6820486886
 20
245.4188218177
 11
315.6820486886
 21
245.0403977485
  0
LINE
  5
2D2
100
AcDbEntity
  8
0
100
AcDbLine
 62
7
  6
CONTINUOUS
 10
315.8120486886
 20
222.7371356433
 11
315.8120486886
 21
194.790507992
  0
LINE
  5
2D3
100
AcDbEntity
  8
0
100
AcDbLine
 62
7
  6
CONTINUOUS
 10
316.1520486886
 20
241.4438218177
 11
316.1520486886
 21
241.5888218177
  0
LINE
  5
2D4
100
AcDbEntity
  8
0
100
AcDbLine
 62
7
  6
CONTINUOUS
 10
316.1820486886
 20
151.5688218177
 11
316.1820486886
 21
153.0688218177
  0
LINE
  5
2D5
100
AcDbEntity
  8
0
100
AcDbLine
 62
7
  6
CONTINUOUS
 10
316.1820486886
 20
232.0688218177
 11
316.1820486886
 21
233.5688218177
  0
LINE
  5
2D6
100
AcDbEntity
  8
0
100
AcDbLine
 62
7
  6
CONTINUOUS
 10
316.6820486886
 20
238.4908494519
 11
316.6820486886
 21
237.6040882684
  0
LINE
  5
2D7
100
AcDbEntity
  8
0
100
AcDbLine
 62
7
  6
CONTINUOUS
 10
316.6820486886
 20
190.0188218177
 11
316.6820486886
 21
225.7688218177
  0
LINE
  5
2D8
100
AcDbEntity
  8
0
100
AcDbLine
 62
7
  6
CONTINUOUS
 10
317.5370486886
 20
213.9088218177
 11
317.5370486886
 21
219.4088218177
  0
LINE
  5
2D9
100
AcDbEntity
  8
0
100
AcDbLine
 62
7
  6
CONTINUOUS
 10
317.6820486886
 20
207.6188218177
 11
317.6820486886
 21
206.0188218177
  0
LINE
  5
2DA
100
AcDbEntity
  8
0
100
AcDbLine
 62
7
  6
CONTINUOUS
 10
317.8270486886
 20
219.4088218177
 11
317.8270486886
 21
213.9088218177
  0
LINE
  5
2DB
100
AcDbEntity
  8
0
100
AcDbLine
 62
7
  6
CONTINUOUS
 10
331.4883320031
 20
228.4827858696
 11
331.5197485756
 21
228.5526061293
  0
LINE
  5
2DC
100
AcDbEntity
  8
0
100
AcDbLine
 62
7
  6
CONTINUOUS
 10
307.1820486886
 20
190.0083495763
 11
307.1663263548
 21
190.005731516
  0
LINE
  5
2DD
100
AcDbEntity
  8
0
100
AcDbLine
 62
7
  6
CONTINUOUS
 10
303.5401224652
 20
190.0013680821
 11
303.5820486886
 21
190.0083495763
  0
LINE
  5
2DE
100
AcDbEntity
  8
0
100
AcDbLine
 62
7
  6
CONTINUOUS
 10
309.0820486886
 20
190.7188218177
 11
310.0620486886
 21
190.7188218177
  0
LINE
  5
2DF
100
AcDbEntity
  8
0
100
AcDbLine
 62
7
  6
CONTINUOUS
 10
325.3020486886
 20
190.7188218177
 11
326.1320486886
 21
190.7188218177
  0
LINE
  5
2E0
100
AcDbEntity
  8
0
100
AcDbLine
 62
7
  6
CONTINUOUS
 10
309.1820486886
 20
191.0988218177
 11
316.6820486886
 21
191.0988218177
  0
LINE
  5
2E1
100
AcDbEntity
  8
0
100
AcDbLine
 62
7
  6
CONTINUOUS
 10
326.1320486886
 20
191.3188218177
 11
325.3020486886
 21
191.3188218177
  0
LINE
  5
2E2
100
AcDbEntity
  8
0
100
AcDbLine
 62
7
  6
CONTINUOUS
 10
309.1820486886
 20
191.3188218177
 11
309.0820486886
 21
191.3188218177
  0
LINE
  5
2E3
100
AcDbEntity
  8
0
100
AcDbLine
 62
7
  6
CONTINUOUS
 10
322.6320486886
 20
191.6688218177
 11
325.9770486886
 21
191.6688218177
  0
LINE
  5
2E4
100
AcDbEntity
  8
0
100
AcDbLine
 62
7
  6
CONTINUOUS
 10
322.6320486886
 20
192.9088218177
 11
325.9770486886
 21
192.9088218177
  0
LINE
  5
2E5
100
AcDbEntity
  8
0
100
AcDbLine
 62
7
  6
CONTINUOUS
 10
309.0820486886
 20
193.2588218177
 11
309.1820486886
 21
193.2588218177
  0
LINE
  5
2E6
100
AcDbEntity
  8
0
100
AcDbLine
 62
7
  6
CONTINUOUS
 10
325.3020486886
 20
193.2588218177
 11
326.1320486886
 21
193.2588218177
  0
LINE
  5
2E7
100
AcDbEntity
  8
0
100
AcDbLine
 62
7
  6
CONTINUOUS
 10
326.1320486886
 20
193.8588218177
 11
325.3020486886
 21
193.8588218177
  0
LINE
  5
2E8
100
AcDbEntity
  8
0
100
AcDbLine
 62
7
  6
CONTINUOUS
 10
309.1820486886
 20
193.8588218177
 11
309.0820486886
 21
193.8588218177
  0
LINE
  5
2E9
100
AcDbEntity
  8
0
100
AcDbLine
 62
7
  6
CONTINUOUS
 10
331.6320486886
 20
190.0083495763
 11
331.673974912
 21
190.0013680821
  0
LINE
  5
2EA
100
AcDbEntity
  8
0
100
AcDbLine
 62
7
  6
CONTINUOUS
 10
314.4161744075
 20
192.5909610015
 11
311.0161744075
 21
193.5019882557
  0
LINE
  5
2EB
100
AcDbEntity
  8
0
100
AcDbLine
 62
7
  6
CONTINUOUS
 10
311.2161705958
 20
194.7839057113
 11
314.6161705958
 21
193.872878457
  0
LINE
  5
2EC
100
AcDbEntity
  8
0
100
AcDbLine
 62
7
  6
CONTINUOUS
 10
331.4906882461
 20
157.2496212462
 11
331.5197485756
 21
157.185037506
  0
LINE
  5
2ED
100
AcDbEntity
  8
0
100
AcDbLine
 62
7
  6
CONTINUOUS
 10
318.6820486886
 20
206.0188218177
 11
318.6820486886
 21
190.0188218177
  0
LINE
  5
2EE
100
AcDbEntity
  8
0
100
AcDbLine
 62
7
  6
CONTINUOUS
 10
318.6820486886
 20
237.6040882684
 11
318.6820486886
 21
238.4908494519
  0
LINE
  5
2EF
100
AcDbEntity
  8
0
100
AcDbLine
 62
7
  6
CONTINUOUS
 10
318.6820463913
 20
224.4188218177
 11
318.6820470764
 21
219.4088218177
  0
LINE
  5
2F0
100
AcDbEntity
  8
0
100
AcDbLine
 62
7
  6
CONTINUOUS
 10
318.6820478285
 20
213.9088218177
 11
318.6820486886
 21
207.6188218177
  0
LINE
  5
2F1
100
AcDbEntity
  8
0
100
AcDbLine
 62
7
  6
CONTINUOUS
 10
319.1820486886
 20
233.5688218177
 11
319.1820486886
 21
232.0688218177
  0
LINE
  5
2F2
100
AcDbEntity
  8
0
100
AcDbLine
 62
7
  6
CONTINUOUS
 10
319.1820486886
 20
153.0688218177
 11
319.1820486886
 21
151.5688218177
  0
LINE
  5
2F3
100
AcDbEntity
  8
0
100
AcDbLine
 62
7
  6
CONTINUOUS
 10
319.2120486886
 20
241.5888218177
 11
319.2120486886
 21
241.4438218177
  0
LINE
  5
2F4
100
AcDbEntity
  8
0
100
AcDbLine
 62
7
  6
CONTINUOUS
 10
319.6820486886
 20
245.4188218177
 11
319.6820486886
 21
245.0403977485
  0
LINE
  5
2F5
100
AcDbEntity
  8
0
100
AcDbLine
 62
7
  6
CONTINUOUS
 10
319.7820486886
 20
207.6188218177
 11
319.7820486886
 21
206.0188218177
  0
LINE
  5
2F6
100
AcDbEntity
  8
0
100
AcDbLine
 62
7
  6
CONTINUOUS
 10
319.8320486886
 20
222.2188218177
 11
319.8320486886
 21
219.4088218177
  0
LINE
  5
2F7
100
AcDbEntity
  8
0
100
AcDbLine
 62
7
  6
CONTINUOUS
 10
319.8320486886
 20
213.9088218177
 11
319.8320486886
 21
190.0188218177
  0
LINE
  5
2F8
100
AcDbEntity
  8
0
100
AcDbLine
 62
7
  6
CONTINUOUS
 10
319.9270486886
 20
190.0188218177
 11
319.9270486886
 21
213.9088218177
  0
LINE
  5
2F9
100
AcDbEntity
  8
0
100
AcDbLine
 62
7
  6
CONTINUOUS
 10
326.1495024242
 20
225.8107480411
 11
326.14252093
 21
225.7688218177
  0
LINE
  5
2FA
100
AcDbEntity
  8
0
100
AcDbLine
 62
7
  6
CONTINUOUS
 10
303.8734091312
 20
157.2496212463
 11
303.8443488016
 21
157.185037506
  0
LINE
  5
2FB
100
AcDbEntity
  8
0
100
AcDbLine
 62
7
  6
CONTINUOUS
 10
322.6320486886
 20
194.2088218177
 11
325.9770486886
 21
194.2088218177
  0
LINE
  5
2FC
100
AcDbEntity
  8
0
100
AcDbLine
 62
7
  6
CONTINUOUS
 10
322.6320486886
 20
195.4488218177
 11
325.9770486886
 21
195.4488218177
  0
LINE
  5
2FD
100
AcDbEntity
  8
0
100
AcDbLine
 62
7
  6
CONTINUOUS
 10
309.0820486886
 20
195.7988218177
 11
309.1820486886
 21
195.7988218177
  0
LINE
  5
2FE
100
AcDbEntity
  8
0
100
AcDbLine
 62
7
  6
CONTINUOUS
 10
325.3020486886
 20
195.7988218177
 11
326.1320486886
 21
195.7988218177
  0
LINE
  5
2FF
100
AcDbEntity
  8
0
100
AcDbLine
 62
7
  6
CONTINUOUS
 10
312.3620486886
 20
195.8888218177
 11
313.9620486886
 21
195.8888218177
  0
LINE
  5
300
100
AcDbEntity
  8
0
100
AcDbLine
 62
7
  6
CONTINUOUS
 10
326.1320486886
 20
196.3988218177
 11
325.3020486886
 21
196.3988218177
  0
LINE
  5
301
100
AcDbEntity
  8
0
100
AcDbLine
 62
7
  6
CONTINUOUS
 10
309.1820486886
 20
196.3988218177
 11
309.0820486886
 21
196.3988218177
  0
LINE
  5
302
100
AcDbEntity
  8
0
100
AcDbLine
 62
7
  6
CONTINUOUS
 10
309.0820486886
 20
196.4488218177
 11
309.1820486886
 21
196.4488218177
  0
LINE
  5
303
100
AcDbEntity
  8
0
100
AcDbLine
 62
7
  6
CONTINUOUS
 10
322.6320486886
 20
196.7488218177
 11
325.9770486886
 21
196.7488218177
  0
LINE
  5
304
100
AcDbEntity
  8
0
100
AcDbLine
 62
7
  6
CONTINUOUS
 10
309.0820486886
 20
196.9488218177
 11
309.1820486886
 21
196.9488218177
  0
LINE
  5
305
100
AcDbEntity
  8
0
100
AcDbLine
 62
7
  6
CONTINUOUS
 10
303.8757653741
 20
228.4827858696
 11
303.8443488016
 21
228.5526061293
  0
LINE
  5
306
100
AcDbEntity
  8
0
100
AcDbLine
 62
7
  6
CONTINUOUS
 10
303.8443488016
 20
233.4688218177
 11
303.7760177564
 21
233.6206808826
  0
LINE
  5
307
100
AcDbEntity
  8
0
100
AcDbLine
 62
7
  6
CONTINUOUS
 10
321.8339657597
 20
236.7188218177
 11
321.8339657597
 21
233.5688218177
  0
LINE
  5
308
100
AcDbEntity
  8
0
100
AcDbLine
 62
7
  6
CONTINUOUS
 10
321.8339657597
 20
232.0688218177
 11
321.8339657597
 21
228.9188218177
  0
LINE
  5
309
100
AcDbEntity
  8
0
100
AcDbLine
 62
7
  6
CONTINUOUS
 10
321.8339657597
 20
156.2188218177
 11
321.8339657597
 21
153.0688218177
  0
LINE
  5
30A
100
AcDbEntity
  8
0
100
AcDbLine
 62
7
  6
CONTINUOUS
 10
321.8339657597
 20
151.5688218177
 11
321.8339657597
 21
148.4188218177
  0
LINE
  5
30B
100
AcDbEntity
  8
0
100
AcDbLine
 62
7
  6
CONTINUOUS
 10
321.9220486886
 20
221.4088218177
 11
321.9220486886
 21
219.4088218177
  0
LINE
  5
30C
100
AcDbEntity
  8
0
100
AcDbLine
 62
7
  6
CONTINUOUS
 10
322.6320486886
 20
190.3688218177
 11
322.6320486886
 21
191.6688218177
  0
LINE
  5
30D
100
AcDbEntity
  8
0
100
AcDbLine
 62
7
  6
CONTINUOUS
 10
322.6320486886
 20
192.9088218177
 11
322.6320486886
 21
194.2088218177
  0
LINE
  5
30E
100
AcDbEntity
  8
0
100
AcDbLine
 62
7
  6
CONTINUOUS
 10
322.6320486886
 20
195.4488218177
 11
322.6320486886
 21
196.7488218177
  0
LINE
  5
30F
100
AcDbEntity
  8
0
100
AcDbLine
 62
7
  6
CONTINUOUS
 10
322.6320486886
 20
197.9888218177
 11
322.6320486886
 21
199.2888218177
  0
LINE
  5
310
100
AcDbEntity
  8
0
100
AcDbLine
 62
7
  6
CONTINUOUS
 10
322.6320486886
 20
200.5288218177
 11
322.6320486886
 21
201.8288218177
  0
LINE
  5
311
100
AcDbEntity
  8
0
100
AcDbLine
 62
7
  6
CONTINUOUS
 10
322.6320486886
 20
203.0688218177
 11
322.6320486886
 21
204.3688218177
  0
LINE
  5
312
100
AcDbEntity
  8
0
100
AcDbLine
 62
7
  6
CONTINUOUS
 10
322.6320486886
 20
205.6088218177
 11
322.6320486886
 21
206.9088218177
  0
LINE
  5
313
100
AcDbEntity
  8
0
100
AcDbLine
 62
7
  6
CONTINUOUS
 10
322.6320486886
 20
208.1488218177
 11
322.6320486886
 21
209.4488218177
  0
LINE
  5
314
100
AcDbEntity
  8
0
100
AcDbLine
 62
7
  6
CONTINUOUS
 10
322.6820486886
 20
157.2810403631
 11
322.6820486886
 21
156.2188218177
  0
LINE
  5
315
100
AcDbEntity
  8
0
100
AcDbLine
 62
7
  6
CONTINUOUS
 10
322.6820486886
 20
153.0688218177
 11
322.6820486886
 21
151.5688218177
  0
LINE
  5
316
100
AcDbEntity
  8
0
100
AcDbLine
 62
7
  6
CONTINUOUS
 10
322.6820486886
 20
148.4188218177
 11
322.6820486886
 21
147.6208240448
  0
LINE
  5
317
100
AcDbEntity
  8
0
100
AcDbLine
 62
7
  6
CONTINUOUS
 10
322.6820486886
 20
228.4566032722
 11
322.6820486886
 21
228.9188218177
  0
LINE
  5
318
100
AcDbEntity
  8
0
100
AcDbLine
 62
7
  6
CONTINUOUS
 10
322.6820486886
 20
232.0688218177
 11
322.6820486886
 21
233.5688218177
  0
LINE
  5
319
100
AcDbEntity
  8
0
100
AcDbLine
 62
7
  6
CONTINUOUS
 10
322.6820486886
 20
236.7188218177
 11
322.6820486886
 21
237.5927433403
  0
LINE
  5
31A
100
AcDbEntity
  8
0
100
AcDbLine
 62
9
  6
CONTINUOUS
 10
323.2320486886
 20
209.4488218177
 11
323.2320486886
 21
208.1488218177
  0
LINE
  5
31B
100
AcDbEntity
  8
0
100
AcDbLine
 62
9
  6
CONTINUOUS
 10
323.2320486886
 20
206.9088218177
 11
323.2320486886
 21
205.6088218177
  0
LINE
  5
31C
100
AcDbEntity
  8
0
100
AcDbLine
 62
9
  6
CONTINUOUS
 10
323.2320486886
 20
204.3688218177
 11
323.2320486886
 21
203.0688218177
  0
LINE
  5
31D
100
AcDbEntity
  8
0
100
AcDbLine
 62
9
  6
CONTINUOUS
 10
323.2320486886
 20
201.8288218177
 11
323.2320486886
 21
200.5288218177
  0
LINE
  5
31E
100
AcDbEntity
  8
0
100
AcDbLine
 62
9
  6
CONTINUOUS
 10
323.2320486886
 20
199.2888218177
 11
323.2320486886
 21
197.9888218177
  0
LINE
  5
31F
100
AcDbEntity
  8
0
100
AcDbLine
 62
9
  6
CONTINUOUS
 10
323.2320486886
 20
196.7488218177
 11
323.2320486886
 21
195.4488218177
  0
LINE
  5
320
100
AcDbEntity
  8
0
100
AcDbLine
 62
9
  6
CONTINUOUS
 10
323.2320486886
 20
194.2088218177
 11
323.2320486886
 21
192.9088218177
  0
LINE
  5
321
100
AcDbEntity
  8
0
100
AcDbLine
 62
9
  6
CONTINUOUS
 10
323.2320486886
 20
191.6688218177
 11
323.2320486886
 21
190.3688218177
  0
LINE
  5
322
100
AcDbEntity
  8
0
100
AcDbLine
 62
7
  6
CONTINUOUS
 10
323.3820486886
 20
225.7688218177
 11
323.3820486886
 21
225.6013010126
  0
LINE
  5
323
100
AcDbEntity
  8
0
100
AcDbLine
 62
7
  6
CONTINUOUS
 10
324.3820486886
 20
225.6327887935
 11
324.3820486886
 21
225.7688218177
  0
LINE
  5
324
100
AcDbEntity
  8
0
100
AcDbLine
 62
7
  6
CONTINUOUS
 10
324.6320486886
 20
223.4188218177
 11
324.6320486886
 21
224.445002421
  0
LINE
  5
325
100
AcDbEntity
  8
0
100
AcDbLine
 62
7
  6
CONTINUOUS
 10
325.3020486886
 20
208.4988218177
 11
325.3020486886
 21
208.1488218177
  0
LINE
  5
326
100
AcDbEntity
  8
0
100
AcDbLine
 62
7
  6
CONTINUOUS
 10
325.3020486886
 20
205.9588218177
 11
325.3020486886
 21
205.6088218177
  0
LINE
  5
327
100
AcDbEntity
  8
0
100
AcDbLine
 62
7
  6
CONTINUOUS
 10
325.3020486886
 20
203.4188218177
 11
325.3020486886
 21
203.0688218177
  0
LINE
  5
328
100
AcDbEntity
  8
0
100
AcDbLine
 62
7
  6
CONTINUOUS
 10
325.3020486886
 20
200.8788218177
 11
325.3020486886
 21
200.5288218177
  0
LINE
  5
329
100
AcDbEntity
  8
0
100
AcDbLine
 62
7
  6
CONTINUOUS
 10
325.3020486886
 20
198.3388218177
 11
325.3020486886
 21
197.9888218177
  0
LINE
  5
32A
100
AcDbEntity
  8
0
100
AcDbLine
 62
7
  6
CONTINUOUS
 10
325.3020486886
 20
195.7988218177
 11
325.3020486886
 21
195.4488218177
  0
LINE
  5
32B
100
AcDbEntity
  8
0
100
AcDbLine
 62
7
  6
CONTINUOUS
 10
325.3020486886
 20
193.2588218177
 11
325.3020486886
 21
192.9088218177
  0
LINE
  5
32C
100
AcDbEntity
  8
0
100
AcDbLine
 62
7
  6
CONTINUOUS
 10
325.3020486886
 20
190.7188218177
 11
325.3020486886
 21
190.3688218177
  0
LINE
  5
32D
100
AcDbEntity
  8
0
100
AcDbLine
 62
7
  6
CONTINUOUS
 10
325.3020486886
 20
191.3188218177
 11
325.3020486886
 21
191.6688218177
  0
LINE
  5
32E
100
AcDbEntity
  8
0
100
AcDbLine
 62
7
  6
CONTINUOUS
 10
325.3020486886
 20
193.8588218177
 11
325.3020486886
 21
194.2088218177
  0
LINE
  5
32F
100
AcDbEntity
  8
0
100
AcDbLine
 62
7
  6
CONTINUOUS
 10
325.3020486886
 20
196.3988218177
 11
325.3020486886
 21
196.7488218177
  0
LINE
  5
330
100
AcDbEntity
  8
0
100
AcDbLine
 62
7
  6
CONTINUOUS
 10
325.3020486886
 20
198.9388218177
 11
325.3020486886
 21
199.2888218177
  0
LINE
  5
331
100
AcDbEntity
  8
0
100
AcDbLine
 62
7
  6
CONTINUOUS
 10
325.3020486886
 20
201.4788218177
 11
325.3020486886
 21
201.8288218177
  0
LINE
  5
332
100
AcDbEntity
  8
0
100
AcDbLine
 62
7
  6
CONTINUOUS
 10
325.3020486886
 20
204.0188218177
 11
325.3020486886
 21
204.3688218177
  0
LINE
  5
333
100
AcDbEntity
  8
0
100
AcDbLine
 62
7
  6
CONTINUOUS
 10
325.3020486886
 20
206.5588218177
 11
325.3020486886
 21
206.9088218177
  0
LINE
  5
334
100
AcDbEntity
  8
0
100
AcDbLine
 62
7
  6
CONTINUOUS
 10
325.3020486886
 20
209.0988218177
 11
325.3020486886
 21
209.4488218177
  0
LINE
  5
335
100
AcDbEntity
  8
0
100
AcDbLine
 62
7
  6
CONTINUOUS
 10
325.8020486886
 20
237.2788218177
 11
325.7777008625
 21
236.7188218177
  0
LINE
  5
336
100
AcDbEntity
  8
0
100
AcDbLine
 62
7
  6
CONTINUOUS
 10
303.7227059876
 20
152.8501273762
 11
303.7820486886
 21
152.9688218177
  0
LINE
  5
337
100
AcDbEntity
  8
0
100
AcDbLine
 62
7
  6
CONTINUOUS
 10
309.0820486886
 20
197.7188218177
 11
309.1820486886
 21
197.7188218177
  0
LINE
  5
338
100
AcDbEntity
  8
0
100
AcDbLine
 62
7
  6
CONTINUOUS
 10
322.6320486886
 20
197.9888218177
 11
325.9770486886
 21
197.9888218177
  0
LINE
  5
339
100
AcDbEntity
  8
0
100
AcDbLine
 62
7
  6
CONTINUOUS
 10
309.0820486886
 20
198.2188218177
 11
309.1820486886
 21
198.2188218177
  0
LINE
  5
33A
100
AcDbEntity
  8
0
100
AcDbLine
 62
7
  6
CONTINUOUS
 10
309.0820486886
 20
198.3388218177
 11
309.1820486886
 21
198.3388218177
  0
LINE
  5
33B
100
AcDbEntity
  8
0
100
AcDbLine
 62
7
  6
CONTINUOUS
 10
325.3020486886
 20
198.3388218177
 11
326.1320486886
 21
198.3388218177
  0
LINE
  5
33C
100
AcDbEntity
  8
0
100
AcDbLine
 62
7
  6
CONTINUOUS
 10
326.1320486886
 20
198.9388218177
 11
325.3020486886
 21
198.9388218177
  0
LINE
  5
33D
100
AcDbEntity
  8
0
100
AcDbLine
 62
7
  6
CONTINUOUS
 10
309.1820486886
 20
198.9388218177
 11
309.0820486886
 21
198.9388218177
  0
LINE
  5
33E
100
AcDbEntity
  8
0
100
AcDbLine
 62
7
  6
CONTINUOUS
 10
322.6320486886
 20
199.2888218177
 11
325.9770486886
 21
199.2888218177
  0
LINE
  5
33F
100
AcDbEntity
  8
0
100
AcDbLine
 62
7
  6
CONTINUOUS
 10
322.6320486886
 20
200.5288218177
 11
325.9770486886
 21
200.5288218177
  0
LINE
  5
340
100
AcDbEntity
  8
0
100
AcDbLine
 62
7
  6
CONTINUOUS
 10
309.0820486886
 20
200.8788218177
 11
309.1820486886
 21
200.8788218177
  0
LINE
  5
341
100
AcDbEntity
  8
0
100
AcDbLine
 62
7
  6
CONTINUOUS
 10
325.3020486886
 20
200.8788218177
 11
326.1320486886
 21
200.8788218177
  0
LINE
  5
342
100
AcDbEntity
  8
0
100
AcDbLine
 62
7
  6
CONTINUOUS
 10
303.6061249388
 20
232.1688218177
 11
303.5467822379
 21
232.2875162592
  0
LINE
  5
343
100
AcDbEntity
  8
0
100
AcDbLine
 62
7
  6
CONTINUOUS
 10
328.9382102871
 20
144.2188218177
 11
328.8745237484
 21
146.2188218177
  0
LINE
  5
344
100
AcDbEntity
  8
0
100
AcDbLine
 62
7
  6
CONTINUOUS
 10
329.2043892829
 20
147.557376397
 11
329.2069806698
 21
147.2188218177
  0
LINE
  5
345
100
AcDbEntity
  8
0
100
AcDbLine
 62
9
  6
CONTINUOUS
 10
325.7720486886
 20
209.4488218177
 11
325.7720486886
 21
209.0988218177
  0
LINE
  5
346
100
AcDbEntity
  8
0
100
AcDbLine
 62
9
  6
CONTINUOUS
 10
325.7720486886
 20
208.4988218177
 11
325.7720486886
 21
208.1488218177
  0
LINE
  5
347
100
AcDbEntity
  8
0
100
AcDbLine
 62
9
  6
CONTINUOUS
 10
325.7720486886
 20
206.9088218177
 11
325.7720486886
 21
206.5588218177
  0
LINE
  5
348
100
AcDbEntity
  8
0
100
AcDbLine
 62
9
  6
CONTINUOUS
 10
325.7720486886
 20
205.9588218177
 11
325.7720486886
 21
205.6088218177
  0
LINE
  5
349
100
AcDbEntity
  8
0
100
AcDbLine
 62
9
  6
CONTINUOUS
 10
325.7720486886
 20
204.3688218177
 11
325.7720486886
 21
204.0188218177
  0
LINE
  5
34A
100
AcDbEntity
  8
0
100
AcDbLine
 62
9
  6
CONTINUOUS
 10
325.7720486886
 20
203.4188218177
 11
325.7720486886
 21
203.0688218177
  0
LINE
  5
34B
100
AcDbEntity
  8
0
100
AcDbLine
 62
9
  6
CONTINUOUS
 10
325.7720486886
 20
201.8288218177
 11
325.7720486886
 21
201.4788218177
  0
LINE
  5
34C
100
AcDbEntity
  8
0
100
AcDbLine
 62
9
  6
CONTINUOUS
 10
325.7720486886
 20
200.8788218177
 11
325.7720486886
 21
200.5288218177
  0
LINE
  5
34D
100
AcDbEntity
  8
0
100
AcDbLine
 62
9
  6
CONTINUOUS
 10
325.7720486886
 20
199.2888218177
 11
325.7720486886
 21
198.9388218177
  0
LINE
  5
34E
100
AcDbEntity
  8
0
100
AcDbLine
 62
9
  6
CONTINUOUS
 10
325.7720486886
 20
198.3388218177
 11
325.7720486886
 21
197.9888218177
  0
LINE
  5
34F
100
AcDbEntity
  8
0
100
AcDbLine
 62
9
  6
CONTINUOUS
 10
325.7720486886
 20
196.7488218177
 11
325.7720486886
 21
196.3988218177
  0
LINE
  5
350
100
AcDbEntity
  8
0
100
AcDbLine
 62
9
  6
CONTINUOUS
 10
325.7720486886
 20
195.7988218177
 11
325.7720486886
 21
195.4488218177
  0
LINE
  5
351
100
AcDbEntity
  8
0
100
AcDbLine
 62
9
  6
CONTINUOUS
 10
325.7720486886
 20
194.2088218177
 11
325.7720486886
 21
193.8588218177
  0
LINE
  5
352
100
AcDbEntity
  8
0
100
AcDbLine
 62
9
  6
CONTINUOUS
 10
325.7720486886
 20
193.2588218177
 11
325.7720486886
 21
192.9088218177
  0
LINE
  5
353
100
AcDbEntity
  8
0
100
AcDbLine
 62
9
  6
CONTINUOUS
 10
325.7720486886
 20
191.6688218177
 11
325.7720486886
 21
191.3188218177
  0
LINE
  5
354
100
AcDbEntity
  8
0
100
AcDbLine
 62
9
  6
CONTINUOUS
 10
325.7720486886
 20
190.7188218177
 11
325.7720486886
 21
190.3688218177
  0
LINE
  5
355
100
AcDbEntity
  8
0
100
AcDbLine
 62
7
  6
CONTINUOUS
 10
325.9058680852
 20
225.0688218177
 11
325.9058680852
 21
223.4188218177
  0
LINE
  5
356
100
AcDbEntity
  8
0
100
AcDbLine
 62
7
  6
CONTINUOUS
 10
325.9320486886
 20
223.4188218177
 11
325.9320486886
 21
225.6916450864
  0
LINE
  5
357
100
AcDbEntity
  8
0
100
AcDbLine
 62
7
  6
CONTINUOUS
 10
325.9770486886
 20
208.4988218177
 11
325.9770486886
 21
208.1488218177
  0
LINE
  5
358
100
AcDbEntity
  8
0
100
AcDbLine
 62
7
  6
CONTINUOUS
 10
325.9770486886
 20
205.9588218177
 11
325.9770486886
 21
205.6088218177
  0
LINE
  5
359
100
AcDbEntity
  8
0
100
AcDbLine
 62
7
  6
CONTINUOUS
 10
325.9770486886
 20
203.4188218177
 11
325.9770486886
 21
203.0688218177
  0
LINE
  5
35A
100
AcDbEntity
  8
0
100
AcDbLine
 62
7
  6
CONTINUOUS
 10
325.9770486886
 20
200.8788218177
 11
325.9770486886
 21
200.5288218177
  0
LINE
  5
35B
100
AcDbEntity
  8
0
100
AcDbLine
 62
7
  6
CONTINUOUS
 10
325.9770486886
 20
198.3388218177
 11
325.9770486886
 21
197.9888218177
  0
LINE
  5
35C
100
AcDbEntity
  8
0
100
AcDbLine
 62
7
  6
CONTINUOUS
 10
325.9770486886
 20
195.7988218177
 11
325.9770486886
 21
195.4488218177
  0
LINE
  5
35D
100
AcDbEntity
  8
0
100
AcDbLine
 62
7
  6
CONTINUOUS
 10
325.9770486886
 20
193.2588218177
 11
325.9770486886
 21
192.9088218177
  0
LINE
  5
35E
100
AcDbEntity
  8
0
100
AcDbLine
 62
7
  6
CONTINUOUS
 10
325.9770486886
 20
190.7188218177
 11
325.9770486886
 21
190.3688218177
  0
LINE
  5
35F
100
AcDbEntity
  8
0
100
AcDbLine
 62
7
  6
CONTINUOUS
 10
325.9770486886
 20
191.3188218177
 11
325.9770486886
 21
191.6688218177
  0
LINE
  5
360
100
AcDbEntity
  8
0
100
AcDbLine
 62
7
  6
CONTINUOUS
 10
325.9770486886
 20
193.8588218177
 11
325.9770486886
 21
194.2088218177
  0
LINE
  5
361
100
AcDbEntity
  8
0
100
AcDbLine
 62
7
  6
CONTINUOUS
 10
325.9770486886
 20
196.3988218177
 11
325.9770486886
 21
196.7488218177
  0
LINE
  5
362
100
AcDbEntity
  8
0
100
AcDbLine
 62
7
  6
CONTINUOUS
 10
325.9770486886
 20
198.9388218177
 11
325.9770486886
 21
199.2888218177
  0
LINE
  5
363
100
AcDbEntity
  8
0
100
AcDbLine
 62
7
  6
CONTINUOUS
 10
325.9770486886
 20
201.4788218177
 11
325.9770486886
 21
201.8288218177
  0
LINE
  5
364
100
AcDbEntity
  8
0
100
AcDbLine
 62
7
  6
CONTINUOUS
 10
325.9770486886
 20
204.0188218177
 11
325.9770486886
 21
204.3688218177
  0
LINE
  5
365
100
AcDbEntity
  8
0
100
AcDbLine
 62
7
  6
CONTINUOUS
 10
325.9770486886
 20
206.5588218177
 11
325.9770486886
 21
206.9088218177
  0
LINE
  5
366
100
AcDbEntity
  8
0
100
AcDbLine
 62
7
  6
CONTINUOUS
 10
325.9770486886
 20
209.0988218177
 11
325.9770486886
 21
209.4488218177
  0
LINE
  5
367
100
AcDbEntity
  8
0
100
AcDbLine
 62
7
  6
CONTINUOUS
 10
326.1320486886
 20
225.7688218177
 11
326.1320486886
 21
227.7188218177
  0
LINE
  5
368
100
AcDbEntity
  8
0
100
AcDbLine
 62
7
  6
CONTINUOUS
 10
326.14252093
 20
225.7688218177
 11
326.14252093
 21
190.0083495763
  0
LINE
  5
369
100
AcDbEntity
  8
0
100
AcDbLine
 62
7
  6
CONTINUOUS
 10
326.1495024242
 20
225.8107480411
 11
326.1495024242
 21
227.7188218177
  0
LINE
  5
36A
100
AcDbEntity
  8
0
100
AcDbLine
 62
7
  6
CONTINUOUS
 10
326.1820486886
 20
153.0688218177
 11
326.1820486886
 21
151.5688218177
  0
LINE
  5
36B
100
AcDbEntity
  8
0
100
AcDbLine
 62
7
  6
CONTINUOUS
 10
326.1820486886
 20
147.9288218177
 11
326.1820486886
 21
148.4188218177
  0
LINE
  5
36C
100
AcDbEntity
  8
0
100
AcDbLine
 62
7
  6
CONTINUOUS
 10
326.7952415796
 20
236.7188218177
 11
326.7952415796
 21
233.5688218177
  0
LINE
  5
36D
100
AcDbEntity
  8
0
100
AcDbLine
 62
7
  6
CONTINUOUS
 10
326.7952415796
 20
232.0688218177
 11
326.7952415796
 21
228.9188218177
  0
LINE
  5
36E
100
AcDbEntity
  8
0
100
AcDbLine
 62
7
  6
CONTINUOUS
 10
326.7952415796
 20
156.2188218177
 11
326.7952415796
 21
153.0688218177
  0
LINE
  5
36F
100
AcDbEntity
  8
0
100
AcDbLine
 62
7
  6
CONTINUOUS
 10
326.7952415796
 20
151.5688218177
 11
326.7952415796
 21
148.4188218177
  0
LINE
  5
370
100
AcDbEntity
  8
0
100
AcDbLine
 62
7
  6
CONTINUOUS
 10
328.0320486886
 20
190.0083495763
 11
328.0320486886
 21
225.7688218177
  0
LINE
  5
371
100
AcDbEntity
  8
0
100
AcDbLine
 62
7
  6
CONTINUOUS
 10
328.0477710224
 20
190.005731516
 11
328.0477710224
 21
225.7845441515
  0
LINE
  5
372
100
AcDbEntity
  8
0
100
AcDbLine
 62
7
  6
CONTINUOUS
 10
328.1770486886
 20
151.5688218177
 11
328.1770486886
 21
153.0688218177
  0
LINE
  5
373
100
AcDbEntity
  8
0
100
AcDbLine
 62
7
  6
CONTINUOUS
 10
328.1770486886
 20
156.2188218177
 11
328.1770486886
 21
157.2496212463
  0
LINE
  5
374
100
AcDbEntity
  8
0
100
AcDbLine
 62
7
  6
CONTINUOUS
 10
328.1820486886
 20
236.7188218177
 11
328.1820486886
 21
233.5688218177
  0
LINE
  5
375
100
AcDbEntity
  8
0
100
AcDbLine
 62
7
  6
CONTINUOUS
 10
328.1820486886
 20
232.0688218177
 11
328.1820486886
 21
228.9188218177
  0
LINE
  5
376
100
AcDbEntity
  8
0
100
AcDbLine
 62
7
  6
CONTINUOUS
 10
328.1820486886
 20
156.2188218177
 11
328.1820486886
 21
153.0688218177
  0
LINE
  5
377
100
AcDbEntity
  8
0
100
AcDbLine
 62
7
  6
CONTINUOUS
 10
328.1820486886
 20
151.5688218177
 11
328.1820486886
 21
148.4188218177
  0
LINE
  5
378
100
AcDbEntity
  8
0
100
AcDbLine
 62
7
  6
CONTINUOUS
 10
328.4320486886
 20
146.2188218177
 11
328.4320486886
 21
147.2188218177
  0
LINE
  5
379
100
AcDbEntity
  8
0
100
AcDbLine
 62
7
  6
CONTINUOUS
 10
328.4820486886
 20
233.6688218177
 11
328.4820486886
 21
233.5688218177
  0
LINE
  5
37A
100
AcDbEntity
  8
0
100
AcDbLine
 62
7
  6
CONTINUOUS
 10
328.4820486886
 20
232.0688218177
 11
328.4820486886
 21
231.9688218177
  0
LINE
  5
37B
100
AcDbEntity
  8
0
100
AcDbLine
 62
7
  6
CONTINUOUS
 10
328.4820486886
 20
153.1688218177
 11
328.4820486886
 21
153.0688218177
  0
LINE
  5
37C
100
AcDbEntity
  8
0
100
AcDbLine
 62
7
  6
CONTINUOUS
 10
328.4820486886
 20
151.5688218177
 11
328.4820486886
 21
151.4688218177
  0
LINE
  5
37D
100
AcDbEntity
  8
0
100
AcDbLine
 62
7
  6
CONTINUOUS
 10
328.6320486886
 20
147.9188218177
 11
328.6320486886
 21
148.4188218177
  0
LINE
  5
37E
100
AcDbEntity
  8
0
100
AcDbLine
 62
7
  6
CONTINUOUS
 10
328.6320486886
 20
151.5688218177
 11
328.6320486886
 21
153.0688218177
  0
LINE
  5
37F
100
AcDbEntity
  8
0
100
AcDbLine
 62
7
  6
CONTINUOUS
 10
328.6320486886
 20
156.2188218177
 11
328.6320486886
 21
157.2496212463
  0
LINE
  5
380
100
AcDbEntity
  8
0
100
AcDbLine
 62
7
  6
CONTINUOUS
 10
328.6820486886
 20
147.2188218177
 11
328.6820486886
 21
147.6094791167
  0
LINE
  5
381
100
AcDbEntity
  8
0
100
AcDbLine
 62
7
  6
CONTINUOUS
 10
328.7319934852
 20
233.6688218177
 11
328.7319934852
 21
233.5688218177
  0
LINE
  5
382
100
AcDbEntity
  8
0
100
AcDbLine
 62
7
  6
CONTINUOUS
 10
328.7319934852
 20
153.1688218177
 11
328.7319934852
 21
153.0688218177
  0
LINE
  5
383
100
AcDbEntity
  8
0
100
AcDbLine
 62
7
  6
CONTINUOUS
 10
328.7319934852
 20
151.4688218177
 11
328.7319934852
 21
151.5688218177
  0
LINE
  5
384
100
AcDbEntity
  8
0
100
AcDbLine
 62
7
  6
CONTINUOUS
 10
328.7319934852
 20
231.9688218177
 11
328.7319934852
 21
232.0688218177
  0
LINE
  5
385
100
AcDbEntity
  8
0
100
AcDbLine
 62
7
  6
CONTINUOUS
 10
328.9569806698
 20
146.2188218177
 11
328.9569806698
 21
147.2188218177
  0
LINE
  5
386
100
AcDbEntity
  8
0
100
AcDbLine
 62
7
  6
CONTINUOUS
 10
328.9820486886
 20
233.6688218177
 11
328.9820486886
 21
233.5688218177
  0
LINE
  5
387
100
AcDbEntity
  8
0
100
AcDbLine
 62
7
  6
CONTINUOUS
 10
328.9820486886
 20
232.0688218177
 11
328.9820486886
 21
231.9688218177
  0
LINE
  5
388
100
AcDbEntity
  8
0
100
AcDbLine
 62
7
  6
CONTINUOUS
 10
328.9820486886
 20
153.1688218177
 11
328.9820486886
 21
153.0688218177
  0
LINE
  5
389
100
AcDbEntity
  8
0
100
AcDbLine
 62
7
  6
CONTINUOUS
 10
328.9820486886
 20
151.5688218177
 11
328.9820486886
 21
151.4688218177
  0
LINE
  5
38A
100
AcDbEntity
  8
0
100
AcDbLine
 62
7
  6
CONTINUOUS
 10
325.9058680852
 20
225.0688218177
 11
325.9112958
 21
225.6907763262
  0
LINE
  5
38B
100
AcDbEntity
  8
0
100
AcDbLine
 62
7
  6
CONTINUOUS
 10
328.4730732808
 20
236.7188218177
 11
328.4861645795
 21
237.4688218177
  0
LINE
  5
38C
100
AcDbEntity
  8
0
100
AcDbLine
 62
7
  6
CONTINUOUS
 10
326.1320486886
 20
201.4788218177
 11
325.3020486886
 21
201.4788218177
  0
LINE
  5
38D
100
AcDbEntity
  8
0
100
AcDbLine
 62
7
  6
CONTINUOUS
 10
309.1820486886
 20
201.4788218177
 11
309.0820486886
 21
201.4788218177
  0
LINE
  5
38E
100
AcDbEntity
  8
0
100
AcDbLine
 62
7
  6
CONTINUOUS
 10
322.6320486886
 20
201.8288218177
 11
325.9770486886
 21
201.8288218177
  0
LINE
  5
38F
100
AcDbEntity
  8
0
100
AcDbLine
 62
7
  6
CONTINUOUS
 10
322.6320486886
 20
203.0688218177
 11
325.9770486886
 21
203.0688218177
  0
LINE
  5
390
100
AcDbEntity
  8
0
100
AcDbLine
 62
7
  6
CONTINUOUS
 10
309.0820486886
 20
203.4188218177
 11
309.1820486886
 21
203.4188218177
  0
LINE
  5
391
100
AcDbEntity
  8
0
100
AcDbLine
 62
7
  6
CONTINUOUS
 10
325.3020486886
 20
203.4188218177
 11
326.1320486886
 21
203.4188218177
  0
LINE
  5
392
100
AcDbEntity
  8
0
100
AcDbLine
 62
7
  6
CONTINUOUS
 10
326.1320486886
 20
204.0188218177
 11
325.3020486886
 21
204.0188218177
  0
LINE
  5
393
100
AcDbEntity
  8
0
100
AcDbLine
 62
7
  6
CONTINUOUS
 10
309.1820486886
 20
204.0188218177
 11
309.0820486886
 21
204.0188218177
  0
LINE
  5
394
100
AcDbEntity
  8
0
100
AcDbLine
 62
7
  6
CONTINUOUS
 10
322.6320486886
 20
204.3688218177
 11
325.9770486886
 21
204.3688218177
  0
LINE
  5
395
100
AcDbEntity
  8
0
100
AcDbLine
 62
7
  6
CONTINUOUS
 10
327.6263965147
 20
236.7188218177
 11
327.6020486886
 21
237.2788218177
  0
LINE
  5
396
100
AcDbEntity
  8
0
100
AcDbLine
 62
7
  6
CONTINUOUS
 10
331.6874812468
 20
155.4327486748
 11
331.6934941092
 21
147.557376397
  0
LINE
  5
397
100
AcDbEntity
  8
0
100
AcDbLine
 62
7
  6
CONTINUOUS
 10
329.2069806698
 20
146.2188218177
 11
329.2069806698
 21
144.2188218177
  0
LINE
  5
398
100
AcDbEntity
  8
0
100
AcDbLine
 62
7
  6
CONTINUOUS
 10
329.6163263548
 20
190.005731516
 11
329.6163263548
 21
225.7845441515
  0
LINE
  5
399
100
AcDbEntity
  8
0
100
AcDbLine
 62
7
  6
CONTINUOUS
 10
329.6320486886
 20
190.0083495763
 11
329.6320486886
 21
225.7688218177
  0
LINE
  5
39A
100
AcDbEntity
  8
0
100
AcDbLine
 62
7
  6
CONTINUOUS
 10
329.6464431035
 20
236.7188218177
 11
329.6464431035
 21
233.6688218177
  0
LINE
  5
39B
100
AcDbEntity
  8
0
100
AcDbLine
 62
7
  6
CONTINUOUS
 10
329.6464431035
 20
231.9688218177
 11
329.6464431035
 21
228.9188218177
  0
LINE
  5
39C
100
AcDbEntity
  8
0
100
AcDbLine
 62
7
  6
CONTINUOUS
 10
329.6464431035
 20
156.2188218177
 11
329.6464431035
 21
153.1688218177
  0
LINE
  5
39D
100
AcDbEntity
  8
0
100
AcDbLine
 62
7
  6
CONTINUOUS
 10
329.6464431035
 20
151.4688218177
 11
329.6464431035
 21
148.4188218177
  0
LINE
  5
39E
100
AcDbEntity
  8
0
100
AcDbLine
 62
7
  6
CONTINUOUS
 10
330.0070486886
 20
152.9688218177
 11
330.0070486886
 21
151.6688218177
  0
LINE
  5
39F
100
AcDbEntity
  8
0
100
AcDbLine
 62
7
  6
CONTINUOUS
 10
330.0070486886
 20
232.1688218177
 11
330.0070486886
 21
233.4688218177
  0
LINE
  5
3A0
100
AcDbEntity
  8
0
100
AcDbLine
 62
7
  6
CONTINUOUS
 10
330.0751884831
 20
151.7369616122
 11
330.0751884831
 21
152.9006820232
  0
LINE
  5
3A1
100
AcDbEntity
  8
0
100
AcDbLine
 62
7
  6
CONTINUOUS
 10
330.0751884831
 20
232.2369616122
 11
330.0751884831
 21
233.4006820232
  0
LINE
  5
3A2
100
AcDbEntity
  8
0
100
AcDbLine
 62
7
  6
CONTINUOUS
 10
330.3770486886
 20
237.4688218177
 11
330.3770486886
 21
236.7188218177
  0
LINE
  5
3A3
100
AcDbEntity
  8
0
100
AcDbLine
 62
7
  6
CONTINUOUS
 10
330.3770486886
 20
233.6688218177
 11
330.3770486886
 21
233.4688218177
  0
LINE
  5
3A4
100
AcDbEntity
  8
0
100
AcDbLine
 62
7
  6
CONTINUOUS
 10
330.3770486886
 20
232.1688218177
 11
330.3770486886
 21
231.9688218177
  0
LINE
  5
3A5
100
AcDbEntity
  8
0
100
AcDbLine
 62
7
  6
CONTINUOUS
 10
330.3770486886
 20
228.9188218177
 11
330.3770486886
 21
228.4827858696
  0
LINE
  5
3A6
100
AcDbEntity
  8
0
100
AcDbLine
 62
7
  6
CONTINUOUS
 10
331.3320486886
 20
231.9688218177
 11
331.3320486886
 21
232.1688218177
  0
LINE
  5
3A7
100
AcDbEntity
  8
0
100
AcDbLine
 62
7
  6
CONTINUOUS
 10
331.3320486886
 20
233.4688218177
 11
331.3320486886
 21
233.6688218177
  0
LINE
  5
3A8
100
AcDbEntity
  8
0
100
AcDbLine
 62
7
  6
CONTINUOUS
 10
331.4257431301
 20
151.7875162592
 11
331.4257431301
 21
152.8501273762
  0
LINE
  5
3A9
100
AcDbEntity
  8
0
100
AcDbLine
 62
7
  6
CONTINUOUS
 10
331.4257431301
 20
232.2875162592
 11
331.4257431301
 21
233.3501273762
  0
LINE
  5
3AA
100
AcDbEntity
  8
0
100
AcDbLine
 62
7
  6
CONTINUOUS
 10
331.5197485756
 20
232.1688218177
 11
331.5197485756
 21
231.9688218177
  0
LINE
  5
3AB
100
AcDbEntity
  8
0
100
AcDbLine
 62
7
  6
CONTINUOUS
 10
331.5197485756
 20
228.9188218177
 11
331.5197485756
 21
228.5526061293
  0
LINE
  5
3AC
100
AcDbEntity
  8
0
100
AcDbLine
 62
7
  6
CONTINUOUS
 10
331.5197485756
 20
157.185037506
 11
331.5197485756
 21
156.2188218177
  0
LINE
  5
3AD
100
AcDbEntity
  8
0
100
AcDbLine
 62
7
  6
CONTINUOUS
 10
331.5197485756
 20
153.1688218177
 11
331.5197485756
 21
152.9688218177
  0
LINE
  5
3AE
100
AcDbEntity
  8
0
100
AcDbLine
 62
7
  6
CONTINUOUS
 10
331.5197485756
 20
151.6688218177
 11
331.5197485756
 21
151.4688218177
  0
LINE
  5
3AF
100
AcDbEntity
  8
0
100
AcDbLine
 62
7
  6
CONTINUOUS
 10
331.5197485756
 20
148.4188218177
 11
331.5197485756
 21
147.6688218177
  0
LINE
  5
3B0
100
AcDbEntity
  8
0
100
AcDbLine
 62
7
  6
CONTINUOUS
 10
331.5820486886
 20
157.185037506
 11
331.5820486886
 21
156.2188218177
  0
LINE
  5
3B1
100
AcDbEntity
  8
0
100
AcDbLine
 62
7
  6
CONTINUOUS
 10
331.5820486886
 20
153.1688218177
 11
331.5820486886
 21
152.9688218177
  0
LINE
  5
3B2
100
AcDbEntity
  8
0
100
AcDbLine
 62
7
  6
CONTINUOUS
 10
331.5820486886
 20
147.6688218177
 11
331.5820486886
 21
148.4188218177
  0
LINE
  5
3B3
100
AcDbEntity
  8
0
100
AcDbLine
 62
7
  6
CONTINUOUS
 10
331.5820486886
 20
151.4688218177
 11
331.5820486886
 21
151.6688218177
  0
LINE
  5
3B4
100
AcDbEntity
  8
0
100
AcDbLine
 62
7
  6
CONTINUOUS
 10
331.5880796209
 20
237.4688218177
 11
331.5880796209
 21
236.711958226
  0
LINE
  5
3B5
100
AcDbEntity
  8
0
100
AcDbLine
 62
7
  6
CONTINUOUS
 10
331.5880796209
 20
233.6688218177
 11
331.5880796209
 21
233.6206808826
  0
LINE
  5
3B6
100
AcDbEntity
  8
0
100
AcDbLine
 62
7
  6
CONTINUOUS
 10
331.6202452897
 20
233.6688218177
 11
331.6202452897
 21
233.6206808825
  0
LINE
  5
3B7
100
AcDbEntity
  8
0
100
AcDbLine
 62
7
  6
CONTINUOUS
 10
331.6320486886
 20
190.0083495763
 11
331.6320486886
 21
225.7688218177
  0
LINE
  5
3B8
100
AcDbEntity
  8
0
100
AcDbLine
 62
7
  6
CONTINUOUS
 10
331.6413913896
 20
152.8501273762
 11
331.6413913896
 21
151.7875162592
  0
LINE
  5
3B9
100
AcDbEntity
  8
0
100
AcDbLine
 62
7
  6
CONTINUOUS
 10
331.6413913896
 20
157.0188218177
 11
331.6413913896
 21
157.3037319475
  0
LINE
  5
3BA
100
AcDbEntity
  8
0
100
AcDbLine
 62
7
  6
CONTINUOUS
 10
331.673974912
 20
190.0013680821
 11
331.673974912
 21
225.8107480411
  0
LINE
  5
3BB
100
AcDbEntity
  8
0
100
AcDbLine
 62
7
  6
CONTINUOUS
 10
331.6820486886
 20
237.4688218177
 11
331.6820486886
 21
236.7188244128
  0
LINE
  5
3BC
100
AcDbEntity
  8
0
100
AcDbLine
 62
7
  6
CONTINUOUS
 10
331.7579724384
 20
232.1688218177
 11
331.7579724384
 21
231.9688218177
  0
LINE
  5
3BD
100
AcDbEntity
  8
0
100
AcDbLine
 62
7
  6
CONTINUOUS
 10
331.7579724384
 20
228.9188218177
 11
331.7579724384
 21
228.5526061293
  0
LINE
  5
3BE
100
AcDbEntity
  8
0
100
AcDbLine
 62
7
  6
CONTINUOUS
 10
331.8173151394
 20
233.3501273762
 11
331.8173151394
 21
232.2875162592
  0
LINE
  5
3BF
100
AcDbEntity
  8
0
100
AcDbLine
 62
7
  6
CONTINUOUS
 10
331.8173151394
 20
228.4339116878
 11
331.8173151394
 21
229.4688218177
  0
LINE
  5
3C0
100
AcDbEntity
  8
0
100
AcDbLine
 62
7
  6
CONTINUOUS
 10
331.8228480396
 20
229.4688218177
 11
331.82284322
 21
241.8188218177
  0
LINE
  5
3C1
100
AcDbEntity
  8
0
100
AcDbLine
 62
7
  6
CONTINUOUS
 10
332.3304054411
 20
241.8188218177
 11
332.3304054411
 21
229.4688218177
  0
LINE
  5
3C2
100
AcDbEntity
  8
0
100
AcDbLine
 62
7
  6
CONTINUOUS
 10
322.6320486886
 20
205.6088218177
 11
325.9770486886
 21
205.6088218177
  0
LINE
  5
3C3
100
AcDbEntity
  8
0
100
AcDbLine
 62
7
  6
CONTINUOUS
 10
309.0820486886
 20
205.9588218177
 11
309.1820486886
 21
205.9588218177
  0
LINE
  5
3C4
100
AcDbEntity
  8
0
100
AcDbLine
 62
7
  6
CONTINUOUS
 10
325.3020486886
 20
205.9588218177
 11
326.1320486886
 21
205.9588218177
  0
LINE
  5
3C5
100
AcDbEntity
  8
0
100
AcDbLine
 62
7
  6
CONTINUOUS
 10
316.6820486886
 20
206.0188218177
 11
319.7820486886
 21
206.0188218177
  0
LINE
  5
3C6
100
AcDbEntity
  8
0
100
AcDbLine
 62
7
  6
CONTINUOUS
 10
326.1320486886
 20
206.5588218177
 11
325.3020486886
 21
206.5588218177
  0
LINE
  5
3C7
100
AcDbEntity
  8
0
100
AcDbLine
 62
7
  6
CONTINUOUS
 10
309.1820486886
 20
206.5588218177
 11
309.0820486886
 21
206.5588218177
  0
LINE
  5
3C8
100
AcDbEntity
  8
0
100
AcDbLine
 62
7
  6
CONTINUOUS
 10
322.6320486886
 20
206.9088218177
 11
325.9770486886
 21
206.9088218177
  0
LINE
  5
3C9
100
AcDbEntity
  8
0
100
AcDbLine
 62
7
  6
CONTINUOUS
 10
319.7820486886
 20
207.6188218177
 11
316.6820486886
 21
207.6188218177
  0
LINE
  5
3CA
100
AcDbEntity
  8
0
100
AcDbLine
 62
7
  6
CONTINUOUS
 10
322.6320486886
 20
208.1488218177
 11
325.9770486886
 21
208.1488218177
  0
LINE
  5
3CB
100
AcDbEntity
  8
0
100
AcDbLine
 62
7
  6
CONTINUOUS
 10
309.0820486886
 20
208.4988218177
 11
309.1820486886
 21
208.4988218177
  0
LINE
  5
3CC
100
AcDbEntity
  8
0
100
AcDbLine
 62
7
  6
CONTINUOUS
 10
325.3020486886
 20
208.4988218177
 11
326.1320486886
 21
208.4988218177
  0
LINE
  5
3CD
100
AcDbEntity
  8
0
100
AcDbLine
 62
7
  6
CONTINUOUS
 10
303.5401224652
 20
225.8107480411
 11
303.5820486886
 21
225.7688218177
  0
LINE
  5
3CE
100
AcDbEntity
  8
0
100
AcDbLine
 62
7
  6
CONTINUOUS
 10
315.6820486886
 20
245.0403977485
 11
316.4570486886
 21
242.5054869692
  0
LINE
  5
3CF
100
AcDbEntity
  8
0
100
AcDbLine
 62
7
  6
CONTINUOUS
 10
333.6820486886
 20
141.6530113296
 11
333.6820486886
 21
241.8188218177
  0
LINE
  5
3D0
100
AcDbEntity
  8
0
100
AcDbLine
 62
7
  6
CONTINUOUS
 10
326.1320486886
 20
209.0988218177
 11
325.3020486886
 21
209.0988218177
  0
LINE
  5
3D1
100
AcDbEntity
  8
0
100
AcDbLine
 62
7
  6
CONTINUOUS
 10
309.1820486886
 20
209.0988218177
 11
309.0820486886
 21
209.0988218177
  0
LINE
  5
3D2
100
AcDbEntity
  8
0
100
AcDbLine
 62
7
  6
CONTINUOUS
 10
322.6320486886
 20
209.4488218177
 11
325.9770486886
 21
209.4488218177
  0
LINE
  5
3D3
100
AcDbEntity
  8
0
100
AcDbLine
 62
7
  6
CONTINUOUS
 10
305.3570486886
 20
152.9688218177
 11
305.2889088941
 21
152.9006820232
  0
LINE
  5
3D4
100
AcDbEntity
  8
0
100
AcDbLine
 62
7
  6
CONTINUOUS
 10
326.1320486886
 20
213.9088218177
 11
317.8270486886
 21
213.9088218177
  0
LINE
  5
3D5
100
AcDbEntity
  8
0
100
AcDbLine
 62
7
  6
CONTINUOUS
 10
316.6820486886
 20
213.9088218177
 11
317.5370486886
 21
213.9088218177
  0
LINE
  5
3D6
100
AcDbEntity
  8
0
100
AcDbLine
 62
7
  6
CONTINUOUS
 10
317.5370486886
 20
215.4388218177
 11
317.8270486886
 21
215.4388218177
  0
LINE
  5
3D7
100
AcDbEntity
  8
0
100
AcDbLine
 62
7
  6
CONTINUOUS
 10
309.0820486886
 20
215.6588218177
 11
309.1820486886
 21
215.6588218177
  0
LINE
  5
3D8
100
AcDbEntity
  8
0
100
AcDbLine
 62
7
  6
CONTINUOUS
 10
305.2889088941
 20
232.2369616122
 11
305.3570486886
 21
232.1688218177
  0
LINE
  5
3D9
100
AcDbEntity
  8
0
100
AcDbLine
 62
7
  6
CONTINUOUS
 10
303.6820486886
 20
237.4688218177
 11
303.5467822379
 21
237.6040882684
  0
LINE
  5
3DA
100
AcDbEntity
  8
0
100
AcDbLine
 62
7
  6
CONTINUOUS
 10
316.1520486886
 20
241.4438218177
 11
316.163845818
 21
241.4200439433
  0
LINE
  5
3DB
100
AcDbEntity
  8
0
100
AcDbLine
 62
7
  6
CONTINUOUS
 10
303.7820486886
 20
147.6688218177
 11
303.670603268
 21
147.557376397
  0
LINE
  5
3DC
100
AcDbEntity
  8
0
100
AcDbLine
 62
7
  6
CONTINUOUS
 10
309.0820486886
 20
217.6588218177
 11
309.1820486886
 21
217.6588218177
  0
LINE
  5
3DD
100
AcDbEntity
  8
0
100
AcDbLine
 62
7
  6
CONTINUOUS
 10
317.5370486886
 20
217.9388218177
 11
317.8270486886
 21
217.9388218177
  0
LINE
  5
3DE
100
AcDbEntity
  8
0
100
AcDbLine
 62
7
  6
CONTINUOUS
 10
309.0820486886
 20
219.3088218177
 11
309.1820486886
 21
219.3088218177
  0
LINE
  5
3DF
100
AcDbEntity
  8
0
100
AcDbLine
 62
7
  6
CONTINUOUS
 10
319.2073460256
 20
239.5289550843
 11
319.152854122
 21
239.6355049226
  0
LINE
  5
3E0
100
AcDbEntity
  8
0
100
AcDbLine
 62
7
  6
CONTINUOUS
 10
331.6413913896
 20
157.3037319475
 11
331.5820486886
 21
157.185037506
  0
LINE
  5
3E1
100
AcDbEntity
  8
0
100
AcDbLine
 62
7
  6
CONTINUOUS
 10
317.5370486886
 20
219.4088218177
 11
316.6820486886
 21
219.4088218177
  0
LINE
  5
3E2
100
AcDbEntity
  8
0
100
AcDbLine
 62
7
  6
CONTINUOUS
 10
317.8270486886
 20
219.4088218177
 11
326.1320486886
 21
219.4088218177
  0
LINE
  5
3E3
100
AcDbEntity
  8
0
100
AcDbLine
 62
7
  6
CONTINUOUS
 10
309.0820486886
 20
219.8088218177
 11
309.1820486886
 21
219.8088218177
  0
LINE
  5
3E4
100
AcDbEntity
  8
0
100
AcDbLine
 62
7
  6
CONTINUOUS
 10
309.0820486886
 20
220.5788218177
 11
309.1820486886
 21
220.5788218177
  0
LINE
  5
3E5
100
AcDbEntity
  8
0
100
AcDbLine
 62
7
  6
CONTINUOUS
 10
309.0820486886
 20
221.0788218177
 11
309.1820486886
 21
221.0788218177
  0
LINE
  5
3E6
100
AcDbEntity
  8
0
100
AcDbLine
 62
7
  6
CONTINUOUS
 10
326.1320486886
 20
221.4088218177
 11
321.9220486886
 21
221.4088218177
  0
LINE
  5
3E7
100
AcDbEntity
  8
0
100
AcDbLine
 62
7
  6
CONTINUOUS
 10
313.9620486886
 20
221.6388218177
 11
312.3620486886
 21
221.6388218177
  0
LINE
  5
3E8
100
AcDbEntity
  8
0
100
AcDbLine
 62
7
  6
CONTINUOUS
 10
326.1320486886
 20
222.2188218177
 11
319.8320486886
 21
222.2188218177
  0
LINE
  5
3E9
100
AcDbEntity
  8
0
100
AcDbLine
 62
7
  6
CONTINUOUS
 10
309.1820486886
 20
222.2188218177
 11
309.0820486886
 21
222.2188218177
  0
LINE
  5
3EA
100
AcDbEntity
  8
0
100
AcDbLine
 62
7
  6
CONTINUOUS
 10
331.7579724384
 20
228.5526061293
 11
331.8173151394
 21
228.4339116878
  0
LINE
  5
3EB
100
AcDbEntity
  8
0
100
AcDbLine
 62
7
  6
CONTINUOUS
 10
331.6413913896
 20
151.7875162592
 11
331.5820486886
 21
151.6688218177
  0
LINE
  5
3EC
100
AcDbEntity
  8
0
100
AcDbLine
 62
7
  6
CONTINUOUS
 10
314.6161705959
 20
223.6547651783
 11
311.2161705957
 21
222.743737924
  0
LINE
  5
3ED
100
AcDbEntity
  8
0
100
AcDbLine
 62
7
  6
CONTINUOUS
 10
311.0161744075
 20
224.0256553796
 11
314.4161744075
 21
224.9366826339
  0
LINE
  5
3EE
100
AcDbEntity
  8
0
100
AcDbLine
 62
7
  6
CONTINUOUS
 10
325.9112958
 20
225.6907763262
 11
325.9320486886
 21
225.6916450864
  0
LINE
  5
3EF
100
AcDbEntity
  8
0
100
AcDbLine
 62
7
  6
CONTINUOUS
 10
324.6320486886
 20
223.4188218177
 11
325.9320486886
 21
223.4188218177
  0
LINE
  5
3F0
100
AcDbEntity
  8
0
100
AcDbLine
 62
7
  6
CONTINUOUS
 10
318.6820463913
 20
224.4188218177
 11
324.6320486886
 21
224.4188218177
  0
LINE
  5
3F1
100
AcDbEntity
  8
0
100
AcDbLine
 62
7
  6
CONTINUOUS
 10
324.6320486886
 20
224.445002421
 11
316.6820486886
 21
224.445002421
  0
LINE
  5
3F2
100
AcDbEntity
  8
0
100
AcDbLine
 62
7
  6
CONTINUOUS
 10
325.9058680852
 20
225.0688218177
 11
316.6820486886
 21
225.0688218177
  0
LINE
  5
3F3
100
AcDbEntity
  8
0
100
AcDbLine
 62
7
  6
CONTINUOUS
 10
331.6320486886
 20
225.7688218177
 11
329.6320486886
 21
225.7688218177
  0
LINE
  5
3F4
100
AcDbEntity
  8
0
100
AcDbLine
 62
7
  6
CONTINUOUS
 10
328.0320486886
 20
225.7688218177
 11
326.14252093
 21
225.7688218177
  0
LINE
  5
3F5
100
AcDbEntity
  8
0
100
AcDbLine
 62
7
  6
CONTINUOUS
 10
326.1320486886
 20
225.7688218177
 11
309.0820486886
 21
225.7688218177
  0
LINE
  5
3F6
100
AcDbEntity
  8
0
100
AcDbLine
 62
7
  6
CONTINUOUS
 10
309.0715764473
 20
225.7688218177
 11
307.1820486886
 21
225.7688218177
  0
LINE
  5
3F7
100
AcDbEntity
  8
0
100
AcDbLine
 62
7
  6
CONTINUOUS
 10
305.5820486886
 20
225.7688218177
 11
303.5820486886
 21
225.7688218177
  0
LINE
  5
3F8
100
AcDbEntity
  8
0
100
AcDbLine
 62
7
  6
CONTINUOUS
 10
329.6163263548
 20
225.7845441515
 11
328.0477710224
 21
225.7845441515
  0
LINE
  5
3F9
100
AcDbEntity
  8
0
100
AcDbLine
 62
7
  6
CONTINUOUS
 10
307.1663263548
 20
225.7845441515
 11
305.5977710224
 21
225.7845441515
  0
LINE
  5
3FA
100
AcDbEntity
  8
0
100
AcDbLine
 62
7
  6
CONTINUOUS
 10
331.673974912
 20
225.8107480411
 11
326.1495024242
 21
225.8107480411
  0
LINE
  5
3FB
100
AcDbEntity
  8
0
100
AcDbLine
 62
7
  6
CONTINUOUS
 10
309.064594953
 20
225.8107480411
 11
303.5401224652
 21
225.8107480411
  0
LINE
  5
3FC
100
AcDbEntity
  8
0
100
AcDbLine
 62
7
  6
CONTINUOUS
 10
331.6820486886
 20
233.6206808825
 11
331.8173151394
 21
233.3501273762
  0
LINE
  5
3FD
100
AcDbEntity
  8
0
100
AcDbLine
 62
7
  6
CONTINUOUS
 10
326.1495024242
 20
227.7188218177
 11
309.064594953
 21
227.7188218177
  0
LINE
  5
3FE
100
AcDbEntity
  8
0
100
AcDbLine
 62
7
  6
CONTINUOUS
 10
331.8173151394
 20
228.4339116878
 11
303.5467822379
 21
228.4339116878
  0
LINE
  5
3FF
100
AcDbEntity
  8
0
100
AcDbLine
 62
7
  6
CONTINUOUS
 10
312.6820486886
 20
228.4566032722
 11
322.6820486886
 21
228.4566032722
  0
LINE
  5
400
100
AcDbEntity
  8
0
100
AcDbLine
 62
7
  6
CONTINUOUS
 10
303.8757653741
 20
228.4827858696
 11
312.6820486886
 21
228.4827858696
  0
LINE
  5
401
100
AcDbEntity
  8
0
100
AcDbLine
 62
7
  6
CONTINUOUS
 10
322.6820486886
 20
228.4827858696
 11
331.4883320031
 21
228.4827858696
  0
LINE
  5
402
100
AcDbEntity
  8
0
100
AcDbLine
 62
7
  6
CONTINUOUS
 10
303.8443488016
 20
228.5526061293
 11
303.6061249388
 21
228.5526061293
  0
LINE
  5
403
100
AcDbEntity
  8
0
100
AcDbLine
 62
7
  6
CONTINUOUS
 10
331.5197485756
 20
228.5526061293
 11
331.7579724384
 21
228.5526061293
  0
LINE
  5
404
100
AcDbEntity
  8
0
100
AcDbLine
 62
7
  6
CONTINUOUS
 10
303.3293758895
 20
228.9188218177
 11
332.0347214877
 21
228.9188218177
  0
LINE
  5
405
100
AcDbEntity
  8
0
100
AcDbLine
 62
7
  6
CONTINUOUS
 10
301.6820486886
 20
229.4688218177
 11
303.5412493376
 21
229.4688218177
  0
LINE
  5
406
100
AcDbEntity
  8
0
100
AcDbLine
 62
7
  6
CONTINUOUS
 10
331.8228480396
 20
229.4688218177
 11
333.6820486886
 21
229.4688218177
  0
LINE
  5
407
100
AcDbEntity
  8
0
100
AcDbLine
 62
7
  6
CONTINUOUS
 10
330.0070486886
 20
151.6688218177
 11
330.0751884831
 21
151.7369616122
  0
LINE
  5
408
100
AcDbEntity
  8
0
100
AcDbLine
 62
7
  6
CONTINUOUS
 10
331.4257431301
 20
232.2875162592
 11
330.0751884831
 21
232.2369616122
  0
LINE
  5
409
100
AcDbEntity
  8
0
100
AcDbLine
 62
7
  6
CONTINUOUS
 10
303.9383542471
 20
233.3501273762
 11
305.2889088941
 21
233.4006820232
  0
LINE
  5
40A
100
AcDbEntity
  8
0
100
AcDbLine
 62
7
  6
CONTINUOUS
 10
303.4385488252
 20
231.9688218177
 11
306.8820486886
 21
231.9688218177
  0
LINE
  5
40B
100
AcDbEntity
  8
0
100
AcDbLine
 62
7
  6
CONTINUOUS
 10
328.4820486886
 20
231.9688218177
 11
331.9255481871
 21
231.9688218177
  0
LINE
  5
40C
100
AcDbEntity
  8
0
100
AcDbLine
 62
7
  6
CONTINUOUS
 10
306.3820486886
 20
232.0688218177
 11
316.1820486886
 21
232.0688218177
  0
LINE
  5
40D
100
AcDbEntity
  8
0
100
AcDbLine
 62
7
  6
CONTINUOUS
 10
319.1820486886
 20
232.0688218177
 11
328.9820486886
 21
232.0688218177
  0
LINE
  5
40E
100
AcDbEntity
  8
0
100
AcDbLine
 62
7
  6
CONTINUOUS
 10
305.3570486886
 20
232.1688218177
 11
303.6061249388
 21
232.1688218177
  0
LINE
  5
40F
100
AcDbEntity
  8
0
100
AcDbLine
 62
7
  6
CONTINUOUS
 10
330.0070486886
 20
232.1688218177
 11
331.7579724384
 21
232.1688218177
  0
LINE
  5
410
100
AcDbEntity
  8
0
100
AcDbLine
 62
7
  6
CONTINUOUS
 10
303.5467822379
 20
232.2875162592
 11
303.9383542471
 21
232.2875162592
  0
LINE
  5
411
100
AcDbEntity
  8
0
100
AcDbLine
 62
7
  6
CONTINUOUS
 10
331.4257431301
 20
232.2875162592
 11
331.8173151394
 21
232.2875162592
  0
LINE
  5
412
100
AcDbEntity
  8
0
100
AcDbLine
 62
7
  6
CONTINUOUS
 10
331.8173151394
 20
233.3501273762
 11
331.4257431301
 21
233.3501273762
  0
LINE
  5
413
100
AcDbEntity
  8
0
100
AcDbLine
 62
7
  6
CONTINUOUS
 10
303.9383542471
 20
233.3501273762
 11
303.5467822379
 21
233.3501273762
  0
LINE
  5
414
100
AcDbEntity
  8
0
100
AcDbLine
 62
7
  6
CONTINUOUS
 10
303.8443488016
 20
233.4688218177
 11
305.3570486886
 21
233.4688218177
  0
LINE
  5
415
100
AcDbEntity
  8
0
100
AcDbLine
 62
7
  6
CONTINUOUS
 10
330.0070486886
 20
233.4688218177
 11
331.5197485756
 21
233.4688218177
  0
LINE
  5
416
100
AcDbEntity
  8
0
100
AcDbLine
 62
7
  6
CONTINUOUS
 10
306.3820486886
 20
233.5688218177
 11
316.1820486886
 21
233.5688218177
  0
LINE
  5
417
100
AcDbEntity
  8
0
100
AcDbLine
 62
7
  6
CONTINUOUS
 10
319.1820486886
 20
233.5688218177
 11
328.9820486886
 21
233.5688218177
  0
LINE
  5
418
100
AcDbEntity
  8
0
100
AcDbLine
 62
7
  6
CONTINUOUS
 10
303.7760177564
 20
233.6206808826
 11
303.7438520875
 21
233.6206808826
  0
LINE
  5
419
100
AcDbEntity
  8
0
100
AcDbLine
 62
7
  6
CONTINUOUS
 10
331.5880796209
 20
233.6206808825
 11
331.6202452897
 21
233.6206808825
  0
LINE
  5
41A
100
AcDbEntity
  8
0
100
AcDbLine
 62
7
  6
CONTINUOUS
 10
303.384536657
 20
233.6688218177
 11
306.8820486886
 21
233.6688218177
  0
LINE
  5
41B
100
AcDbEntity
  8
0
100
AcDbLine
 62
7
  6
CONTINUOUS
 10
328.4820486886
 20
233.6688218177
 11
331.9795617183
 21
233.6688218177
  0
LINE
  5
41C
100
AcDbEntity
  8
0
100
AcDbLine
 62
7
  6
CONTINUOUS
 10
303.9383542471
 20
232.2875162592
 11
305.2889088941
 21
232.2369616122
  0
LINE
  5
41D
100
AcDbEntity
  8
0
100
AcDbLine
 62
7
  6
CONTINUOUS
 10
331.4257431301
 20
233.3501273762
 11
330.0751884831
 21
233.4006820232
  0
LINE
  5
41E
100
AcDbEntity
  8
0
100
AcDbLine
 62
7
  6
CONTINUOUS
 10
330.0751884831
 20
233.4006820232
 11
330.0070486886
 21
233.4688218177
  0
LINE
  5
41F
100
AcDbEntity
  8
0
100
AcDbLine
 62
7
  6
CONTINUOUS
 10
303.3950814637
 20
236.7188218177
 11
331.9690159135
 21
236.7188218177
  0
LINE
  5
420
100
AcDbEntity
  8
0
100
AcDbLine
 62
7
  6
CONTINUOUS
 10
327.6020486886
 20
237.2788218177
 11
325.8020486886
 21
237.2788218177
  0
LINE
  5
421
100
AcDbEntity
  8
0
100
AcDbLine
 62
7
  6
CONTINUOUS
 10
312.6820486886
 20
237.4688218177
 11
303.6820486886
 21
237.4688218177
  0
LINE
  5
422
100
AcDbEntity
  8
0
100
AcDbLine
 62
7
  6
CONTINUOUS
 10
322.6820486886
 20
237.4688218177
 11
331.6820486886
 21
237.4688218177
  0
LINE
  5
423
100
AcDbEntity
  8
0
100
AcDbLine
 62
7
  6
CONTINUOUS
 10
331.8173151394
 20
237.6040882684
 11
318.6820486886
 21
237.6040882684
  0
LINE
  5
424
100
AcDbEntity
  8
0
100
AcDbLine
 62
7
  6
CONTINUOUS
 10
316.6820486886
 20
237.6040882684
 11
303.5467822379
 21
237.6040882684
  0
LINE
  5
425
100
AcDbEntity
  8
0
100
AcDbLine
 62
7
  6
CONTINUOUS
 10
321.6820486886
 20
245.4188218177
 11
327.9174315959
 21
241.8188218177
  0
LINE
  5
426
100
AcDbEntity
  8
0
100
AcDbLine
 62
7
  6
CONTINUOUS
 10
301.6820486886
 20
241.8188218177
 11
303.5412517954
 21
241.8188218177
  0
LINE
  5
427
100
AcDbEntity
  8
0
100
AcDbLine
 62
7
  6
CONTINUOUS
 10
303.5467822379
 20
241.8188218177
 11
307.4466657814
 21
241.8188218177
  0
LINE
  5
428
100
AcDbEntity
  8
0
100
AcDbLine
 62
7
  6
CONTINUOUS
 10
327.9174315959
 20
241.8188218177
 11
331.8173151394
 21
241.8188218177
  0
LINE
  5
429
100
AcDbEntity
  8
0
100
AcDbLine
 62
7
  6
CONTINUOUS
 10
331.8228455818
 20
241.8188218177
 11
333.6820486886
 21
241.8188218177
  0
LINE
  5
42A
100
AcDbEntity
  8
0
100
AcDbLine
 62
7
  6
CONTINUOUS
 10
321.6820486886
 20
245.4188218177
 11
319.6820486886
 21
245.4188218177
  0
LINE
  5
42B
100
AcDbEntity
  8
0
100
AcDbLine
 62
7
  6
CONTINUOUS
 10
315.6820486886
 20
245.4188218177
 11
313.6820486886
 21
245.4188218177
  0
ARC
  5
42C
100
AcDbEntity
  8
0
100
AcDbCircle
 62
7
  6
CONTINUOUS
 10
314.8820486886
 20
223.1980161466
 40
1.8
100
AcDbArc
 50
0.0
 51
104.9999999993
  0
ARC
  5
42D
100
AcDbEntity
  8
0
100
AcDbCircle
 62
7
  6
CONTINUOUS
 10
311.4820486886
 20
222.2869888923
 40
1.8
100
AcDbArc
 50
104.9999999988
 51
180.0
  0
ARC
  5
42E
100
AcDbEntity
  8
0
100
AcDbCircle
 62
7
  6
CONTINUOUS
 10
311.4820486886
 20
195.2406547431
 40
1.8
100
AcDbArc
 50
180.0
 51
255.0000000029
  0
ARC
  5
42F
100
AcDbEntity
  8
0
100
AcDbCircle
 62
7
  6
CONTINUOUS
 10
314.8820486886
 20
194.3296274888
 40
1.8
100
AcDbArc
 50
255.0000000009
 51
360.0
  0
ARC
  5
430
100
AcDbEntity
  8
0
100
AcDbCircle
 62
7
  6
CONTINUOUS
 10
314.8620486886
 20
194.790507992
 40
0.95
100
AcDbArc
 50
255.0000000029
 51
359.9999999997
  0
ARC
  5
431
100
AcDbEntity
  8
0
100
AcDbCircle
 62
7
  6
CONTINUOUS
 10
311.4620486886
 20
195.7015352463
 40
0.95
100
AcDbArc
 50
180.0
 51
255.0000000004
  0
ARC
  5
432
100
AcDbEntity
  8
0
100
AcDbCircle
 62
7
  6
CONTINUOUS
 10
311.4620486886
 20
221.8261083891
 40
0.95
100
AcDbArc
 50
105.0000000029
 51
180.0000000017
  0
ARC
  5
433
100
AcDbEntity
  8
0
100
AcDbCircle
 62
7
  6
CONTINUOUS
 10
314.8620486886
 20
222.7371356433
 40
0.95
100
AcDbArc
 50
0.0
 51
104.9999999932
  0
CIRCLE
  5
434
100
AcDbEntity
  8
0
100
AcDbCircle
 62
7
  6
CONTINUOUS
 10
314.6820486886
 20
152.3188218177
 40
0.6
  0
CIRCLE
  5
435
100
AcDbEntity
  8
0
100
AcDbCircle
 62
7
  6
CONTINUOUS
 10
314.6820486886
 20
232.8188218177
 40
0.6
  0
CIRCLE
  5
436
100
AcDbEntity
  8
0
100
AcDbCircle
 62
7
  6
CONTINUOUS
 10
314.6820486886
 20
152.3188218177
 40
0.5037624701
  0
CIRCLE
  5
437
100
AcDbEntity
  8
0
100
AcDbCircle
 62
7
  6
CONTINUOUS
 10
314.6820486886
 20
232.8188218177
 40
0.5037624701
  0
CIRCLE
  5
438
100
AcDbEntity
  8
0
100
AcDbCircle
 62
7
  6
CONTINUOUS
 10
317.6820486886
 20
182.8188218177
 40
5.0
  0
ARC
  5
439
100
AcDbEntity
  8
0
100
AcDbCircle
 62
7
  6
CONTINUOUS
 10
317.6820486886
 20
240.5688218177
 40
3.75
100
AcDbArc
 50
63.680379925
 51
116.3186009386
  0
CIRCLE
  5
43A
100
AcDbEntity
  8
0
100
AcDbCircle
 62
7
  6
CONTINUOUS
 10
317.6820486886
 20
163.8688218177
 40
3.0
  0
CIRCLE
  5
43B
100
AcDbEntity
  8
0
100
AcDbCircle
 62
7
  6
CONTINUOUS
 10
317.6820486886
 20
240.5688218177
 40
1.75
  0
ARC
  5
43C
100
AcDbEntity
  8
0
100
AcDbCircle
 62
7
  6
CONTINUOUS
 10
317.6820486886
 20
241.5888218177
 40
1.53
100
AcDbArc
 50
0.0
 51
36.807438538
  0
ARC
  5
43D
100
AcDbEntity
  8
0
100
AcDbCircle
 62
7
  6
CONTINUOUS
 10
317.6820486886
 20
241.5888218177
 40
1.53
100
AcDbArc
 50
143.192561462
 51
180.0
  0
ARC
  5
43E
100
AcDbEntity
  8
0
100
AcDbCircle
 62
7
  6
CONTINUOUS
 10
317.6820486886
 20
239.6488218177
 40
1.53
100
AcDbArc
 50
184.4934006678
 51
355.5065993322
  0
CIRCLE
  5
43F
100
AcDbEntity
  8
0
100
AcDbCircle
 62
7
  6
CONTINUOUS
 10
317.6820486886
 20
240.5688218177
 40
1.45
  0
CIRCLE
  5
440
100
AcDbEntity
  8
0
100
AcDbCircle
 62
7
  6
CONTINUOUS
 10
317.6820486886
 20
240.5688218177
 40
0.6
  0
CIRCLE
  5
441
100
AcDbEntity
  8
0
100
AcDbCircle
 62
7
  6
CONTINUOUS
 10
320.6820486886
 20
152.3188218177
 40
0.6
  0
CIRCLE
  5
442
100
AcDbEntity
  8
0
100
AcDbCircle
 62
7
  6
CONTINUOUS
 10
320.6820486886
 20
232.8188218177
 40
0.6
  0
CIRCLE
  5
443
100
AcDbEntity
  8
0
100
AcDbCircle
 62
7
  6
CONTINUOUS
 10
320.6820486886
 20
152.3188218177
 40
0.5037624701
  0
CIRCLE
  5
444
100
AcDbEntity
  8
0
100
AcDbCircle
 62
7
  6
CONTINUOUS
 10
320.6820486886
 20
232.8188218177
 40
0.5037624701
  0
CIRCLE
  5
445
100
AcDbEntity
  8
0
100
AcDbCircle
 62
7
  6
CONTINUOUS
 10
317.6820486886
 20
240.5688218177
 40
0.4
  0
ARC
  5
446
100
AcDbEntity
  8
0
100
AcDbCircle
 62
7
  6
CONTINUOUS
 10
317.6820486886
 20
422.5188218177
 40
197.0
100
AcDbArc
 50
269.7091082129
 51
272.3941033587
  0
ARC
  5
447
100
AcDbEntity
  8
0
100
AcDbCircle
 62
7
  6
CONTINUOUS
 10
317.6820486886
 20
422.5188218177
 40
197.0
100
AcDbArc
 50
267.4971872563
 51
267.5270773182
  0
ARC
  5
448
100
AcDbEntity
  8
0
100
AcDbCircle
 62
7
  6
CONTINUOUS
 10
317.6820486886
 20
422.5188218177
 40
197.0
100
AcDbArc
 50
272.4001444467
 51
272.4592356655
  0
ARC
  5
449
100
AcDbEntity
  8
0
100
AcDbCircle
 62
7
  6
CONTINUOUS
 10
317.6820486886
 20
420.6688218177
 40
195.0
100
AcDbArc
 50
269.7061094338
 51
271.6751230664
  0
SPLINE
  5
44A
100
AcDbEntity
  8
0
100
AcDbSpline
 62
7
  6
CONTINUOUS
 70
0
 71
3
 72
35
 73
31
 74
0
 42
0.0000001
 43
0.0000001
 44
0.0000000001
 40
0.0
 40
0.0
 40
0.0
 40
0.0
 40
0.0006420611
 40
0.0024651258
 40
0.0054789696
 40
0.0096772242
 40
0.021593381
 40
0.0381308099
 40
0.0591143551
 40
0.0843286328
 40
0.1135534495
 40
0.1465041492
 40
0.2222475113
 40
0.3086770266
 40
0.4024554027
 40
0.4999835753
 40
0.5975121633
 40
0.6912914503
 40
0.7777264979
 40
0.8534772963
 40
0.8864331058
 40
0.9156611679
 40
0.9408789259
 40
0.9618657944
 40
0.9784051345
 40
0.9903221796
 40
0.9945207135
 40
0.9975347422
 40
0.999357909
 40
1.0
 40
1.0
 40
1.0
 40
1.0
 10
316.6820509861
 20
224.4188218177
 30
0.0
 10
316.6820509861
 20
224.419249932
 30
0.0
 10
316.6845340575
 20
224.4192001448
 30
0.0
 10
316.6873616216
 20
224.419898697
 30
0.0
 10
316.6938251131
 20
224.4201095019
 30
0.0
 10
316.7062927463
 20
224.4208376497
 30
0.0
 10
316.7282550591
 20
224.4214537965
 30
0.0
 10
316.7611138015
 20
224.4222700353
 30
0.0
 10
316.8029746971
 20
224.4230055287
 30
0.0
 10
316.8532470192
 20
224.4237310121
 30
0.0
 10
316.911517348
 20
224.4244052718
 30
0.0
 10
317.0034731815
 20
224.4252813202
 30
0.0
 10
317.1335760209
 20
224.4261831445
 30
0.0
 10
317.3042374657
 20
224.4269608452
 30
0.0
 10
317.4894262623
 20
224.4274406806
 30
0.0
 10
317.6820161078
 20
224.4276037087
 30
0.0
 10
317.8746065611
 20
224.4274408253
 30
0.0
 10
318.0597999307
 20
224.4269610062
 30
0.0
 10
318.2304706312
 20
224.4261834955
 30
0.0
 10
318.3605855246
 20
224.4252815759
 30
0.0
 10
318.4525518885
 20
224.424405605
 30
0.0
 10
318.5108301094
 20
224.4237312698
 30
0.0
 10
318.5611091293
 20
224.4230057246
 30
0.0
 10
318.6029758434
 20
224.4222702
 30
0.0
 10
318.6358386529
 20
224.4214538817
 30
0.0
 10
318.6578030401
 20
224.4208376906
 30
0.0
 10
318.6702715505
 20
224.4201095058
 30
0.0
 10
318.6767354565
 20
224.4198987206
 30
0.0
 10
318.6795631725
 20
224.4192001196
 30
0.0
 10
318.6820463912
 20
224.4192499519
 30
0.0
 10
318.6820463912
 20
224.4188218177
 30
0.0
  0
ELLIPSE
  5
44B
100
AcDbEntity
  8
0
100
AcDbEllipse
 62
7
  6
CONTINUOUS
 10
333.2434042464
 20
225.6688218177
 30
0.0
 11
-0.0
 21
96.4
 31
0.0
 40
0.0174550649
 41
1.4480779692
 42
1.4559008237
  0
ELLIPSE
  5
44C
100
AcDbEntity
  8
0
100
AcDbEllipse
 62
7
  6
CONTINUOUS
 10
302.1206931308
 20
225.6688218177
 30
0.0
 11
-0.0
 21
96.4
 31
0.0
 40
0.0174550649
 41
-1.4559008237
 42
-1.4480779692
  0
ELLIPSE
  5
44D
100
AcDbEntity
  8
0
100
AcDbEllipse
 62
7
  6
CONTINUOUS
 10
331.6457548235
 20
149.0188218177
 30
0.0
 11
-0.0
 21
8.0
 31
0.0
 40
0.0087268678
 41
-0.6405940421
 42
0.0
  0
ELLIPSE
  5
44E
100
AcDbEntity
  8
0
100
AcDbEllipse
 62
7
  6
CONTINUOUS
 10
303.7183425537
 20
149.0188218177
 30
0.0
 11
0.0
 21
8.0
 31
0.0
 40
0.0087268678
 41
-0.0000000331
 42
0.6405940421
  0
ENDSEC
  0
SECTION
  2
OBJECTS
  0
DICTIONARY
  5
C
100
AcDbDictionary
280
0
281
1
  3
ACAD_GROUP
350
D
  3
ACAD_MLINESTYLE
350
17
  3
ACAD_LAYOUT
350
1A
  3
ACAD_PLOTSETTINGS
350
19
  3
ACAD_PLOTSTYLENAME
350
E
  0
DICTIONARY
  5
D
102
{ACAD_REACTORS
330
C
102
}
100
AcDbDictionary
280
0
281
1
  0
ACDBDICTIONARYWDFLT
  5
E
102
{ACAD_REACTORS
330
C
102
}
100
AcDbDictionary
281
1
  3
Normal
350
F
100
AcDbDictionaryWithDefault
340
F
  0
DICTIONARY
  5
17
102
{ACAD_REACTORS
330
C
102
}
100
AcDbDictionary
280
0
281
1
  3
Standard
350
18
  0
DICTIONARY
  5
19
102
{ACAD_REACTORS
330
C
102
}
100
AcDbDictionary
281
1
  0
DICTIONARY
  5
1A
102
{ACAD_REACTORS
330
C
102
}
100
AcDbDictionary
281
1
  3
Model
350
44F
  3
Layout1
350
450
  0
ACDBPLACEHOLDER
  5
F
102
{ACAD_REACTORS
330
E
102
}
  0
MLINESTYLE
  5
18
102
{ACAD_REACTORS
330
17
102
}
100
AcDbMlineStyle
  2
STANDARD
 70
0
  3

 62
256
 51
90.0
 52
90.0
 71
2
 49
0.5
 62
256
  6
BYLAYER
 49
-0.5
 62
256
  6
BYLAYER
  0
LAYOUT
  5
44F
102
{ACAD_REACTORS
330
1A
102
}
100
AcDbPlotSettings
  1

  2
none_device
  4
ANSI_C_(22.00_x_17.00_Inches)
  6

 40
0.0
 41
0.0
 42
0.0
 43
0.0
 44
558.8
 45
431.8
 46
0.0
 47
0.0
 48
0.0
 49
0.0
140
0.0
141
0.0
142
1.0
143
1.0
 70
1024
 72
1
 73
0
 74
0
  7

 75
0
147
1.0
148
0.0
149
0.0
100
AcDbLayout
  1
Model
 70
0
 71
0
 10
0.0
 20
0.0
 11
558.8
 21
431.8
 12
0.0
 22
0.0
 32
0.0
 14
0.0
 24
0.0
 34
0.0
 15
0.0
 25
0.0
 35
0.0
146
0.0
 13
0.0
 23
0.0
 33
0.0
 16
1.0
 26
0.0
 36
0.0
 17
0.0
 27
1.0
 37
0.0
 76
0
330
216
345
0
346
0
  0
LAYOUT
  5
450
102
{ACAD_REACTORS
330
1A
102
}
100
AcDbPlotSettings
  1

  2
none_device
  4
ANSI_C_(22.00_x_17.00_Inches)
  6

 40
0.0
 41
0.0
 42
0.0
 43
0.0
 44
558.8
 45
431.8
 46
0.0
 47
0.0
 48
0.0
 49
0.0
140
0.0
141
0.0
142
1.0
143
1.0
 70
0
 72
1
 73
0
 74
0
  7

 75
0
147
1.0
148
0.0
149
0.0
100
AcDbLayout
  1
Layout1
 70
0
 71
1
 10
0.0
 20
0.0
 11
558.8
 21
431.8
 12
0.0
 22
0.0
 32
0.0
 14
0.0
 24
0.0
 34
0.0
 15
0.0
 25
0.0
 35
0.0
146
0.0
 13
0.0
 23
0.0
 33
0.0
 16
1.0
 26
0.0
 36
0.0
 17
0.0
 27
1.0
 37
0.0
 76
0
330
217
345
0
346
0
  0
ENDSEC
  0
EOF
