999
DXF file: C:\Users\sesa63760\Dev\_Creo\CAD\MCADPD0005304_3D-CAD\drw0001_6.dxf
999
Pro/ENGINEER 2019471 by Parametric Technology Corporation
  0
SECTION
  2
HEADER
  9
$ACADVER
  1
AC1024
  9
$DWGCODEPAGE
  3
ANSI_1252
  9
$EXTMAX
 10
105.4556562869
 20
149.1444281772
 30
0.0
  9
$EXTMIN
 10
0.0
 20
0.0
 30
0.0
  9
$LIMMIN
 10
0.0
 20
0.0
  9
$LIMMAX
 10
105.4556562869
 20
149.1444281772
  9
$VIEWCTR
 10
52.7278281435
 20
74.5722140886
  9
$VIEWSIZE
 40
149.1444281772
  9
$CLAYER
  8
0
  9
$LTSCALE
 40
9.7220071701
  9
$CELTYPE
  6
BYLAYER
  9
$DIMSCALE
 40
1.0
  9
$DIMASZ
 40
1.2554244796
  9
$DIMEXO
 40
1.0
  9
$DIMDLI
 40
6.7170231357
  9
$DIMEXE
 40
1.0
  9
$DIMCEN
 40
1.5908739006
  9
$DIMLFAC
 40
1.0
  9
$DIMBLK
  1
_FILLED
  9
$DIMALT
 70
0
  9
$DIMALTF
 40
0.0393700787
  9
$DIMTXT
 40
1.7575942714
  9
$DIMTOL
 70
1
  9
$DIMLIM
 70
0
  9
$DIMTFAC
 40
1.0
  9
$DIMTP
 40
0.01
  9
$DIMTM
 40
0.01
  9
$DIMGAP
 40
0.625
  9
$DIMDSEP
 70
46
  9
$AUNITS
 70
0
  9
$PDMODE
 70
3
  9
$PDSIZE
 40
0.3125
  9
$HANDSEED
  5
271
  9
$TILEMODE
 70
1
  9
$MEASUREMENT
 70
1
  9
$INSUNITS
 70
4
  0
ENDSEC
  0
SECTION
  2
CLASSES
  0
CLASS
  1
ACDBDICTIONARYWDFLT
  2
AcDbDictionaryWithDefault
  3
AutoCAD 2000
 90
0
 91
1
280
0
281
0
  0
CLASS
  1
ACDBPLACEHOLDER
  2
AcDbPlaceHolder
  3
AutoCAD 2000
 90
0
 91
1
280
0
281
0
  0
CLASS
  1
LAYOUT
  2
AcDbLayout
  3
AutoCAD 2000
 90
0
 91
0
280
0
281
0
  0
ENDSEC
  0
SECTION
  2
TABLES
  0
TABLE
  2
VPORT
  5
8
100
AcDbSymbolTable
 70
2
  0
VPORT
  5
1F4
100
AcDbSymbolTableRecord
100
AcDbViewportTableRecord
  2
*ACTIVE
 70
0
 10
0.0
 20
0.0
 11
1.0
 21
1.0
 12
52.7278281435
 22
74.5722140886
 13
0.0
 23
0.0
 14
1.0
 24
1.0
 15
0.0
 25
0.0
 16
0.0
 26
0.0
 36
1.0
 17
0.0
 27
0.0
 37
0.0
 40
149.1444281772
 41
0.7070707071
 42
50.0
 43
0.0
 44
0.0
 50
0.0
 51
0.0
 71
0
 72
100
 73
1
 74
1
 75
0
 76
0
 77
0
 78
0
  0
ENDTAB
  0
TABLE
  2
LTYPE
  5
5
100
AcDbSymbolTable
 70
6
  0
LTYPE
  5
14
100
AcDbSymbolTableRecord
100
AcDbLinetypeTableRecord
  2
BYBLOCK
 70
0
  3

 72
65
 73
0
 40
0.0
  0
LTYPE
  5
15
100
AcDbSymbolTableRecord
100
AcDbLinetypeTableRecord
  2
BYLAYER
 70
0
  3

 72
65
 73
0
 40
0.0
  0
LTYPE
  5
16
100
AcDbSymbolTableRecord
100
AcDbLinetypeTableRecord
  2
CONTINUOUS
 70
64
  3
Solid line
 72
65
 73
0
 40
0.0
  0
LTYPE
  5
1F5
100
AcDbSymbolTableRecord
100
AcDbLinetypeTableRecord
  2
CENTER
 70
64
  3
____ _ ____ _ ____ _ ____ _ ____ _ ____ _ ____
 72
65
 73
4
 40
0.6
 49
0.375
 74
0
 49
-0.075
 74
0
 49
0.075
 74
0
 49
-0.075
 74
0
  0
LTYPE
  5
1F6
100
AcDbSymbolTableRecord
100
AcDbLinetypeTableRecord
  2
HIDDEN
 70
64
  3
- - - - - - - - - - - - - - - - - - - -
 72
65
 73
2
 40
0.2
 49
0.1
 74
0
 49
-0.1
 74
0
  0
LTYPE
  5
1F7
100
AcDbSymbolTableRecord
100
AcDbLinetypeTableRecord
  2
PHANTOM
 70
64
  3
_____ _ _ _____ _ _ _____ _ _ _____
 72
65
 73
6
 40
0.8
 49
0.45
 74
0
 49
-0.05
 74
0
 49
0.1
 74
0
 49
-0.05
 74
0
 49
0.1
 74
0
 49
-0.05
 74
0
  0
LTYPE
  5
1F8
100
AcDbSymbolTableRecord
100
AcDbLinetypeTableRecord
  2
DOT
 70
64
  3
. . . . . . . . . . . . . . . . . . . .
 72
65
 73
2
 40
0.2
 49
0.1
 74
0
 49
-0.1
 74
0
  0
LTYPE
  5
1F9
100
AcDbSymbolTableRecord
100
AcDbLinetypeTableRecord
  2
DASHED
 70
64
  3
- - - - - - - - - - - - - - - - - - - -
 72
65
 73
2
 40
0.2
 49
0.1
 74
0
 49
-0.1
 74
0
  0
ENDTAB
  0
TABLE
  2
LAYER
  5
2
100
AcDbSymbolTable
 70
36
  0
LAYER
  5
10
100
AcDbSymbolTableRecord
100
AcDbLayerTableRecord
  2
0
 70
0
 62
7
  6
CONTINUOUS
370
-3
390
F
  0
LAYER
  5
1FA
100
AcDbSymbolTableRecord
100
AcDbLayerTableRecord
  2
DEFAULT_1
 70
0
 62
7
  6
CENTER
370
-3
390
F
  0
LAYER
  5
1FB
100
AcDbSymbolTableRecord
100
AcDbLayerTableRecord
  2
DEFAULT_2
 70
0
 62
7
  6
HIDDEN
370
-3
390
F
  0
LAYER
  5
1FC
100
AcDbSymbolTableRecord
100
AcDbLayerTableRecord
  2
DEFAULT_3
 70
0
 62
7
  6
PHANTOM
370
-3
390
F
  0
LAYER
  5
1FD
100
AcDbSymbolTableRecord
100
AcDbLayerTableRecord
  2
00_COMPONENTS
 70
0
 62
7
  6
CONTINUOUS
370
-3
390
F
  0
LAYER
  5
1FE
100
AcDbSymbolTableRecord
100
AcDbLayerTableRecord
  2
01_1_DEFAULT_DATUMS
 70
0
 62
7
  6
CONTINUOUS
370
-3
390
F
  0
LAYER
  5
1FF
100
AcDbSymbolTableRecord
100
AcDbLayerTableRecord
  2
01_PLANES
 70
0
 62
7
  6
CONTINUOUS
370
-3
390
F
  0
LAYER
  5
200
100
AcDbSymbolTableRecord
100
AcDbLayerTableRecord
  2
02_COORD_SYS
 70
0
 62
7
  6
CONTINUOUS
370
-3
390
F
  0
LAYER
  5
201
100
AcDbSymbolTableRecord
100
AcDbLayerTableRecord
  2
03_AXES
 70
0
 62
7
  6
CONTINUOUS
370
-3
390
F
  0
LAYER
  5
202
100
AcDbSymbolTableRecord
100
AcDbLayerTableRecord
  2
04_POINTS
 70
0
 62
7
  6
CONTINUOUS
370
-3
390
F
  0
LAYER
  5
203
100
AcDbSymbolTableRecord
100
AcDbLayerTableRecord
  2
05_CURVES
 70
0
 62
7
  6
CONTINUOUS
370
-3
390
F
  0
LAYER
  5
204
100
AcDbSymbolTableRecord
100
AcDbLayerTableRecord
  2
06_SURFS
 70
0
 62
7
  6
CONTINUOUS
370
-3
390
F
  0
LAYER
  5
205
100
AcDbSymbolTableRecord
100
AcDbLayerTableRecord
  2
07_COSMETICS
 70
0
 62
7
  6
CONTINUOUS
370
-3
390
F
  0
LAYER
  5
206
100
AcDbSymbolTableRecord
100
AcDbLayerTableRecord
  2
10_NOTES
 70
0
 62
7
  6
CONTINUOUS
370
-3
390
F
  0
LAYER
  5
207
100
AcDbSymbolTableRecord
100
AcDbLayerTableRecord
  2
11_NOTES_PUB
 70
0
 62
7
  6
CONTINUOUS
370
-3
390
F
  0
LAYER
  5
208
100
AcDbSymbolTableRecord
100
AcDbLayerTableRecord
  2
13_REF_GTOL
 70
0
 62
7
  6
CONTINUOUS
370
-3
390
F
  0
LAYER
  5
209
100
AcDbSymbolTableRecord
100
AcDbLayerTableRecord
  2
16_MISC
 70
0
 62
7
  6
CONTINUOUS
370
-3
390
F
  0
LAYER
  5
20A
100
AcDbSymbolTableRecord
100
AcDbLayerTableRecord
  2
17_NO_PRINT
 70
0
 62
7
  6
CONTINUOUS
370
-3
390
F
  0
LAYER
  5
20B
100
AcDbSymbolTableRecord
100
AcDbLayerTableRecord
  2
18_DATUM_CAMS_JOINTS
 70
0
 62
7
  6
CONTINUOUS
370
-3
390
F
  0
LAYER
  5
20C
100
AcDbSymbolTableRecord
100
AcDbLayerTableRecord
  2
19_DATUM_FUNCTIONAL
 70
0
 62
7
  6
CONTINUOUS
370
-3
390
F
  0
LAYER
  5
20D
100
AcDbSymbolTableRecord
100
AcDbLayerTableRecord
  2
20_DATUM_KINEMATIC_SCHEME
 70
0
 62
7
  6
CONTINUOUS
370
-3
390
F
  0
ENDTAB
  0
TABLE
  2
STYLE
  5
3
100
AcDbSymbolTable
 70
1
  0
STYLE
  5
11
100
AcDbSymbolTableRecord
100
AcDbTextStyleTableRecord
  2
STANDARD
 70
0
 40
0.0
 41
1.0
 50
0.0
 71
0
 42
0.2
  3
ARIAL.TTF
  4

  0
STYLE
  5
20E
100
AcDbSymbolTableRecord
100
AcDbTextStyleTableRecord
  2
TEXTSTYLE_1
 70
0
 40
0.0
 41
0.8
 50
0.0
 71
0
 42
0.2
  3
gdt
  4

  0
ENDTAB
  0
TABLE
  2
VIEW
  5
6
100
AcDbSymbolTable
 70
0
  0
ENDTAB
  0
TABLE
  2
UCS
  5
7
100
AcDbSymbolTable
 70
0
  0
ENDTAB
  0
TABLE
  2
APPID
  5
9
100
AcDbSymbolTable
 70
1
  0
APPID
  5
20F
100
AcDbSymbolTableRecord
100
AcDbRegAppTableRecord
  2
ACAD
 70
0
  0
ENDTAB
  0
TABLE
  2
BLOCK_RECORD
  5
1
100
AcDbSymbolTable
 70
0
  0
BLOCK_RECORD
  5
210
100
AcDbSymbolTableRecord
100
AcDbBlockTableRecord
  2
*Model_Space
  0
BLOCK_RECORD
  5
211
100
AcDbSymbolTableRecord
100
AcDbBlockTableRecord
  2
*Paper_Space
  0
BLOCK_RECORD
  5
212
100
AcDbSymbolTableRecord
100
AcDbBlockTableRecord
  2
_FILLED
  0
ENDTAB
  0
TABLE
  2
DIMSTYLE
  5
A
100
AcDbSymbolTable
 70
1
100
AcDbDimStyleTable
 71
0
  0
DIMSTYLE
105
213
100
AcDbSymbolTableRecord
100
AcDbDimStyleTableRecord
  2
STANDARD
 70
0
  3

  4

 40
1.0
 41
1.2554244796
 42
1.0
 43
0.38
 44
1.0
 45
0.0
 46
0.0
 47
0.01
 48
0.01
140
1.7575942714
141
0.09
142
0.0
143
25.4
144
1.0
145
0.0
146
1.0
147
0.625
 71
1
 72
0
 73
0
 74
0
 75
0
 76
0
 77
1
 78
8
 79
2
170
0
171
1
172
0
173
0
174
0
175
0
176
0
177
0
178
0
270
2
179
2
271
2
272
2
273
2
274
2
275
0
280
0
281
0
282
0
283
1
284
8
285
0
286
0
287
3
288
0
340
11
278
46
341
212
342
212
343
212
344
212
  0
ENDTAB
  0
ENDSEC
  0
SECTION
  2
BLOCKS
  0
BLOCK
  5
20
100
AcDbEntity
  8
0
100
AcDbBlockBegin
  2
*Model_Space
 70
0
 10
0.0
 20
0.0
 30
0.0
  3
*Model_Space
  1

  0
ENDBLK
  5
21
100
AcDbEntity
  8
0
100
AcDbBlockEnd
  0
BLOCK
  5
1C
100
AcDbEntity
  8
0
100
AcDbBlockBegin
  2
*Paper_Space
 70
0
 10
0.0
 20
0.0
 30
0.0
  3
*Paper_Space
  1

  0
ENDBLK
  5
1D
100
AcDbEntity
  8
0
100
AcDbBlockEnd
  0
BLOCK
  5
214
100
AcDbEntity
  8
0
100
AcDbBlockBegin
  2
_FILLED
 70
64
 10
0.0
 20
0.0
  3
_FILLED
  1

  0
SOLID
  5
215
100
AcDbEntity
  8
0
  6
BYBLOCK
 62
0
100
AcDbTrace
 10
0.0
 20
0.0
 11
-1.0
 21
0.25
 12
-1.0
 22
-0.25
 13
-1.0
 23
-0.25
  0
ENDBLK
  5
216
100
AcDbEntity
  8
0
  6
BYBLOCK
 62
0
100
AcDbBlockEnd
  0
ENDSEC
  0
SECTION
  2
ENTITIES
  0
LINE
  5
217
100
AcDbEntity
  8
0
100
AcDbLine
 62
7
  6
BYLAYER
 10
16.5655847419
 20
12.3222140783
 11
36.6155847419
 21
12.3222140783
  0
LINE
  5
218
100
AcDbEntity
  8
0
100
AcDbLine
 62
7
  6
BYLAYER
 10
70.4155847419
 20
12.3222140783
 11
88.2655618191
 21
12.3222140783
  0
LINE
  5
219
100
AcDbEntity
  8
0
100
AcDbLine
 62
7
  6
BYLAYER
 10
88.2655618191
 20
15.8222140783
 11
77.7155847419
 21
15.8222140783
  0
LINE
  5
21A
100
AcDbEntity
  8
0
100
AcDbLine
 62
7
  6
BYLAYER
 10
59.9655847419
 20
15.8222140783
 11
48.5655847419
 21
15.8222140783
  0
LINE
  5
21B
100
AcDbEntity
  8
0
100
AcDbLine
 62
7
  6
BYLAYER
 10
31.8155847419
 20
15.8222140783
 11
16.5655847419
 21
15.8222140783
  0
LINE
  5
21C
100
AcDbEntity
  8
0
100
AcDbLine
 62
7
  6
BYLAYER
 10
48.5655847419
 20
17.5722140783
 11
36.6155847419
 21
17.5722140783
  0
LINE
  5
21D
100
AcDbEntity
  8
0
100
AcDbLine
 62
7
  6
BYLAYER
 10
71.9155847419
 20
17.8222140783
 11
59.9655847419
 21
17.8222140783
  0
LINE
  5
21E
100
AcDbEntity
  8
0
100
AcDbLine
 62
7
  6
BYLAYER
 10
89.7155847419
 20
21.3222140783
 11
76.7155847419
 21
21.3222140783
  0
LINE
  5
21F
100
AcDbEntity
  8
0
100
AcDbLine
 62
7
  6
BYLAYER
 10
18.8155847419
 20
21.3222140783
 11
31.8155847419
 21
21.3222140783
  0
LINE
  5
220
100
AcDbEntity
  8
0
100
AcDbLine
 62
7
  6
BYLAYER
 10
16.5655847419
 20
15.8222140783
 11
16.5655847419
 21
12.3222140783
  0
LINE
  5
221
100
AcDbEntity
  8
0
100
AcDbLine
 62
7
  6
BYLAYER
 10
17.8155847419
 20
51.8222140783
 11
17.8155847419
 21
22.3222140783
  0
LINE
  5
222
100
AcDbEntity
  8
0
100
AcDbLine
 62
7
  6
BYLAYER
 10
21.8655847419
 20
15.8222140783
 11
21.8655847419
 21
12.3222140783
  0
LINE
  5
223
100
AcDbEntity
  8
0
100
AcDbLine
 62
7
  6
BYLAYER
 10
23.3655847419
 20
15.8222140783
 11
23.3655847419
 21
12.3222140783
  0
LINE
  5
224
100
AcDbEntity
  8
0
100
AcDbLine
 62
7
  6
BYLAYER
 10
24.2655847419
 20
91.5222140783
 11
24.2655847419
 21
95.8222140783
  0
LINE
  5
225
100
AcDbEntity
  8
0
100
AcDbLine
 62
7
  6
BYLAYER
 10
27.2655847419
 20
91.5222140783
 11
27.2655847419
 21
96.8222140783
  0
LINE
  5
226
100
AcDbEntity
  8
0
100
AcDbLine
 62
7
  6
BYLAYER
 10
27.3067325033
 20
67.6222140783
 11
27.3067325033
 21
73.3222140783
  0
LINE
  5
227
100
AcDbEntity
  8
0
100
AcDbLine
 62
7
  6
BYLAYER
 10
27.3574744676
 20
73.3222140783
 11
27.3574744676
 21
67.6222140783
  0
LINE
  5
228
100
AcDbEntity
  8
0
100
AcDbLine
 62
7
  6
BYLAYER
 10
27.4233066069
 20
67.6222140783
 11
27.4233066069
 21
73.3222140783
  0
LINE
  5
229
100
AcDbEntity
  8
0
100
AcDbLine
 62
7
  6
BYLAYER
 10
30.8522872927
 20
73.3222140783
 11
30.8522872927
 21
67.6222140783
  0
LINE
  5
22A
100
AcDbEntity
  8
0
100
AcDbLine
 62
7
  6
BYLAYER
 10
31.7655847419
 20
96.8222140783
 11
31.7655847419
 21
104.5222140783
  0
LINE
  5
22B
100
AcDbEntity
  8
0
100
AcDbLine
 62
7
  6
BYLAYER
 10
31.8155847419
 20
67.6222140783
 11
31.8155847419
 21
52.8222140783
  0
LINE
  5
22C
100
AcDbEntity
  8
0
100
AcDbLine
 62
7
  6
BYLAYER
 10
31.8155847419
 20
21.3222140783
 11
31.8155847419
 21
12.3222140783
  0
LINE
  5
22D
100
AcDbEntity
  8
0
100
AcDbLine
 62
7
  6
BYLAYER
 10
34.0155847419
 20
91.5222140783
 11
34.0155847419
 21
80.7222140783
  0
LINE
  5
22E
100
AcDbEntity
  8
0
100
AcDbLine
 62
7
  6
BYLAYER
 10
89.7155847419
 20
52.8222140783
 11
76.7155847419
 21
52.8222140783
  0
LINE
  5
22F
100
AcDbEntity
  8
0
100
AcDbLine
 62
7
  6
BYLAYER
 10
18.8155847419
 20
52.8222140783
 11
31.8155847419
 21
52.8222140783
  0
LINE
  5
230
100
AcDbEntity
  8
0
100
AcDbLine
 62
7
  6
BYLAYER
 10
36.6155847419
 20
17.5722140783
 11
36.6155847419
 21
12.3222140783
  0
LINE
  5
231
100
AcDbEntity
  8
0
100
AcDbLine
 62
7
  6
BYLAYER
 10
43.2655847419
 20
80.7222140783
 11
43.2655847419
 21
73.3222140783
  0
LINE
  5
232
100
AcDbEntity
  8
0
100
AcDbLine
 62
7
  6
BYLAYER
 10
76.7155847419
 20
63.2222140783
 11
80.7155847419
 21
63.2222140783
  0
LINE
  5
233
100
AcDbEntity
  8
0
100
AcDbLine
 62
7
  6
BYLAYER
 10
48.5655847419
 20
15.8222140783
 11
48.5655847419
 21
17.5722140783
  0
LINE
  5
234
100
AcDbEntity
  8
0
100
AcDbLine
 62
7
  6
BYLAYER
 10
48.8343949431
 20
134.8920131106
 11
48.2655847419
 21
118.6034201179
  0
LINE
  5
235
100
AcDbEntity
  8
0
100
AcDbLine
 62
7
  6
BYLAYER
 10
27.3069632363
 20
67.6222140783
 11
81.2232380077
 21
67.6222140783
  0
LINE
  5
236
100
AcDbEntity
  8
0
100
AcDbLine
 62
7
  6
BYLAYER
 10
54.2655847419
 20
73.3222140783
 11
54.2655847419
 21
67.6222140783
  0
LINE
  5
237
100
AcDbEntity
  8
0
100
AcDbLine
 62
7
  6
BYLAYER
 10
81.223238261
 20
73.3222140783
 11
27.3069632363
 21
73.3222140783
  0
LINE
  5
238
100
AcDbEntity
  8
0
100
AcDbLine
 62
7
  6
BYLAYER
 10
60.2655847419
 20
118.6034201179
 11
59.6967745399
 21
134.8920131305
  0
LINE
  5
239
100
AcDbEntity
  8
0
100
AcDbLine
 62
7
  6
BYLAYER
 10
59.9655847419
 20
17.8222140783
 11
59.9655847419
 21
15.8222140783
  0
LINE
  5
23A
100
AcDbEntity
  8
0
100
AcDbLine
 62
7
  6
BYLAYER
 10
34.0155847419
 20
80.7222140783
 11
74.5155847419
 21
80.7222140783
  0
LINE
  5
23B
100
AcDbEntity
  8
0
100
AcDbLine
 62
7
  6
BYLAYER
 10
65.2655847419
 20
80.7222140783
 11
65.2655847419
 21
73.3222140783
  0
LINE
  5
23C
100
AcDbEntity
  8
0
100
AcDbLine
 62
7
  6
BYLAYER
 10
70.4155847419
 20
15.8561886745
 11
70.4155847419
 21
12.3222140783
  0
LINE
  5
23D
100
AcDbEntity
  8
0
100
AcDbLine
 62
7
  6
BYLAYER
 10
71.9155847419
 20
16.7222140783
 11
71.9155847419
 21
17.8222140783
  0
LINE
  5
23E
100
AcDbEntity
  8
0
100
AcDbLine
 62
7
  6
BYLAYER
 10
24.2655847419
 20
91.5222140783
 11
84.2655847419
 21
91.5222140783
  0
LINE
  5
23F
100
AcDbEntity
  8
0
100
AcDbLine
 62
7
  6
BYLAYER
 10
74.5155847419
 20
91.5222140783
 11
74.5155847419
 21
80.7222140783
  0
LINE
  5
240
100
AcDbEntity
  8
0
100
AcDbLine
 62
7
  6
BYLAYER
 10
76.7155847419
 20
67.6222140783
 11
76.7155847419
 21
52.8222140783
  0
LINE
  5
241
100
AcDbEntity
  8
0
100
AcDbLine
 62
7
  6
BYLAYER
 10
76.7155847419
 20
21.3222140783
 11
76.7155847419
 21
12.3222140783
  0
LINE
  5
242
100
AcDbEntity
  8
0
100
AcDbLine
 62
7
  6
BYLAYER
 10
76.7655847419
 20
96.8222140783
 11
76.7655847419
 21
104.5222140783
  0
LINE
  5
243
100
AcDbEntity
  8
0
100
AcDbLine
 62
7
  6
BYLAYER
 10
77.7871424555
 20
67.6222140783
 11
77.7871424555
 21
73.3222140783
  0
LINE
  5
244
100
AcDbEntity
  8
0
100
AcDbLine
 62
7
  6
BYLAYER
 10
84.2655847419
 20
95.8222140783
 11
24.2655847419
 21
95.8222140783
  0
LINE
  5
245
100
AcDbEntity
  8
0
100
AcDbLine
 62
7
  6
BYLAYER
 10
25.2655847419
 20
96.8222140783
 11
83.2655847419
 21
96.8222140783
  0
LINE
  5
246
100
AcDbEntity
  8
0
100
AcDbLine
 62
7
  6
BYLAYER
 10
80.7155847419
 20
67.6222140783
 11
80.7155847419
 21
63.2222140783
  0
LINE
  5
247
100
AcDbEntity
  8
0
100
AcDbLine
 62
7
  6
BYLAYER
 10
81.2233066069
 20
67.6222140783
 11
81.2233066069
 21
73.3222140783
  0
LINE
  5
248
100
AcDbEntity
  8
0
100
AcDbLine
 62
7
  6
BYLAYER
 10
81.2655847419
 20
91.5222140783
 11
81.2655847419
 21
96.8222140783
  0
LINE
  5
249
100
AcDbEntity
  8
0
100
AcDbLine
 62
7
  6
BYLAYER
 10
81.7155847419
 20
15.8222140783
 11
81.7155847419
 21
12.3222140783
  0
LINE
  5
24A
100
AcDbEntity
  8
0
100
AcDbLine
 62
7
  6
BYLAYER
 10
84.2655847419
 20
12.3222140783
 11
84.2655847419
 21
15.8222140783
  0
LINE
  5
24B
100
AcDbEntity
  8
0
100
AcDbLine
 62
7
  6
BYLAYER
 10
84.2655847419
 20
91.5222140783
 11
84.2655847419
 21
95.8222140783
  0
LINE
  5
24C
100
AcDbEntity
  8
0
100
AcDbLine
 62
7
  6
BYLAYER
 10
76.7655847419
 20
104.5222140783
 11
74.5073609066
 21
104.5222140783
  0
LINE
  5
24D
100
AcDbEntity
  8
0
100
AcDbLine
 62
7
  6
BYLAYER
 10
34.0238085771
 20
104.5222140783
 11
31.7655847419
 21
104.5222140783
  0
LINE
  5
24E
100
AcDbEntity
  8
0
100
AcDbLine
 62
7
  6
BYLAYER
 10
74.2655737986
 20
107.0222140783
 11
72.2582746661
 21
107.0222140783
  0
LINE
  5
24F
100
AcDbEntity
  8
0
100
AcDbLine
 62
7
  6
BYLAYER
 10
36.2728948176
 20
107.0222140783
 11
34.2655956851
 21
107.0222140783
  0
LINE
  5
250
100
AcDbEntity
  8
0
100
AcDbLine
 62
7
  6
BYLAYER
 10
88.2655847419
 20
12.3222140783
 11
88.2655847419
 21
15.8222140783
  0
LINE
  5
251
100
AcDbEntity
  8
0
100
AcDbLine
 62
7
  6
BYLAYER
 10
90.7155847419
 20
22.3222140783
 11
90.7155847419
 21
51.8222140783
  0
LINE
  5
252
100
AcDbEntity
  8
0
100
AcDbLine
 62
7
  6
BYLAYER
 10
70.4155847419
 20
15.8561886745
 11
71.9155847419
 21
16.7222140783
  0
LINE
  5
253
100
AcDbEntity
  8
0
100
AcDbLine
 62
7
  6
BYLAYER
 10
57.5642010249
 20
134.8222140783
 11
50.9669684592
 21
134.8222140783
  0
LINE
  5
254
100
AcDbEntity
  8
0
100
AcDbLine
 62
7
  6
BYLAYER
 10
57.6979928879
 20
136.8222140783
 11
50.8331765958
 21
136.8222140783
  0
ARC
  5
255
100
AcDbEntity
  8
0
100
AcDbCircle
 62
7
  6
BYLAYER
 10
36.2728948176
 20
119.0222140783
 40
12.0
100
AcDbArc
 50
270.0
 51
358.0000000001
  0
ARC
  5
256
100
AcDbEntity
  8
0
100
AcDbCircle
 62
7
  6
BYLAYER
 10
72.2582746661
 20
119.0222140783
 40
12.0
100
AcDbArc
 50
181.9999999999
 51
270.0
  0
ARC
  5
257
100
AcDbEntity
  8
0
100
AcDbCircle
 62
7
  6
BYLAYER
 10
34.2655847419
 20
104.5222140783
 40
2.5
100
AcDbArc
 50
90.0
 51
180.0
  0
ARC
  5
258
100
AcDbEntity
  8
0
100
AcDbCircle
 62
7
  6
BYLAYER
 10
74.2655847419
 20
104.5222140783
 40
2.5
100
AcDbArc
 50
0.0
 51
90.0
  0
ARC
  5
259
100
AcDbEntity
  8
0
100
AcDbCircle
 62
7
  6
BYLAYER
 10
50.8331765958
 20
134.8222140783
 40
2.0
100
AcDbArc
 50
90.0
 51
177.9999994432
  0
ARC
  5
25A
100
AcDbEntity
  8
0
100
AcDbCircle
 62
7
  6
BYLAYER
 10
57.6980020483
 20
134.8222145264
 40
1.9999995203
100
AcDbArc
 50
1.9999971713
 51
90.0002624247
  0
ARC
  5
25B
100
AcDbEntity
  8
0
100
AcDbCircle
 62
7
  6
BYLAYER
 10
77.7155847419
 20
16.8222140783
 40
1.0
100
AcDbArc
 50
180.0
 51
270.0
  0
ARC
  5
25C
100
AcDbEntity
  8
0
100
AcDbCircle
 62
7
  6
BYLAYER
 10
89.7155847419
 20
51.8222140783
 40
1.0
100
AcDbArc
 50
0.0
 51
90.0
  0
ARC
  5
25D
100
AcDbEntity
  8
0
100
AcDbCircle
 62
7
  6
BYLAYER
 10
89.7155847419
 20
22.3222140783
 40
1.0
100
AcDbArc
 50
270.0
 51
360.0
  0
ARC
  5
25E
100
AcDbEntity
  8
0
100
AcDbCircle
 62
7
  6
BYLAYER
 10
18.8155847419
 20
22.3222140783
 40
1.0
100
AcDbArc
 50
180.0
 51
270.0
  0
ARC
  5
25F
100
AcDbEntity
  8
0
100
AcDbCircle
 62
7
  6
BYLAYER
 10
18.8155847419
 20
51.8222140783
 40
1.0
100
AcDbArc
 50
90.0
 51
180.0
  0
ARC
  5
260
100
AcDbEntity
  8
0
100
AcDbCircle
 62
7
  6
BYLAYER
 10
83.2655847419
 20
95.8222140783
 40
1.0
100
AcDbArc
 50
0.0
 51
90.0
  0
ARC
  5
261
100
AcDbEntity
  8
0
100
AcDbCircle
 62
7
  6
BYLAYER
 10
25.2655847419
 20
95.8222140783
 40
1.0
100
AcDbArc
 50
90.0
 51
180.0
  0
ARC
  5
262
100
AcDbEntity
  8
0
100
AcDbCircle
 62
7
  6
BYLAYER
 10
30.8155847419
 20
16.8222140783
 40
1.0
100
AcDbArc
 50
270.0
 51
360.0
  0
SPLINE
  5
263
100
AcDbEntity
  8
0
100
AcDbSpline
 62
7
  6
BYLAYER
 70
0
 71
3
 72
14
 73
10
 74
0
 42
0.0000001
 43
0.0000001
 44
0.0000000001
 40
0.0
 40
0.0
 40
0.0
 40
0.0
 40
0.1106123917
 40
0.228547173
 40
0.353494076
 40
0.483531091
 40
0.6164443196
 40
0.749196091
 40
1.0
 40
1.0
 40
1.0
 40
1.0
 10
72.2582746397
 20
107.0222140783
 30
0.0
 10
72.3955364326
 20
107.0222140783
 30
0.0
 10
72.6798739951
 20
106.9927720206
 30
0.0
 10
73.1008544596
 20
106.8583273067
 30
0.0
 10
73.5036011938
 20
106.6233096219
 30
0.0
 10
73.8640146584
 20
106.2989942153
 30
0.0
 10
74.153388878
 20
105.8978951075
 30
0.0
 10
74.4264743017
 20
105.3150808301
 30
0.0
 10
74.5073608761
 20
104.83344317
 30
0.0
 10
74.5073608759
 20
104.5222140783
 30
0.0
  0
SPLINE
  5
264
100
AcDbEntity
  8
0
100
AcDbSpline
 62
7
  6
BYLAYER
 70
0
 71
3
 72
24
 73
20
 74
0
 42
0.0000001
 43
0.0000001
 44
0.0000000001
 40
0.0
 40
0.0
 40
0.0
 40
0.0
 40
0.0009883171
 40
0.0038766364
 40
0.0087525204
 40
0.0156836532
 40
0.0247354194
 40
0.0359725733
 40
0.0494596258
 40
0.0652609746
 40
0.1039299643
 40
0.1518244376
 40
0.2086550723
 40
0.2741324251
 40
0.3478238539
 40
0.4287241064
 40
0.6075573282
 40
0.8012947604
 40
1.0
 40
1.0
 40
1.0
 40
1.0
 10
60.2655847419
 20
118.6034201174
 30
0.0
 10
60.2656084553
 20
118.6027409619
 30
0.0
 10
60.2615274221
 20
118.6028355677
 30
0.0
 10
60.2569558671
 20
118.601495401
 30
0.0
 10
60.2460848669
 20
118.6009058924
 30
0.0
 10
60.2321498811
 20
118.5996426183
 30
0.0
 10
60.2133309068
 20
118.598433122
 30
0.0
 10
60.1902045607
 20
118.5969743655
 30
0.0
 10
60.1623662617
 20
118.5953813083
 30
0.0
 10
60.11571539
 20
118.592847146
 30
0.0
 10
60.0454124166
 20
118.5893158494
 30
0.0
 10
59.9469259839
 20
118.5846666401
 30
0.0
 10
59.8300114454
 20
118.579414009
 30
0.0
 10
59.6953674327
 20
118.5735992983
 30
0.0
 10
59.5441790358
 20
118.567285995
 30
0.0
 10
59.3151042562
 20
118.5579775131
 30
0.0
 10
59.0035356424
 20
118.5457629742
 30
0.0
 10
58.6110041621
 20
118.530950329
 30
0.0
 10
58.341339704
 20
118.5210902888
 30
0.0
 10
58.2047980425
 20
118.5161713761
 30
0.0
  0
SPLINE
  5
265
100
AcDbEntity
  8
0
100
AcDbSpline
 62
7
  6
BYLAYER
 70
0
 71
3
 72
26
 73
22
 74
0
 42
0.0000001
 43
0.0000001
 44
0.0000000001
 40
0.0
 40
0.0
 40
0.0
 40
0.0
 40
0.0003007015
 40
0.0011709366
 40
0.0026189856
 40
0.0046444804
 40
0.010422103
 40
0.0184907449
 40
0.0288361846
 40
0.0414439352
 40
0.0562983407
 40
0.0733685338
 40
0.1139872996
 40
0.1629608173
 40
0.2199415475
 40
0.2844673429
 40
0.3559883425
 40
0.4339513685
 40
0.6067608157
 40
0.7976296561
 40
1.0
 40
1.0
 40
1.0
 40
1.0
 10
59.6963768759
 20
134.8920035464
 30
0.0
 10
59.696403473
 20
134.8917913748
 30
0.0
 10
59.6951088693
 20
134.8917491576
 30
0.0
 10
59.6937172462
 20
134.8913684052
 30
0.0
 10
59.6903861751
 20
134.8911459077
 30
0.0
 10
59.6839834116
 20
134.8905827362
 30
0.0
 10
59.6726024922
 20
134.8899162347
 30
0.0
 10
59.6554798821
 20
134.888977517
 30
0.0
 10
59.633423584
 20
134.8879257177
 30
0.0
 10
59.6065724495
 20
134.8867303017
 30
0.0
 10
59.574929922
 20
134.88540963
 30
0.0
 10
59.523385458
 20
134.8833582502
 30
0.0
 10
59.4475889988
 20
134.8805197838
 30
0.0
 10
59.3434254789
 20
134.8768147664
 30
0.0
 10
59.2222659829
 20
134.8726720404
 30
0.0
 10
59.0850774026
 20
134.8681248324
 30
0.0
 10
58.9329720138
 20
134.8632125349
 30
0.0
 10
58.7038997901
 20
134.8559811014
 30
0.0
 10
58.3899910097
 20
134.8463689696
 30
0.0
 10
57.9876464318
 20
134.8343771472
 30
0.0
 10
57.7081267296
 20
134.8262910383
 30
0.0
 10
57.5642767988
 20
134.8222135262
 30
0.0
  0
SPLINE
  5
266
100
AcDbEntity
  8
0
100
AcDbSpline
 62
7
  6
BYLAYER
 70
0
 71
3
 72
17
 73
13
 74
0
 42
0.0000001
 43
0.0000001
 44
0.0000000001
 40
0.0
 40
0.0
 40
0.0
 40
0.0
 40
0.3721090366
 40
0.5405721607
 40
0.6888623489
 40
0.7537749943
 40
0.8117024007
 40
0.8621818334
 40
0.9049022935
 40
0.9396506325
 40
0.9665090775
 40
1.0
 40
1.0
 40
1.0
 40
1.0
 10
57.5641989691
 20
134.8222145727
 30
0.0
 10
57.5641992325
 20
135.077456857
 30
0.0
 10
57.5543133902
 20
135.4484305863
 30
0.0
 10
57.5182967464
 20
135.9196405182
 30
0.0
 10
57.4879353367
 20
136.1797820033
 30
0.0
 10
57.4585658037
 20
136.3634636184
 30
0.0
 10
57.435825493
 20
136.4801566797
 30
0.0
 10
57.4114932014
 20
136.5810533403
 30
0.0
 10
57.3862649783
 20
136.6649179272
 30
0.0
 10
57.3592638423
 20
136.7321065574
 30
0.0
 10
57.3292756235
 20
136.7877509404
 30
0.0
 10
57.2939613971
 20
136.8222139387
 30
0.0
 10
57.2709888306
 20
136.8222140065
 30
0.0
  0
SPLINE
  5
267
100
AcDbEntity
  8
0
100
AcDbSpline
 62
7
  6
BYLAYER
 70
0
 71
3
 72
17
 73
13
 74
0
 42
0.0000001
 43
0.0000001
 44
0.0000000001
 40
0.0
 40
0.0
 40
0.0
 40
0.0
 40
0.0334798641
 40
0.0603223334
 40
0.0950453883
 40
0.1377262496
 40
0.1881720659
 40
0.246082526
 40
0.310967451
 40
0.4592410402
 40
0.6277678146
 40
1.0
 40
1.0
 40
1.0
 40
1.0
 10
51.260180286
 20
136.8222140813
 30
0.0
 10
51.2372152066
 20
136.8222140887
 30
0.0
 10
51.2019010692
 20
136.7877898055
 30
0.0
 10
51.1719287288
 20
136.7321705964
 30
0.0
 10
51.1449478524
 20
136.6650360934
 30
0.0
 10
51.1197232296
 20
136.5812399416
 30
0.0
 10
51.0953973204
 20
136.4804048742
 30
0.0
 10
51.0726657949
 20
136.3637643755
 30
0.0
 10
51.0432731287
 20
136.1801283081
 30
0.0
 10
51.0129050041
 20
135.9199725533
 30
0.0
 10
50.9768608982
 20
135.448645883
 30
0.0
 10
50.9669695503
 20
135.0775419516
 30
0.0
 10
50.9669699489
 20
134.8222141021
 30
0.0
  0
SPLINE
  5
268
100
AcDbEntity
  8
0
100
AcDbSpline
 62
7
  6
BYLAYER
 70
0
 71
3
 72
26
 73
22
 74
0
 42
0.0000001
 43
0.0000001
 44
0.0000000001
 40
0.0
 40
0.0
 40
0.0
 40
0.0
 40
0.2023669318
 40
0.3932337855
 40
0.5660405551
 40
0.6440024887
 40
0.7155226307
 40
0.7800479846
 40
0.8370288614
 40
0.8860029205
 40
0.9266226499
 40
0.9436935185
 40
0.9585487452
 40
0.9711574471
 40
0.9815039576
 40
0.9895737837
 40
0.9953526976
 40
0.9973788759
 40
0.9988276319
 40
0.9996985938
 40
1.0
 40
1.0
 40
1.0
 40
1.0
 10
50.966898575
 20
134.8222070284
 30
0.0
 10
50.823048539
 20
134.8262847919
 30
0.0
 10
50.5435277533
 20
134.8343712792
 30
0.0
 10
50.1411818316
 20
134.8463635939
 30
0.0
 10
49.8272716126
 20
134.8559760111
 30
0.0
 10
49.5981986426
 20
134.8632076509
 30
0.0
 10
49.4460922753
 20
134.8681201375
 30
0.0
 10
49.3089020985
 20
134.8726675422
 30
0.0
 10
49.1877402937
 20
134.8768104405
 30
0.0
 10
49.0835737615
 20
134.880515595
 30
0.0
 10
49.0077744207
 20
134.883354171
 30
0.0
 10
48.9562272913
 20
134.8854056632
 30
0.0
 10
48.9245824853
 20
134.8867264292
 30
0.0
 10
48.8977288023
 20
134.8879219898
 30
0.0
 10
48.8756699903
 20
134.8889738554
 30
0.0
 10
48.8585441699
 20
134.8899128736
 30
0.0
 10
48.8471616034
 20
134.8905791269
 30
0.0
 10
48.840755763
 20
134.8911428486
 30
0.0
 10
48.8374247966
 20
134.8913645846
 30
0.0
 10
48.8360288771
 20
134.8917469378
 30
0.0
 10
48.8347356912
 20
134.8917874742
 30
0.0
 10
48.8347608182
 20
134.8920003332
 30
0.0
  0
SPLINE
  5
269
100
AcDbEntity
  8
0
100
AcDbSpline
 62
7
  6
BYLAYER
 70
0
 71
3
 72
17
 73
13
 74
0
 42
0.0000001
 43
0.0000001
 44
0.0000000001
 40
0.0
 40
0.0
 40
0.0
 40
0.0
 40
0.0749004183
 40
0.1497303113
 40
0.2243966023
 40
0.2987305025
 40
0.3724605673
 40
0.4451914813
 40
0.5853202194
 40
0.7145688977
 40
0.8285677536
 40
1.0
 40
1.0
 40
1.0
 40
1.0
 10
50.3263714428
 20
118.5161713761
 30
0.0
 10
50.303156727
 20
117.9252540725
 30
0.0
 10
50.1750847871
 20
116.7455909815
 30
0.0
 10
49.7446348042
 20
115.0216624862
 30
0.0
 10
49.0902158395
 20
113.3744735525
 30
0.0
 10
48.2334626869
 20
111.8333972036
 30
0.0
 10
47.2019698167
 20
110.4225826326
 30
0.0
 10
45.6582574309
 20
108.7623300553
 30
0.0
 10
43.5027164801
 20
107.0988066757
 30
0.0
 10
40.7802634258
 20
105.7386484658
 30
0.0
 10
37.6409014963
 20
104.7732739549
 30
0.0
 10
35.3773447391
 20
104.5222144429
 30
0.0
 10
34.0238085771
 20
104.5222140783
 30
0.0
  0
SPLINE
  5
26A
100
AcDbEntity
  8
0
100
AcDbSpline
 62
7
  6
BYLAYER
 70
0
 71
3
 72
14
 73
10
 74
0
 42
0.0000001
 43
0.0000001
 44
0.0000000001
 40
0.0
 40
0.0
 40
0.0
 40
0.0
 40
0.2508039071
 40
0.3835556781
 40
0.5164689065
 40
0.6465059217
 40
0.7714528253
 40
0.8893876073
 40
1.0
 40
1.0
 40
1.0
 40
1.0
 10
34.0238085772
 20
104.5222140783
 30
0.0
 10
34.0238085772
 20
104.8334431679
 30
0.0
 10
34.1046951509
 20
105.3150808254
 30
0.0
 10
34.3777805724
 20
105.897895101
 30
0.0
 10
34.6671547911
 20
106.2989942093
 30
0.0
 10
35.0275682557
 20
106.6233096176
 30
0.0
 10
35.4303149914
 20
106.8583273046
 30
0.0
 10
35.8512954587
 20
106.9927720201
 30
0.0
 10
36.1356330236
 20
107.0222140783
 30
0.0
 10
36.2728948177
 20
107.0222140783
 30
0.0
  0
SPLINE
  5
26B
100
AcDbEntity
  8
0
100
AcDbSpline
 62
7
  6
BYLAYER
 70
0
 71
3
 72
24
 73
20
 74
0
 42
0.0000001
 43
0.0000001
 44
0.0000000001
 40
0.0
 40
0.0
 40
0.0
 40
0.0
 40
0.0009883168
 40
0.0038766359
 40
0.0087525197
 40
0.0156836523
 40
0.0247354184
 40
0.0359725722
 40
0.0494596246
 40
0.0652609734
 40
0.1039299631
 40
0.1518244364
 40
0.2086550713
 40
0.2741324244
 40
0.3478238534
 40
0.4287241062
 40
0.6075573284
 40
0.8012947607
 40
1.0
 40
1.0
 40
1.0
 40
1.0
 10
48.2655847414
 20
118.6034201054
 30
0.0
 10
48.2655610274
 20
118.6027409501
 30
0.0
 10
48.2696420614
 20
118.6028355554
 30
0.0
 10
48.2742136146
 20
118.6014953892
 30
0.0
 10
48.2850846153
 20
118.6009058803
 30
0.0
 10
48.2990196003
 20
118.5996426063
 30
0.0
 10
48.3178385744
 20
118.5984331099
 30
0.0
 10
48.3409649203
 20
118.5969743534
 30
0.0
 10
48.3688032192
 20
118.5953812961
 30
0.0
 10
48.4154540907
 20
118.5928471338
 30
0.0
 10
48.4857570643
 20
118.5893158371
 30
0.0
 10
48.5842434972
 20
118.5846666275
 30
0.0
 10
48.7011580361
 20
118.5794139963
 30
0.0
 10
48.8358020493
 20
118.5735992854
 30
0.0
 10
48.9869904468
 20
118.5672859819
 30
0.0
 10
49.2160652272
 20
118.5579774997
 30
0.0
 10
49.5276338416
 20
118.5457629604
 30
0.0
 10
49.9201653222
 20
118.5309503148
 30
0.0
 10
50.1898297804
 20
118.5210902743
 30
0.0
 10
50.3263714418
 20
118.5161713615
 30
0.0
  0
SPLINE
  5
26C
100
AcDbEntity
  8
0
100
AcDbSpline
 62
7
  6
BYLAYER
 70
0
 71
3
 72
8
 73
4
 74
0
 42
0.0000001
 43
0.0000001
 44
0.0000000001
 40
0.0
 40
0.0
 40
0.0
 40
0.0
 40
1.0
 40
1.0
 40
1.0
 40
1.0
 10
57.5642010249
 20
134.8222140783
 30
0.0
 10
57.7779927229
 20
129.3868767062
 30
0.0
 10
57.99156043
 20
123.9515305141
 30
0.0
 10
58.2047980409
 20
118.5161713761
 30
0.0
  0
SPLINE
  5
26D
100
AcDbEntity
  8
0
100
AcDbSpline
 62
7
  6
BYLAYER
 70
0
 71
3
 72
17
 73
13
 74
0
 42
0.0000001
 43
0.0000001
 44
0.0000000001
 40
0.0
 40
0.0
 40
0.0
 40
0.0
 40
0.0749003306
 40
0.1497301885
 40
0.2243965438
 40
0.29873055
 40
0.3724606405
 40
0.4451915432
 40
0.5853203065
 40
0.7145689812
 40
0.8285678288
 40
1.0
 40
1.0
 40
1.0
 40
1.0
 10
58.2047980409
 20
118.5161713761
 30
0.0
 10
58.2280125898
 20
117.9252547567
 30
0.0
 10
58.3560872788
 20
116.7455929051
 30
0.0
 10
58.7865360827
 20
115.021664838
 30
0.0
 10
59.440953742
 20
113.374474141
 30
0.0
 10
60.2977089385
 20
111.833396889
 30
0.0
 10
61.3292037847
 20
110.4225831535
 30
0.0
 10
62.8729056918
 20
108.7623201716
 30
0.0
 10
65.0284557099
 20
107.0988062353
 30
0.0
 10
67.7509081813
 20
105.7386491867
 30
0.0
 10
70.8902690447
 20
104.7732728493
 30
0.0
 10
73.1538253341
 20
104.5222134937
 30
0.0
 10
74.5073609066
 20
104.5222140783
 30
0.0
  0
SPLINE
  5
26E
100
AcDbEntity
  8
0
100
AcDbSpline
 62
7
  6
BYLAYER
 70
0
 71
3
 72
8
 73
4
 74
0
 42
0.0000001
 43
0.0000001
 44
0.0000000001
 40
0.0
 40
0.0
 40
0.0
 40
0.0
 40
1.0
 40
1.0
 40
1.0
 40
1.0
 10
50.3263714428
 20
118.5161713761
 30
0.0
 10
50.5396090305
 20
123.951530515
 30
0.0
 10
50.7531767329
 20
129.3868767073
 30
0.0
 10
50.9669684592
 20
134.8222140783
 30
0.0
  0
ENDSEC
  0
SECTION
  2
OBJECTS
  0
DICTIONARY
  5
C
100
AcDbDictionary
280
0
281
1
  3
ACAD_GROUP
350
D
  3
ACAD_MLINESTYLE
350
17
  3
ACAD_LAYOUT
350
1A
  3
ACAD_PLOTSETTINGS
350
19
  3
ACAD_PLOTSTYLENAME
350
E
  0
DICTIONARY
  5
D
102
{ACAD_REACTORS
330
C
102
}
100
AcDbDictionary
280
0
281
1
  0
ACDBDICTIONARYWDFLT
  5
E
102
{ACAD_REACTORS
330
C
102
}
100
AcDbDictionary
281
1
  3
Normal
350
F
100
AcDbDictionaryWithDefault
340
F
  0
DICTIONARY
  5
17
102
{ACAD_REACTORS
330
C
102
}
100
AcDbDictionary
280
0
281
1
  3
Standard
350
18
  0
DICTIONARY
  5
19
102
{ACAD_REACTORS
330
C
102
}
100
AcDbDictionary
281
1
  0
DICTIONARY
  5
1A
102
{ACAD_REACTORS
330
C
102
}
100
AcDbDictionary
281
1
  3
Model
350
26F
  3
Layout1
350
270
  0
ACDBPLACEHOLDER
  5
F
102
{ACAD_REACTORS
330
E
102
}
  0
MLINESTYLE
  5
18
102
{ACAD_REACTORS
330
17
102
}
100
AcDbMlineStyle
  2
STANDARD
 70
0
  3

 62
256
 51
90.0
 52
90.0
 71
2
 49
0.5
 62
256
  6
BYLAYER
 49
-0.5
 62
256
  6
BYLAYER
  0
LAYOUT
  5
26F
102
{ACAD_REACTORS
330
1A
102
}
100
AcDbPlotSettings
  1

  2
none_device
  4

  6

 40
0.0
 41
0.0
 42
0.0
 43
0.0
 44
210.0
 45
297.0
 46
0.0
 47
0.0
 48
0.0
 49
0.0
140
0.0
141
0.0
142
1.0
143
1.0
 70
1024
 72
1
 73
0
 74
0
  7

 75
0
147
1.0
148
0.0
149
0.0
100
AcDbLayout
  1
Model
 70
0
 71
0
 10
0.0
 20
0.0
 11
210.0
 21
297.0
 12
0.0
 22
0.0
 32
0.0
 14
0.0
 24
0.0
 34
0.0
 15
0.0
 25
0.0
 35
0.0
146
0.0
 13
0.0
 23
0.0
 33
0.0
 16
1.0
 26
0.0
 36
0.0
 17
0.0
 27
1.0
 37
0.0
 76
0
330
210
345
0
346
0
  0
LAYOUT
  5
270
102
{ACAD_REACTORS
330
1A
102
}
100
AcDbPlotSettings
  1

  2
none_device
  4

  6

 40
0.0
 41
0.0
 42
0.0
 43
0.0
 44
210.0
 45
297.0
 46
0.0
 47
0.0
 48
0.0
 49
0.0
140
0.0
141
0.0
142
1.0
143
1.0
 70
0
 72
1
 73
0
 74
0
  7

 75
0
147
1.0
148
0.0
149
0.0
100
AcDbLayout
  1
Layout1
 70
0
 71
1
 10
0.0
 20
0.0
 11
210.0
 21
297.0
 12
0.0
 22
0.0
 32
0.0
 14
0.0
 24
0.0
 34
0.0
 15
0.0
 25
0.0
 35
0.0
146
0.0
 13
0.0
 23
0.0
 33
0.0
 16
1.0
 26
0.0
 36
0.0
 17
0.0
 27
1.0
 37
0.0
 76
0
330
211
345
0
346
0
  0
ENDSEC
  0
EOF
