999
DXF file: C:\Users\sesa63760\Dev\_Creo\CAD\MCADID0005824_3D-CAD\mcadid0005824_3d-simplified_1.dxf
999
Pro/ENGINEER 2019471 by Parametric Technology Corporation
  0
SECTION
  2
HEADER
  9
$ACADVER
  1
AC1024
  9
$DWGCODEPAGE
  3
ANSI_1252
  9
$EXTMAX
 10
63.5690266623
 20
89.9047662795
 30
0.0
  9
$EXTMIN
 10
0.0
 20
0.0
 30
0.0
  9
$LIMMIN
 10
0.0
 20
0.0
  9
$LIMMAX
 10
63.5690266623
 20
89.9047662795
  9
$VIEWCTR
 10
31.7845133311
 20
44.9523831398
  9
$VIEWSIZE
 40
89.9047662795
  9
$CLAYER
  8
0
  9
$LTSCALE
 40
5.860458839
  9
$CELTYPE
  6
BYLAYER
  9
$DIMSCALE
 40
1.0
  9
$DIMASZ
 40
0.7567741269
  9
$DIMEXO
 40
1.0
  9
$DIMDLI
 40
4.0490442887
  9
$DIMEXE
 40
1.0
  9
$DIMCEN
 40
0.9589841736
  9
$DIMLFAC
 40
1.0
  9
$DIMBLK
  1
_FILLED
  9
$DIMALT
 70
0
  9
$DIMALTF
 40
0.0393700787
  9
$DIMTXT
 40
1.0594837777
  9
$DIMTOL
 70
1
  9
$DIMLIM
 70
0
  9
$DIMTFAC
 40
1.0
  9
$DIMTP
 40
0.01
  9
$DIMTM
 40
0.01
  9
$DIMGAP
 40
0.625
  9
$DIMDSEP
 70
46
  9
$AUNITS
 70
0
  9
$PDMODE
 70
3
  9
$PDSIZE
 40
0.3125
  9
$HANDSEED
  5
29F
  9
$TILEMODE
 70
1
  9
$MEASUREMENT
 70
1
  9
$INSUNITS
 70
4
  0
ENDSEC
  0
SECTION
  2
CLASSES
  0
CLASS
  1
ACDBDICTIONARYWDFLT
  2
AcDbDictionaryWithDefault
  3
AutoCAD 2000
 90
0
 91
1
280
0
281
0
  0
CLASS
  1
ACDBPLACEHOLDER
  2
AcDbPlaceHolder
  3
AutoCAD 2000
 90
0
 91
1
280
0
281
0
  0
CLASS
  1
LAYOUT
  2
AcDbLayout
  3
AutoCAD 2000
 90
0
 91
0
280
0
281
0
  0
ENDSEC
  0
SECTION
  2
TABLES
  0
TABLE
  2
VPORT
  5
8
100
AcDbSymbolTable
 70
2
  0
VPORT
  5
1F4
100
AcDbSymbolTableRecord
100
AcDbViewportTableRecord
  2
*ACTIVE
 70
0
 10
0.0
 20
0.0
 11
1.0
 21
1.0
 12
31.7845133311
 22
44.9523831398
 13
0.0
 23
0.0
 14
1.0
 24
1.0
 15
0.0
 25
0.0
 16
0.0
 26
0.0
 36
1.0
 17
0.0
 27
0.0
 37
0.0
 40
89.9047662795
 41
0.7070707071
 42
50.0
 43
0.0
 44
0.0
 50
0.0
 51
0.0
 71
0
 72
100
 73
1
 74
1
 75
0
 76
0
 77
0
 78
0
  0
ENDTAB
  0
TABLE
  2
LTYPE
  5
5
100
AcDbSymbolTable
 70
6
  0
LTYPE
  5
14
100
AcDbSymbolTableRecord
100
AcDbLinetypeTableRecord
  2
BYBLOCK
 70
0
  3

 72
65
 73
0
 40
0.0
  0
LTYPE
  5
15
100
AcDbSymbolTableRecord
100
AcDbLinetypeTableRecord
  2
BYLAYER
 70
0
  3

 72
65
 73
0
 40
0.0
  0
LTYPE
  5
16
100
AcDbSymbolTableRecord
100
AcDbLinetypeTableRecord
  2
CONTINUOUS
 70
64
  3
Solid line
 72
65
 73
0
 40
0.0
  0
LTYPE
  5
1F5
100
AcDbSymbolTableRecord
100
AcDbLinetypeTableRecord
  2
CENTER
 70
64
  3
____ _ ____ _ ____ _ ____ _ ____ _ ____ _ ____
 72
65
 73
4
 40
0.6
 49
0.375
 74
0
 49
-0.075
 74
0
 49
0.075
 74
0
 49
-0.075
 74
0
  0
LTYPE
  5
1F6
100
AcDbSymbolTableRecord
100
AcDbLinetypeTableRecord
  2
HIDDEN
 70
64
  3
- - - - - - - - - - - - - - - - - - - -
 72
65
 73
2
 40
0.2
 49
0.1
 74
0
 49
-0.1
 74
0
  0
LTYPE
  5
1F7
100
AcDbSymbolTableRecord
100
AcDbLinetypeTableRecord
  2
PHANTOM
 70
64
  3
_____ _ _ _____ _ _ _____ _ _ _____
 72
65
 73
6
 40
0.8
 49
0.45
 74
0
 49
-0.05
 74
0
 49
0.1
 74
0
 49
-0.05
 74
0
 49
0.1
 74
0
 49
-0.05
 74
0
  0
LTYPE
  5
1F8
100
AcDbSymbolTableRecord
100
AcDbLinetypeTableRecord
  2
DOT
 70
64
  3
. . . . . . . . . . . . . . . . . . . .
 72
65
 73
2
 40
0.2
 49
0.1
 74
0
 49
-0.1
 74
0
  0
LTYPE
  5
1F9
100
AcDbSymbolTableRecord
100
AcDbLinetypeTableRecord
  2
DASHED
 70
64
  3
- - - - - - - - - - - - - - - - - - - -
 72
65
 73
2
 40
0.2
 49
0.1
 74
0
 49
-0.1
 74
0
  0
ENDTAB
  0
TABLE
  2
LAYER
  5
2
100
AcDbSymbolTable
 70
36
  0
LAYER
  5
10
100
AcDbSymbolTableRecord
100
AcDbLayerTableRecord
  2
0
 70
0
 62
7
  6
CONTINUOUS
370
-3
390
F
  0
LAYER
  5
1FA
100
AcDbSymbolTableRecord
100
AcDbLayerTableRecord
  2
DEFAULT_1
 70
0
 62
7
  6
CENTER
370
-3
390
F
  0
LAYER
  5
1FB
100
AcDbSymbolTableRecord
100
AcDbLayerTableRecord
  2
DEFAULT_2
 70
0
 62
7
  6
HIDDEN
370
-3
390
F
  0
LAYER
  5
1FC
100
AcDbSymbolTableRecord
100
AcDbLayerTableRecord
  2
DEFAULT_3
 70
0
 62
7
  6
PHANTOM
370
-3
390
F
  0
LAYER
  5
1FD
100
AcDbSymbolTableRecord
100
AcDbLayerTableRecord
  2
00_COMPONENTS
 70
0
 62
7
  6
CONTINUOUS
370
-3
390
F
  0
LAYER
  5
1FE
100
AcDbSymbolTableRecord
100
AcDbLayerTableRecord
  2
01_1_DEFAULT_DATUMS
 70
0
 62
7
  6
CONTINUOUS
370
-3
390
F
  0
LAYER
  5
1FF
100
AcDbSymbolTableRecord
100
AcDbLayerTableRecord
  2
01_PLANES
 70
0
 62
7
  6
CONTINUOUS
370
-3
390
F
  0
LAYER
  5
200
100
AcDbSymbolTableRecord
100
AcDbLayerTableRecord
  2
02_COORD_SYS
 70
0
 62
7
  6
CONTINUOUS
370
-3
390
F
  0
LAYER
  5
201
100
AcDbSymbolTableRecord
100
AcDbLayerTableRecord
  2
03_AXES
 70
0
 62
7
  6
CONTINUOUS
370
-3
390
F
  0
LAYER
  5
202
100
AcDbSymbolTableRecord
100
AcDbLayerTableRecord
  2
04_POINTS
 70
0
 62
7
  6
CONTINUOUS
370
-3
390
F
  0
LAYER
  5
203
100
AcDbSymbolTableRecord
100
AcDbLayerTableRecord
  2
05_CURVES
 70
0
 62
7
  6
CONTINUOUS
370
-3
390
F
  0
LAYER
  5
204
100
AcDbSymbolTableRecord
100
AcDbLayerTableRecord
  2
06_SURFS
 70
0
 62
7
  6
CONTINUOUS
370
-3
390
F
  0
LAYER
  5
205
100
AcDbSymbolTableRecord
100
AcDbLayerTableRecord
  2
07_COSMETICS
 70
0
 62
7
  6
CONTINUOUS
370
-3
390
F
  0
LAYER
  5
206
100
AcDbSymbolTableRecord
100
AcDbLayerTableRecord
  2
10_NOTES
 70
0
 62
7
  6
CONTINUOUS
370
-3
390
F
  0
LAYER
  5
207
100
AcDbSymbolTableRecord
100
AcDbLayerTableRecord
  2
11_NOTES_PUB
 70
0
 62
7
  6
CONTINUOUS
370
-3
390
F
  0
LAYER
  5
208
100
AcDbSymbolTableRecord
100
AcDbLayerTableRecord
  2
13_REF_GTOL
 70
0
 62
7
  6
CONTINUOUS
370
-3
390
F
  0
LAYER
  5
209
100
AcDbSymbolTableRecord
100
AcDbLayerTableRecord
  2
16_MISC
 70
0
 62
7
  6
CONTINUOUS
370
-3
390
F
  0
LAYER
  5
20A
100
AcDbSymbolTableRecord
100
AcDbLayerTableRecord
  2
17_NO_PRINT
 70
0
 62
7
  6
CONTINUOUS
370
-3
390
F
  0
LAYER
  5
20B
100
AcDbSymbolTableRecord
100
AcDbLayerTableRecord
  2
18_DATUM_CAMS_JOINTS
 70
0
 62
7
  6
CONTINUOUS
370
-3
390
F
  0
LAYER
  5
20C
100
AcDbSymbolTableRecord
100
AcDbLayerTableRecord
  2
19_DATUM_FUNCTIONAL
 70
0
 62
7
  6
CONTINUOUS
370
-3
390
F
  0
LAYER
  5
20D
100
AcDbSymbolTableRecord
100
AcDbLayerTableRecord
  2
20_DATUM_KINEMATIC_SCHEME
 70
0
 62
7
  6
CONTINUOUS
370
-3
390
F
  0
ENDTAB
  0
TABLE
  2
STYLE
  5
3
100
AcDbSymbolTable
 70
1
  0
STYLE
  5
11
100
AcDbSymbolTableRecord
100
AcDbTextStyleTableRecord
  2
STANDARD
 70
0
 40
0.0
 41
1.0
 50
0.0
 71
0
 42
0.2
  3
ARIAL.TTF
  4

  0
STYLE
  5
20E
100
AcDbSymbolTableRecord
100
AcDbTextStyleTableRecord
  2
TEXTSTYLE_1
 70
0
 40
0.0
 41
0.8
 50
0.0
 71
0
 42
0.2
  3
gdt
  4

  0
ENDTAB
  0
TABLE
  2
VIEW
  5
6
100
AcDbSymbolTable
 70
0
  0
ENDTAB
  0
TABLE
  2
UCS
  5
7
100
AcDbSymbolTable
 70
0
  0
ENDTAB
  0
TABLE
  2
APPID
  5
9
100
AcDbSymbolTable
 70
1
  0
APPID
  5
20F
100
AcDbSymbolTableRecord
100
AcDbRegAppTableRecord
  2
ACAD
 70
0
  0
ENDTAB
  0
TABLE
  2
BLOCK_RECORD
  5
1
100
AcDbSymbolTable
 70
0
  0
BLOCK_RECORD
  5
210
100
AcDbSymbolTableRecord
100
AcDbBlockTableRecord
  2
*Model_Space
  0
BLOCK_RECORD
  5
211
100
AcDbSymbolTableRecord
100
AcDbBlockTableRecord
  2
*Paper_Space
  0
BLOCK_RECORD
  5
212
100
AcDbSymbolTableRecord
100
AcDbBlockTableRecord
  2
_FILLED
  0
ENDTAB
  0
TABLE
  2
DIMSTYLE
  5
A
100
AcDbSymbolTable
 70
1
100
AcDbDimStyleTable
 71
0
  0
DIMSTYLE
105
213
100
AcDbSymbolTableRecord
100
AcDbDimStyleTableRecord
  2
STANDARD
 70
0
  3

  4

 40
1.0
 41
0.7567741269
 42
1.0
 43
0.38
 44
1.0
 45
0.0
 46
0.0
 47
0.01
 48
0.01
140
1.0594837777
141
0.09
142
0.0
143
25.4
144
1.0
145
0.0
146
1.0
147
0.625
 71
1
 72
0
 73
0
 74
0
 75
0
 76
0
 77
1
 78
8
 79
2
170
0
171
1
172
0
173
0
174
0
175
0
176
0
177
0
178
0
270
2
179
2
271
2
272
2
273
2
274
2
275
0
280
0
281
0
282
0
283
1
284
8
285
0
286
0
287
3
288
0
340
11
278
46
341
212
342
212
343
212
344
212
  0
ENDTAB
  0
ENDSEC
  0
SECTION
  2
BLOCKS
  0
BLOCK
  5
20
100
AcDbEntity
  8
0
100
AcDbBlockBegin
  2
*Model_Space
 70
0
 10
0.0
 20
0.0
 30
0.0
  3
*Model_Space
  1

  0
ENDBLK
  5
21
100
AcDbEntity
  8
0
100
AcDbBlockEnd
  0
BLOCK
  5
1C
100
AcDbEntity
  8
0
100
AcDbBlockBegin
  2
*Paper_Space
 70
0
 10
0.0
 20
0.0
 30
0.0
  3
*Paper_Space
  1

  0
ENDBLK
  5
1D
100
AcDbEntity
  8
0
100
AcDbBlockEnd
  0
BLOCK
  5
214
100
AcDbEntity
  8
0
100
AcDbBlockBegin
  2
_FILLED
 70
64
 10
0.0
 20
0.0
  3
_FILLED
  1

  0
SOLID
  5
215
100
AcDbEntity
  8
0
  6
BYBLOCK
 62
0
100
AcDbTrace
 10
0.0
 20
0.0
 11
-1.0
 21
0.25
 12
-1.0
 22
-0.25
 13
-1.0
 23
-0.25
  0
ENDBLK
  5
216
100
AcDbEntity
  8
0
  6
BYBLOCK
 62
0
100
AcDbBlockEnd
  0
ENDSEC
  0
SECTION
  2
ENTITIES
  0
LINE
  5
217
100
AcDbEntity
  8
0
100
AcDbLine
 62
7
  6
BYLAYER
 10
23.9016925743
 20
68.5324894581
 11
22.1339329812
 21
67.5118790734
  0
LINE
  5
218
100
AcDbEntity
  8
0
100
AcDbLine
 62
7
  6
BYLAYER
 10
25.6694668871
 20
67.5118875718
 11
23.9017072941
 21
66.4912771871
  0
LINE
  5
219
100
AcDbEntity
  8
0
100
AcDbLine
 62
7
  6
BYLAYER
 10
30.2762319887
 20
67.2198932345
 11
27.458816968
 21
65.5932676235
  0
LINE
  5
21A
100
AcDbEntity
  8
0
100
AcDbLine
 62
7
  6
BYLAYER
 10
30.7721480481
 20
25.386748268
 11
34.5896707897
 21
23.1827503466
  0
LINE
  5
21B
100
AcDbEntity
  8
0
100
AcDbLine
 62
7
  6
BYLAYER
 10
35.1553585698
 20
24.3129699503
 11
32.5382452521
 21
25.8239268464
  0
LINE
  5
21C
100
AcDbEntity
  8
0
100
AcDbLine
 62
7
  6
BYLAYER
 10
30.73588746
 20
62.2189242754
 11
26.3518436693
 21
59.6878105214
  0
LINE
  5
21D
100
AcDbEntity
  8
0
100
AcDbLine
 62
7
  6
BYLAYER
 10
24.1421212268
 20
55.8312056871
 11
26.3518436693
 21
57.107020755
  0
LINE
  5
21E
100
AcDbEntity
  8
0
100
AcDbLine
 62
7
  6
BYLAYER
 10
47.3378468248
 20
68.4564036519
 11
43.1901127686
 21
66.0617225724
  0
LINE
  5
21F
100
AcDbEntity
  8
0
100
AcDbLine
 62
7
  6
BYLAYER
 10
22.1376808861
 20
53.8741440533
 11
17.8950578628
 21
51.4246791301
  0
LINE
  5
220
100
AcDbEntity
  8
0
100
AcDbLine
 62
7
  6
BYLAYER
 10
12.8419044879
 20
47.9296154818
 11
10.618752887
 21
46.6460859682
  0
LINE
  5
221
100
AcDbEntity
  8
0
100
AcDbLine
 62
7
  6
BYLAYER
 10
15.321225587
 20
49.3507490652
 11
12.9685150817
 21
47.9924191298
  0
LINE
  5
222
100
AcDbEntity
  8
0
100
AcDbLine
 62
7
  6
BYLAYER
 10
38.4433554238
 20
62.5047089925
 11
43.8972224938
 21
65.6534818178
  0
LINE
  5
223
100
AcDbEntity
  8
0
100
AcDbLine
 62
7
  6
BYLAYER
 10
48.267377504
 20
67.782247349
 11
44.7980924059
 21
65.7986317065
  0
LINE
  5
224
100
AcDbEntity
  8
0
100
AcDbLine
 62
7
  6
BYLAYER
 10
22.1339329812
 20
67.5118790734
 11
22.1339329812
 21
53.8741440533
  0
LINE
  5
225
100
AcDbEntity
  8
0
100
AcDbLine
 62
7
  6
BYLAYER
 10
37.8343332171
 20
29.1350170606
 11
40.1864442642
 21
27.7770558355
  0
LINE
  5
226
100
AcDbEntity
  8
0
100
AcDbLine
 62
7
  6
BYLAYER
 10
40.7521320444
 20
29.4917192748
 11
38.8369652777
 21
30.5974163088
  0
LINE
  5
227
100
AcDbEntity
  8
0
100
AcDbLine
 62
7
  6
BYLAYER
 10
23.9017072941
 20
54.3466551095
 11
23.9017072941
 21
66.4912771871
  0
LINE
  5
228
100
AcDbEntity
  8
0
100
AcDbLine
 62
7
  6
BYLAYER
 10
24.1421212268
 20
54.3860293393
 11
24.1421212268
 21
55.8312056871
  0
LINE
  5
229
100
AcDbEntity
  8
0
100
AcDbLine
 62
7
  6
BYLAYER
 10
43.1901127686
 20
66.0617225724
 11
41.0472472164
 21
64.0080576461
  0
LINE
  5
22A
100
AcDbEntity
  8
0
100
AcDbLine
 62
7
  6
BYLAYER
 10
49.2394651737
 20
63.2177499229
 11
52.7620342224
 21
65.2318314612
  0
LINE
  5
22B
100
AcDbEntity
  8
0
100
AcDbLine
 62
7
  6
BYLAYER
 10
45.3376826766
 20
28.7220672081
 11
44.6934428447
 21
29.0940108339
  0
LINE
  5
22C
100
AcDbEntity
  8
0
100
AcDbLine
 62
7
  6
BYLAYER
 10
40.5824268879
 20
31.467656117
 11
39.537583702
 21
32.0708829648
  0
LINE
  5
22D
100
AcDbEntity
  8
0
100
AcDbLine
 62
7
  6
BYLAYER
 10
26.3518436693
 20
57.107020755
 11
26.3518436693
 21
59.6878105214
  0
LINE
  5
22E
100
AcDbEntity
  8
0
100
AcDbLine
 62
7
  6
BYLAYER
 10
49.4126783499
 20
62.4692039326
 11
43.9588112799
 21
59.3204311072
  0
LINE
  5
22F
100
AcDbEntity
  8
0
100
AcDbLine
 62
7
  6
BYLAYER
 10
50.1197880751
 20
62.0609631781
 11
54.2675221312
 21
64.4556442576
  0
LINE
  5
230
100
AcDbEntity
  8
0
100
AcDbLine
 62
7
  6
BYLAYER
 10
42.8734465
 20
57.5793900143
 11
41.1056869069
 21
56.5587796296
  0
LINE
  5
231
100
AcDbEntity
  8
0
100
AcDbLine
 62
7
  6
BYLAYER
 10
37.347043365
 20
53.3398726268
 11
41.1056869069
 21
55.5099135342
  0
LINE
  5
232
100
AcDbEntity
  8
0
100
AcDbLine
 62
7
  6
BYLAYER
 10
49.792473945
 20
27.3749040803
 11
45.7541257613
 21
29.7063927459
  0
LINE
  5
233
100
AcDbEntity
  8
0
100
AcDbLine
 62
7
  6
BYLAYER
 10
47.3176105147
 20
29.865261144
 11
46.6199666391
 21
30.2680369114
  0
LINE
  5
234
100
AcDbEntity
  8
0
100
AcDbLine
 62
7
  6
BYLAYER
 10
28.1443303174
 20
60.7226969927
 11
28.1443303174
 21
64.8582300247
  0
LINE
  5
235
100
AcDbEntity
  8
0
100
AcDbLine
 62
7
  6
BYLAYER
 10
42.8734612198
 20
55.5381777433
 11
44.6412208128
 21
56.558788128
  0
LINE
  5
236
100
AcDbEntity
  8
0
100
AcDbLine
 62
7
  6
BYLAYER
 10
48.6740661091
 20
30.6484064718
 11
49.792473945
 21
30.0027080143
  0
LINE
  5
237
100
AcDbEntity
  8
0
100
AcDbLine
 62
7
  6
BYLAYER
 10
49.792473945
 20
30.0027080143
 11
48.7318181892
 21
30.6817494517
  0
LINE
  5
238
100
AcDbEntity
  8
0
100
AcDbLine
 62
7
  6
BYLAYER
 10
49.4126783499
 20
62.4692039326
 11
45.3119747531
 21
58.5391994855
  0
LINE
  5
239
100
AcDbEntity
  8
0
100
AcDbLine
 62
7
  6
BYLAYER
 10
46.0190844782
 20
58.130958731
 11
50.1197880751
 21
62.0609631781
  0
LINE
  5
23A
100
AcDbEntity
  8
0
100
AcDbLine
 62
7
  6
BYLAYER
 10
51.065260852
 20
38.2751986505
 11
54.2472281194
 21
37.2953640038
  0
LINE
  5
23B
100
AcDbEntity
  8
0
100
AcDbLine
 62
7
  6
BYLAYER
 10
53.5896160751
 20
37.6750279056
 11
51.4683045634
 21
38.3282510033
  0
LWPOLYLINE
  5
23C
100
AcDbEntity
  8
0
100
AcDbPolyline
 62
7
  6
BYLAYER
 90
9
 70
0
 10
33.1011093148
 20
32.0884051458
 10
32.7117431776
 20
35.4380165448
 10
31.5773821531
 20
38.9603733033
 10
29.7882861991
 20
42.3774959972
 10
27.4928084146
 20
45.4068772274
 10
24.8717132558
 20
47.8099781933
 10
22.1378824699
 20
49.3891618654
 10
19.5173625293
 20
50.0143733646
 10
18.7610181906
 20
49.8904512961
  0
LINE
  5
23D
100
AcDbEntity
  8
0
100
AcDbLine
 62
7
  6
BYLAYER
 10
48.267377504
 20
67.782247349
 11
46.3315090472
 21
64.9075632727
  0
LINE
  5
23E
100
AcDbEntity
  8
0
100
AcDbLine
 62
7
  6
BYLAYER
 10
47.3176105147
 20
52.6456785819
 11
51.4188127706
 21
55.0134946743
  0
LINE
  5
23F
100
AcDbEntity
  8
0
100
AcDbLine
 62
7
  6
BYLAYER
 10
41.1056869069
 20
48.0001003067
 11
40.5824268879
 21
47.6979977972
  0
LINE
  5
240
100
AcDbEntity
  8
0
100
AcDbLine
 62
7
  6
BYLAYER
 10
35.5089134324
 20
27.5303676327
 11
35.5089134324
 21
24.5171007817
  0
LINE
  5
241
100
AcDbEntity
  8
0
100
AcDbLine
 62
7
  6
BYLAYER
 10
51.065260852
 20
38.5609431344
 11
51.4683045634
 21
38.3282510033
  0
LINE
  5
242
100
AcDbEntity
  8
0
100
AcDbLine
 62
7
  6
BYLAYER
 10
54.2472281194
 20
37.2953640038
 11
53.5896160751
 21
37.6750279056
  0
LINE
  5
243
100
AcDbEntity
  8
0
100
AcDbLine
 62
7
  6
BYLAYER
 10
37.2766877453
 20
24.7341446645
 11
37.2766877453
 21
28.6587978534
  0
LINE
  5
244
100
AcDbEntity
  8
0
100
AcDbLine
 62
7
  6
BYLAYER
 10
51.4188127706
 20
49.8695294464
 11
52.1259166078
 21
50.2777736003
  0
LWPOLYLINE
  5
245
100
AcDbEntity
  8
0
100
AcDbPolyline
 62
7
  6
BYLAYER
 90
6
 70
0
 10
39.0278429875
 20
40.2450591955
 10
38.9050073937
 20
41.2120635849
 10
37.891270747
 20
44.0978334581
 10
36.2953828271
 20
46.8611829945
 10
34.2897399117
 20
49.1935122964
 10
33.8882270481
 20
49.4975584863
  0
LINE
  5
246
100
AcDbEntity
  8
0
100
AcDbLine
 62
7
  6
BYLAYER
 10
40.5824268879
 20
47.6979977972
 11
40.5824268879
 21
31.467656117
  0
LINE
  5
247
100
AcDbEntity
  8
0
100
AcDbLine
 62
7
  6
BYLAYER
 10
41.1056869069
 20
56.5587796296
 11
41.1056869069
 21
29.6958501061
  0
LINE
  5
248
100
AcDbEntity
  8
0
100
AcDbLine
 62
7
  6
BYLAYER
 10
41.5193107685
 20
27.1836095877
 11
41.5193107685
 21
27.4785310155
  0
LINE
  5
249
100
AcDbEntity
  8
0
100
AcDbLine
 62
7
  6
BYLAYER
 10
37.347043365
 20
53.3398726269
 11
40.5824268879
 21
47.6979977972
  0
LINE
  5
24A
100
AcDbEntity
  8
0
100
AcDbLine
 62
7
  6
BYLAYER
 10
42.8734612198
 20
29.3284501535
 11
42.8734612198
 21
55.5381777433
  0
LINE
  5
24B
100
AcDbEntity
  8
0
100
AcDbLine
 62
7
  6
BYLAYER
 10
26.3518436693
 20
59.6878105214
 11
37.347043365
 21
53.3398726269
  0
LINE
  5
24C
100
AcDbEntity
  8
0
100
AcDbLine
 62
7
  6
BYLAYER
 10
25.6694668871
 20
67.5118875718
 11
28.1443303174
 21
64.8582300247
  0
LINE
  5
24D
100
AcDbEntity
  8
0
100
AcDbLine
 62
7
  6
BYLAYER
 10
45.3376826766
 20
29.4659606541
 11
45.3376826766
 21
28.7220672081
  0
LINE
  5
24E
100
AcDbEntity
  8
0
100
AcDbLine
 62
7
  6
BYLAYER
 10
28.1443303174
 20
63.7151266407
 11
30.73588746
 21
62.2189242754
  0
LINE
  5
24F
100
AcDbEntity
  8
0
100
AcDbLine
 62
7
  6
BYLAYER
 10
47.1160842431
 20
52.7620271969
 11
47.3176105147
 21
52.6456785819
  0
LINE
  5
250
100
AcDbEntity
  8
0
100
AcDbLine
 62
7
  6
BYLAYER
 10
47.1160842431
 20
31.7779150767
 11
47.1160842431
 21
53.9051305809
  0
LINE
  5
251
100
AcDbEntity
  8
0
100
AcDbLine
 62
7
  6
BYLAYER
 10
47.3176105147
 20
29.865261144
 11
47.3176105147
 21
52.6456785819
  0
LINE
  5
252
100
AcDbEntity
  8
0
100
AcDbLine
 62
7
  6
BYLAYER
 10
52.1259166078
 20
45.117727729
 11
51.065260852
 21
43.9242185142
  0
LINE
  5
253
100
AcDbEntity
  8
0
100
AcDbLine
 62
7
  6
BYLAYER
 10
39.8223144815
 20
31.9064972915
 11
39.3782637102
 21
31.6501259895
  0
LINE
  5
254
100
AcDbEntity
  8
0
100
AcDbLine
 62
7
  6
BYLAYER
 10
40.5824268879
 20
31.467656117
 11
41.1056869069
 21
31.7697586265
  0
LINE
  5
255
100
AcDbEntity
  8
0
100
AcDbLine
 62
7
  6
BYLAYER
 10
29.5619934069
 20
24.6848684278
 11
27.1281987455
 21
23.2797248124
  0
LINE
  5
256
100
AcDbEntity
  8
0
100
AcDbLine
 62
7
  6
BYLAYER
 10
27.0915876456
 20
23.2482929341
 11
24.8684360447
 21
21.9647634206
  0
LINE
  5
257
100
AcDbEntity
  8
0
100
AcDbLine
 62
7
  6
BYLAYER
 10
54.2675221312
 20
64.4556442576
 11
57.1816498701
 21
64.9133530235
  0
LINE
  5
258
100
AcDbEntity
  8
0
100
AcDbLine
 62
7
  6
BYLAYER
 10
42.8734612198
 20
55.5381777433
 11
41.1056869069
 21
56.5587796296
  0
LINE
  5
259
100
AcDbEntity
  8
0
100
AcDbLine
 62
7
  6
BYLAYER
 10
23.9017072941
 20
66.4912771871
 11
22.1339329812
 21
67.5118790734
  0
LINE
  5
25A
100
AcDbEntity
  8
0
100
AcDbLine
 62
7
  6
BYLAYER
 10
51.4188127706
 20
50.6860109555
 11
52.1259166078
 21
50.2777736003
  0
LINE
  5
25B
100
AcDbEntity
  8
0
100
AcDbLine
 62
7
  6
BYLAYER
 10
23.9016925743
 20
68.5324894581
 11
25.6694668871
 21
67.5118875718
  0
LINE
  5
25C
100
AcDbEntity
  8
0
100
AcDbLine
 62
7
  6
BYLAYER
 10
42.8734465
 20
57.5793900143
 11
44.6412208128
 21
56.558788128
  0
LINE
  5
25D
100
AcDbEntity
  8
0
100
AcDbLine
 62
7
  6
BYLAYER
 10
49.792473945
 20
27.3749040803
 11
49.792473945
 21
30.0027080143
  0
LINE
  5
25E
100
AcDbEntity
  8
0
100
AcDbLine
 62
7
  6
BYLAYER
 10
36.8876148521
 20
28.3263565171
 11
32.6449918288
 21
25.8768915939
  0
LINE
  5
25F
100
AcDbEntity
  8
0
100
AcDbLine
 62
7
  6
BYLAYER
 10
54.2675221312
 20
38.3275669094
 11
53.2946224342
 21
37.7658663604
  0
LINE
  5
260
100
AcDbEntity
  8
0
100
AcDbLine
 62
7
  6
BYLAYER
 10
40.7521320444
 20
29.4917192748
 11
41.1056899617
 21
29.695844815
  0
LWPOLYLINE
  5
261
100
AcDbEntity
  8
0
100
AcDbPolyline
 62
7
  6
BYLAYER
 90
3
 70
0
 10
32.6449042965
 20
25.8770432082
 10
32.0996449369
 20
25.6055032413
 10
30.2908213364
 20
25.3074316136
  0
LINE
  5
262
100
AcDbEntity
  8
0
100
AcDbLine
 62
7
  6
BYLAYER
 10
51.4188127706
 20
55.0134946743
 11
30.2762319887
 21
67.2198932345
  0
LINE
  5
263
100
AcDbEntity
  8
0
100
AcDbLine
 62
7
  6
BYLAYER
 10
44.6412208128
 20
56.558788128
 11
47.1160842431
 21
53.9051305809
  0
LINE
  5
264
100
AcDbEntity
  8
0
100
AcDbLine
 62
7
  6
BYLAYER
 10
51.065260852
 20
43.9242185142
 11
51.065260852
 21
38.2751986505
  0
LINE
  5
265
100
AcDbEntity
  8
0
100
AcDbLine
 62
7
  6
BYLAYER
 10
51.4188127706
 20
55.0134946743
 11
51.4188127706
 21
49.8695294464
  0
LINE
  5
266
100
AcDbEntity
  8
0
100
AcDbLine
 62
7
  6
BYLAYER
 10
52.1259166078
 20
50.2777736003
 11
52.1259166078
 21
45.117727729
  0
LINE
  5
267
100
AcDbEntity
  8
0
100
AcDbLine
 62
7
  6
BYLAYER
 10
57.1816498701
 20
41.2347829267
 11
54.2675221312
 21
38.3275669094
  0
LINE
  5
268
100
AcDbEntity
  8
0
100
AcDbLine
 62
7
  6
BYLAYER
 10
46.3290538103
 20
30.0383371066
 11
46.6199666391
 21
30.2680369114
  0
LINE
  5
269
100
AcDbEntity
  8
0
100
AcDbLine
 62
7
  6
BYLAYER
 10
42.8734612198
 20
29.3284501535
 11
47.1160842431
 21
31.7779150767
  0
LINE
  5
26A
100
AcDbEntity
  8
0
100
AcDbLine
 62
7
  6
BYLAYER
 10
35.1553585698
 20
24.3129699503
 11
35.5089164871
 21
24.5170954906
  0
LINE
  5
26B
100
AcDbEntity
  8
0
100
AcDbLine
 62
7
  6
BYLAYER
 10
42.0864357582
 20
27.5888635753
 11
46.3290587814
 21
30.0383284985
  0
LINE
  5
26C
100
AcDbEntity
  8
0
100
AcDbLine
 62
7
  6
BYLAYER
 10
37.2766877453
 20
24.7341446645
 11
41.5193107685
 21
27.1836095877
  0
LINE
  5
26D
100
AcDbEntity
  8
0
100
AcDbLine
 62
7
  6
BYLAYER
 10
48.7318181892
 20
30.6817494517
 11
47.3176105147
 21
29.865261144
  0
LINE
  5
26E
100
AcDbEntity
  8
0
100
AcDbLine
 62
7
  6
BYLAYER
 10
46.3983655931
 20
29.3344491201
 11
45.3376826766
 21
28.7220672081
  0
LINE
  5
26F
100
AcDbEntity
  8
0
100
AcDbLine
 62
7
  6
BYLAYER
 10
50.2519745637
 20
68.9141124178
 11
47.3378468248
 21
68.4564036519
  0
LINE
  5
270
100
AcDbEntity
  8
0
100
AcDbLine
 62
7
  6
BYLAYER
 10
54.2472281194
 20
37.2953640038
 11
54.2472281194
 21
30.583714135
  0
LINE
  5
271
100
AcDbEntity
  8
0
100
AcDbLine
 62
7
  6
BYLAYER
 10
36.4896622836
 20
22.9945580863
 11
40.7322853069
 21
25.4440230095
  0
LINE
  5
272
100
AcDbEntity
  8
0
100
AcDbLine
 62
7
  6
BYLAYER
 10
57.1816498701
 20
64.9133530235
 11
57.1816498701
 21
41.2347829267
  0
LINE
  5
273
100
AcDbEntity
  8
0
100
AcDbLine
 62
7
  6
BYLAYER
 10
53.9287957786
 20
29.7629963494
 11
49.792473945
 21
27.3749040803
  0
LINE
  5
274
100
AcDbEntity
  8
0
100
AcDbLine
 62
7
  6
BYLAYER
 10
50.1197880751
 20
62.0609631781
 11
49.4126783499
 21
62.4692039326
  0
LINE
  5
275
100
AcDbEntity
  8
0
100
AcDbLine
 62
7
  6
BYLAYER
 10
43.8972224938
 20
65.6534818178
 11
43.1901127686
 21
66.0617225724
  0
LINE
  5
276
100
AcDbEntity
  8
0
100
AcDbLine
 62
7
  6
BYLAYER
 10
44.7980924059
 20
65.7986317065
 11
49.2394651737
 21
63.2177499229
  0
LINE
  5
277
100
AcDbEntity
  8
0
100
AcDbLine
 62
7
  6
BYLAYER
 10
54.2472281194
 20
30.583714135
 11
53.9287957786
 21
29.7629963494
  0
LINE
  5
278
100
AcDbEntity
  8
0
100
AcDbLine
 62
7
  6
BYLAYER
 10
52.7620342224
 20
65.2318314612
 11
48.267377504
 21
67.782247349
  0
LINE
  5
279
100
AcDbEntity
  8
0
100
AcDbLine
 62
7
  6
BYLAYER
 10
47.3378468248
 20
68.4564036519
 11
54.2675221312
 21
64.4556442576
  0
LINE
  5
27A
100
AcDbEntity
  8
0
100
AcDbLine
 62
7
  6
BYLAYER
 10
57.1816498701
 20
64.9133530235
 11
50.2519745637
 21
68.9141124178
  0
ARC
  5
27B
100
AcDbEntity
  8
0
100
AcDbCircle
 62
7
  6
BYLAYER
 10
21.059880738
 20
39.7152645775
 40
13.6853912436
100
AcDbArc
 50
180.0036202819
 51
180.9801234225
  0
ARC
  5
27C
100
AcDbEntity
  8
0
100
AcDbCircle
 62
7
  6
BYLAYER
 10
24.714515341
 20
27.3655490321
 40
4.7541647229
100
AcDbArc
 50
299.9997222699
 51
300.5715954171
  0
SPLINE
  5
27D
100
AcDbEntity
  8
0
100
AcDbSpline
 62
7
  6
BYLAYER
 70
0
 71
3
 72
28
 73
24
 74
0
 42
0.0000001
 43
0.0000001
 44
0.0000000001
 40
0.0
 40
0.0
 40
0.0
 40
0.0
 40
0.0306651472
 40
0.062403764
 40
0.1287335278
 40
0.1983176685
 40
0.2702847365
 40
0.3436526564
 40
0.4173748585
 40
0.4903898052
 40
0.5616671148
 40
0.6302556549
 40
0.6953351371
 40
0.7562752471
 40
0.7850826273
 40
0.812742947
 40
0.8646373369
 40
0.8890214051
 40
0.912467876
 40
0.9351099992
 40
0.9571125921
 40
0.9786705352
 40
1.0
 40
1.0
 40
1.0
 40
1.0
 10
32.5114399974
 20
31.2041209196
 30
0.0
 10
32.5114399974
 20
31.4945704804
 30
0.0
 10
32.4922461751
 20
32.0857810065
 30
0.0
 10
32.3806177931
 20
33.3005355798
 30
0.0
 10
32.1020055708
 20
34.8671724497
 30
0.0
 10
31.5666026078
 20
36.7648769362
 30
0.0
 10
30.8364650429
 20
38.6679701029
 30
0.0
 10
29.9272385826
 20
40.5357693117
 30
0.0
 10
28.8582819616
 20
42.328515166
 30
0.0
 10
27.6524052007
 20
44.0079483819
 30
0.0
 10
26.3353098987
 20
45.5382719703
 30
0.0
 10
24.9348753559
 20
46.8869969514
 30
0.0
 10
23.4807964638
 20
48.0253806744
 30
0.0
 10
22.2263194503
 20
48.7928889733
 30
0.0
 10
21.2228064998
 20
49.2742280905
 30
0.0
 10
20.2671731702
 20
49.6501299004
 30
0.0
 10
19.3100403738
 20
49.9042551742
 30
0.0
 10
18.3706456474
 20
50.0147601967
 30
0.0
 10
17.7019696509
 20
50.0252591839
 30
0.0
 10
17.0584933675
 20
49.9649508245
 30
0.0
 10
16.4437593321
 20
49.8337810628
 30
0.0
 10
15.8614170749
 20
49.6325305102
 30
0.0
 10
15.4961949697
 20
49.4517436793
 30
0.0
 10
15.3212354812
 20
49.3507319245
 30
0.0
  0
SPLINE
  5
27E
100
AcDbEntity
  8
0
100
AcDbSpline
 62
7
  6
BYLAYER
 70
0
 71
3
 72
28
 73
24
 74
0
 42
0.0000001
 43
0.0000001
 44
0.0000000001
 40
0.0
 40
0.0
 40
0.0
 40
0.0
 40
0.0306651474
 40
0.0624037644
 40
0.1287335281
 40
0.1983176682
 40
0.2702847362
 40
0.3436526567
 40
0.4173748594
 40
0.4903898066
 40
0.5616671165
 40
0.6302556566
 40
0.6953351385
 40
0.7562752478
 40
0.7850826276
 40
0.8127429471
 40
0.8646373365
 40
0.8890214047
 40
0.9124678755
 40
0.9351099987
 40
0.9571125917
 40
0.978670535
 40
1.0
 40
1.0
 40
1.0
 40
1.0
 10
30.0428807174
 20
29.7716267605
 30
0.0
 10
30.0428807174
 20
30.062258157
 30
0.0
 10
30.0236748776
 20
30.6538388111
 30
0.0
 10
29.9119766118
 20
31.8693538769
 30
0.0
 10
29.6331899656
 20
33.4369715247
 30
0.0
 10
29.0974518193
 20
35.3358640487
 30
0.0
 10
28.3668571576
 20
37.2401486334
 30
0.0
 10
27.4570614775
 20
39.1091171758
 30
0.0
 10
26.3874356334
 20
40.90298538
 30
0.0
 10
25.180803932
 20
42.5834700031
 30
0.0
 10
23.8628840624
 20
44.1147516439
 30
0.0
 10
22.4615727844
 20
45.4643209824
 30
0.0
 10
21.0065835797
 20
46.6034173734
 30
0.0
 10
19.7513212197
 20
47.3714061565
 30
0.0
 10
18.747180037
 20
47.8530466049
 30
0.0
 10
17.7909484485
 20
48.2291837427
 30
0.0
 10
16.8332164519
 20
48.4834681074
 30
0.0
 10
15.8932336283
 20
48.5940423121
 30
0.0
 10
15.2241390129
 20
48.6045478734
 30
0.0
 10
14.5802598852
 20
48.5442017599
 30
0.0
 10
13.9651409973
 20
48.41294988
 30
0.0
 10
13.3824341637
 20
48.2115733366
 30
0.0
 10
13.0169834107
 20
48.0306733235
 30
0.0
 10
12.8419143884
 20
47.92959833
 30
0.0
  0
SPLINE
  5
27F
100
AcDbEntity
  8
0
100
AcDbSpline
 62
7
  6
BYLAYER
 70
0
 71
3
 72
16
 73
12
 74
0
 42
0.0000001
 43
0.0000001
 44
0.0000000001
 40
0.0
 40
0.0
 40
0.0
 40
0.0
 40
0.053920175
 40
0.1080987885
 40
0.2181371693
 40
0.3320633131
 40
0.4514108255
 40
0.5773180045
 40
0.7105201629
 40
0.8514295981
 40
1.0
 40
1.0
 40
1.0
 40
1.0
 10
36.8876045889
 20
28.3263742976
 30
0.0
 10
37.0083408238
 20
28.3960805867
 30
0.0
 10
37.2445765114
 20
28.5462203783
 30
0.0
 10
37.6936861135
 20
28.8882914629
 30
0.0
 10
38.2088830468
 20
29.3951140697
 30
0.0
 10
38.7370993731
 20
30.1126520448
 30
0.0
 10
39.1746318951
 20
30.9352064498
 30
0.0
 10
39.5178203784
 20
31.8542467761
 30
0.0
 10
39.7641177071
 20
32.8609626758
 30
0.0
 10
39.9115378998
 20
33.9455786949
 30
0.0
 10
39.942516315
 20
34.694561624
 30
0.0
 10
39.942516315
 20
35.078699156
 30
0.0
  0
SPLINE
  5
280
100
AcDbEntity
  8
0
100
AcDbSpline
 62
7
  6
BYLAYER
 70
0
 71
3
 72
11
 73
7
 74
0
 42
0.0000001
 43
0.0000001
 44
0.0000000001
 40
0.0
 40
0.0
 40
0.0
 40
0.0
 40
0.2578806979
 40
0.5091112082
 40
0.7557362738
 40
1.0
 40
1.0
 40
1.0
 40
1.0
 10
16.1461581933
 20
49.7535297595
 30
0.0
 10
16.2620767494
 20
49.9282745752
 30
0.0
 10
16.5090073342
 20
50.2617372347
 30
0.0
 10
16.9284402813
 20
50.7126597877
 30
0.0
 10
17.3891406302
 20
51.1045367498
 30
0.0
 10
17.7230539262
 20
51.3253499665
 30
0.0
 10
17.8950680493
 20
51.4246614837
 30
0.0
  0
SPLINE
  5
281
100
AcDbEntity
  8
0
100
AcDbSpline
 62
7
  6
BYLAYER
 70
0
 71
3
 72
28
 73
24
 74
0
 42
0.0000001
 43
0.0000001
 44
0.0000000001
 40
0.0
 40
0.0
 40
0.0
 40
0.0
 40
0.0306651602
 40
0.0624038023
 40
0.1287335723
 40
0.1983176868
 40
0.2702847626
 40
0.3436527228
 40
0.4173749603
 40
0.490389924
 40
0.5616672341
 40
0.6302557783
 40
0.695335237
 40
0.7562753091
 40
0.7850826686
 40
0.8127429707
 40
0.8646373373
 40
0.8890213992
 40
0.9124678623
 40
0.9351099797
 40
0.9571125743
 40
0.9786705249
 40
1.0
 40
1.0
 40
1.0
 40
1.0
 10
39.942516315
 20
35.078699156
 30
0.0
 10
39.942516315
 20
35.3795336133
 30
0.0
 10
39.9226361364
 20
35.9918827254
 30
0.0
 10
39.8070165764
 20
37.2500702182
 30
0.0
 10
39.5184426869
 20
38.8727208484
 30
0.0
 10
38.9638968073
 20
40.8382759457
 30
0.0
 10
38.207653679
 20
42.8094127164
 30
0.0
 10
37.2659181682
 20
44.7439941381
 30
0.0
 10
36.1587412837
 20
46.6008387157
 30
0.0
 10
34.9097489573
 20
48.3403188734
 30
0.0
 10
33.5455616612
 20
49.9253577668
 30
0.0
 10
32.0950557373
 20
51.3223048841
 30
0.0
 10
30.5889877444
 20
52.5013898718
 30
0.0
 10
29.289658585
 20
53.2963391545
 30
0.0
 10
28.2502664922
 20
53.7948876061
 30
0.0
 10
27.2604658835
 20
54.1842292071
 30
0.0
 10
26.2691120677
 20
54.4474402705
 30
0.0
 10
25.2961304799
 20
54.561896297
 30
0.0
 10
24.603546758
 20
54.5727707058
 30
0.0
 10
23.9370636538
 20
54.5103061348
 30
0.0
 10
23.3003503156
 20
54.3744464988
 30
0.0
 10
22.697186696
 20
54.1660004719
 30
0.0
 10
22.3189062562
 20
53.9787496499
 30
0.0
 10
22.1376911492
 20
53.8741262728
 30
0.0
  0
SPLINE
  5
282
100
AcDbEntity
  8
0
100
AcDbSpline
 62
7
  6
BYLAYER
 70
0
 71
3
 72
16
 73
12
 74
0
 42
0.0000001
 43
0.0000001
 44
0.0000000001
 40
0.0
 40
0.0
 40
0.0
 40
0.0
 40
0.0539201529
 40
0.1080987419
 40
0.218137082
 40
0.3320632266
 40
0.4514107914
 40
0.577318057
 40
0.7105202711
 40
0.8514296414
 40
1.0
 40
1.0
 40
1.0
 40
1.0
 10
29.5619835127
 20
24.6848855685
 30
0.0
 10
29.6785518923
 20
24.7521855858
 30
0.0
 10
29.9066326365
 20
24.8971425252
 30
0.0
 10
30.3402389006
 20
25.2274051526
 30
0.0
 10
30.8376511945
 20
25.7167321685
 30
0.0
 10
31.3476336448
 20
26.4095007764
 30
0.0
 10
31.7700627992
 20
27.2036609806
 30
0.0
 10
32.10140464
 20
28.0909765897
 30
0.0
 10
32.339199733
 20
29.0629409801
 30
0.0
 10
32.4815310879
 20
30.1101160252
 30
0.0
 10
32.5114399974
 20
30.8332438817
 30
0.0
 10
32.5114399974
 20
31.2041209196
 30
0.0
  0
SPLINE
  5
283
100
AcDbEntity
  8
0
100
AcDbSpline
 62
7
  6
BYLAYER
 70
0
 71
3
 72
9
 73
5
 74
0
 42
0.0000001
 43
0.0000001
 44
0.0000000001
 40
0.0
 40
0.0
 40
0.0
 40
0.0
 40
0.5149741086
 40
1.0
 40
1.0
 40
1.0
 40
1.0
 10
7.3744895217
 20
39.7143998546
 30
0.0
 10
7.3744895217
 20
40.2337528483
 30
0.0
 10
7.4324133108
 20
41.243476082
 30
0.0
 10
7.6275303117
 20
42.2372882682
 30
0.0
 10
7.7605784885
 20
42.7079962731
 30
0.0
  0
SPLINE
  5
284
100
AcDbEntity
  8
0
100
AcDbSpline
 62
7
  6
BYLAYER
 70
0
 71
3
 72
14
 73
10
 74
0
 42
0.0000001
 43
0.0000001
 44
0.0000000001
 40
0.0
 40
0.0
 40
0.0
 40
0.0
 40
0.1086408144
 40
0.220919503
 40
0.3375682409
 40
0.45913753
 40
0.7182397043
 40
0.8563579177
 40
1.0
 40
1.0
 40
1.0
 40
1.0
 10
31.4456242391
 20
26.821540673
 30
0.0
 10
31.58131259
 20
26.9741381954
 30
0.0
 10
31.8384176629
 20
27.3016496935
 30
0.0
 10
32.1716510539
 20
27.842986105
 30
0.0
 10
32.4562833196
 20
28.4384263622
 30
0.0
 10
32.7758028062
 20
29.3181365663
 30
0.0
 10
32.9817202713
 20
30.2767222026
 30
0.0
 10
33.0843222906
 20
31.2885551254
 30
0.0
 10
33.1011093148
 20
31.818418169
 30
0.0
 10
33.1011093148
 20
32.0884051458
 30
0.0
  0
SPLINE
  5
285
100
AcDbEntity
  8
0
100
AcDbSpline
 62
7
  6
BYLAYER
 70
0
 71
3
 72
23
 73
19
 74
0
 42
0.0000001
 43
0.0000001
 44
0.0000000001
 40
0.0
 40
0.0
 40
0.0
 40
0.0
 40
0.0517138187
 40
0.106067534
 40
0.1631045797
 40
0.2227627392
 40
0.2848260076
 40
0.3489776438
 40
0.4148126551
 40
0.4818616866
 40
0.5496115138
 40
0.6175241431
 40
0.6850557302
 40
0.7516753137
 40
0.8168867506
 40
0.8802392676
 40
0.9413702461
 40
1.0
 40
1.0
 40
1.0
 40
1.0
 10
20.0288605104
 20
21.4585816485
 30
0.0
 10
19.6393164747
 20
21.557274888
 30
0.0
 10
18.8533508522
 20
21.8136808317
 30
0.0
 10
17.6997511656
 20
22.3442183669
 30
0.0
 10
16.5536207707
 20
23.0215227793
 30
0.0
 10
15.4262312142
 20
23.8360159703
 30
0.0
 10
14.3289877545
 20
24.777670567
 30
0.0
 10
13.2737490015
 20
25.8348965775
 30
0.0
 10
12.272408406
 20
26.9948430921
 30
0.0
 10
11.3366428972
 20
28.2433396933
 30
0.0
 10
10.4776236139
 20
29.5650817364
 30
0.0
 10
9.7057839606
 20
30.9438454948
 30
0.0
 10
9.0306206645
 20
32.3627410004
 30
0.0
 10
8.4604863903
 20
33.8045130288
 30
0.0
 10
8.0026012556
 20
35.2518180437
 30
0.0
 10
7.6627895677
 20
36.6876858843
 30
0.0
 10
7.4458783632
 20
38.0955060941
 30
0.0
 10
7.3842755314
 20
39.0256415637
 30
0.0
 10
7.3764918117
 20
39.4811684811
 30
0.0
  0
SPLINE
  5
286
100
AcDbEntity
  8
0
100
AcDbSpline
 62
7
  6
BYLAYER
 70
0
 71
3
 72
15
 73
11
 74
0
 42
0.0000001
 43
0.0000001
 44
0.0000000001
 40
0.0
 40
0.0
 40
0.0
 40
0.0
 40
0.107961318
 40
0.218042425
 40
0.3320539037
 40
0.4514909713
 40
0.577460406
 40
0.7106769795
 40
0.8515406886
 40
1.0
 40
1.0
 40
1.0
 40
1.0
 10
27.1325531074
 20
23.2722403982
 30
0.0
 10
27.3632516103
 20
23.4085207768
 30
0.0
 10
27.8065823243
 20
23.7240993589
 30
0.0
 10
28.3918692193
 20
24.309146161
 30
0.0
 10
28.8950997741
 20
25.0014466761
 30
0.0
 10
29.3117112074
 20
25.7933484446
 30
0.0
 10
29.6385060777
 20
26.6769034467
 30
0.0
 10
29.8730086638
 20
27.6437451626
 30
0.0
 10
30.013371795
 20
28.684628222
 30
0.0
 10
30.0428807174
 20
29.4031723452
 30
0.0
 10
30.0428807174
 20
29.7716267605
 30
0.0
  0
SPLINE
  5
287
100
AcDbEntity
  8
0
100
AcDbSpline
 62
7
  6
BYLAYER
 70
0
 71
3
 72
13
 73
9
 74
0
 42
0.0000001
 43
0.0000001
 44
0.0000000001
 40
0.0
 40
0.0
 40
0.0
 40
0.0
 40
0.2640855243
 40
0.5161420336
 40
0.6389614312
 40
0.7601715368
 40
0.8802797859
 40
1.0
 40
1.0
 40
1.0
 40
1.0
 10
7.7605784885
 20
42.7079962731
 30
0.0
 10
7.8799875799
 20
43.1304508797
 30
0.0
 10
8.1745948995
 20
43.9407539588
 30
0.0
 10
8.7085794773
 20
44.8666255478
 30
0.0
 10
9.2230339965
 20
45.5127742219
 30
0.0
 10
9.6474789351
 20
45.9459843378
 30
0.0
 10
10.1118583561
 20
46.3279617052
 30
0.0
 10
10.4463975238
 20
46.5465771468
 30
0.0
 10
10.618752887
 20
46.6460859682
 30
0.0
  0
SPLINE
  5
288
100
AcDbEntity
  8
0
100
AcDbSpline
 62
7
  6
BYLAYER
 70
0
 71
3
 72
13
 73
9
 74
0
 42
0.0000001
 43
0.0000001
 44
0.0000000001
 40
0.0
 40
0.0
 40
0.0
 40
0.0
 40
0.1197201528
 40
0.2398280544
 40
0.3610382149
 40
0.483857687
 40
0.7359143947
 40
1.0
 40
1.0
 40
1.0
 40
1.0
 10
24.8684360447
 20
21.9647634206
 30
0.0
 10
24.6960807696
 20
21.8652546501
 30
0.0
 10
24.33948453
 20
21.6848446921
 30
0.0
 10
23.776491964
 20
21.4736726447
 30
0.0
 10
23.1890982008
 20
21.3227004726
 30
0.0
 10
22.372288681
 20
21.200247615
 30
0.0
 10
21.3034674478
 20
21.2007449785
 30
0.0
 10
20.4544210507
 20
21.3507634188
 30
0.0
 10
20.0288605104
 20
21.4585816485
 30
0.0
  0
SPLINE
  5
289
100
AcDbEntity
  8
0
100
AcDbSpline
 62
7
  6
BYLAYER
 70
0
 71
3
 72
25
 73
21
 74
0
 42
0.0000001
 43
0.0000001
 44
0.0000000001
 40
0.0
 40
0.0
 40
0.0
 40
0.0
 40
0.0612205424
 40
0.1261603729
 40
0.1942074395
 40
0.2646122634
 40
0.336518815
 40
0.4090115824
 40
0.48115083
 40
0.5520113992
 40
0.620719616
 40
0.6864930696
 40
0.7486844821
 40
0.8068326772
 40
0.860723112
 40
0.8861106343
 40
0.9105044268
 40
0.9565800326
 40
0.9785534676
 40
1.0
 40
1.0
 40
1.0
 40
1.0
 10
34.2149628689
 20
33.4865398173
 30
0.0
 10
34.2149628689
 20
33.983358811
 30
0.0
 10
34.1512863868
 20
35.007815146
 30
0.0
 10
33.8880321185
 20
36.5641585406
 30
0.0
 10
33.4591354343
 20
38.1604446434
 30
0.0
 10
32.8729202393
 20
39.7659166706
 30
0.0
 10
32.1405846869
 20
41.349942691
 30
0.0
 10
31.2762197923
 20
42.8820884291
 30
0.0
 10
30.2964220987
 20
44.332917056
 30
0.0
 10
29.2200151167
 20
45.6745621936
 30
0.0
 10
28.0676062118
 20
46.8813040311
 30
0.0
 10
26.8611761369
 20
47.9300551588
 30
0.0
 10
25.6234190789
 20
48.800828348
 30
0.0
 10
24.3776404183
 20
49.4768252326
 30
0.0
 10
23.3310601249
 20
49.8746247285
 30
0.0
 10
22.5134587773
 20
50.077105118
 30
0.0
 10
21.7445753858
 20
50.1991365474
 30
0.0
 10
20.9885240311
 20
50.2148345039
 30
0.0
 10
20.2683976724
 20
50.1117190154
 30
0.0
 10
19.926505853
 20
50.0225758895
 30
0.0
 10
19.7609995864
 20
49.9687348618
 30
0.0
  0
SPLINE
  5
28A
100
AcDbEntity
  8
0
100
AcDbSpline
 62
7
  6
BYLAYER
 70
0
 71
3
 72
15
 73
11
 74
0
 42
0.0000001
 43
0.0000001
 44
0.0000000001
 40
0.0
 40
0.0
 40
0.0
 40
0.0
 40
0.1485846647
 40
0.2895068885
 40
0.4227214545
 40
0.5486407511
 40
0.6680001328
 40
0.7819379016
 40
0.8919871991
 40
1.0
 40
1.0
 40
1.0
 40
1.0
 10
27.8197291165
 20
28.4880972469
 30
0.0
 10
27.8197291165
 20
28.1169880754
 30
0.0
 10
27.7898023348
 20
27.393409513
 30
0.0
 10
27.6473814527
 20
26.3455813732
 30
0.0
 10
27.4094422775
 20
25.3730135871
 30
0.0
 10
27.0778852292
 20
24.4851354247
 30
0.0
 10
26.6552316345
 20
23.6904977342
 30
0.0
 10
26.1447855198
 20
22.9972168197
 30
0.0
 10
25.5512601853
 20
22.4130955932
 30
0.0
 10
25.102061464
 20
22.0996638472
 30
0.0
 10
24.8684284234
 20
21.9647766211
 30
0.0
  0
SPLINE
  5
28B
100
AcDbEntity
  8
0
100
AcDbSpline
 62
7
  6
BYLAYER
 70
0
 71
3
 72
15
 73
11
 74
0
 42
0.0000001
 43
0.0000001
 44
0.0000000001
 40
0.0
 40
0.0
 40
0.0
 40
0.0
 40
0.1077990009
 40
0.2188129732
 40
0.334200055
 40
0.4548748378
 40
0.5814821927
 40
0.7144526113
 40
0.8540047796
 40
1.0
 40
1.0
 40
1.0
 40
1.0
 10
32.2273224689
 20
28.1422541569
 30
0.0
 10
32.3881345395
 20
28.2792050817
 30
0.0
 10
32.6946697291
 20
28.5813980785
 30
0.0
 10
33.094435738
 20
29.102370328
 30
0.0
 10
33.4369028373
 20
29.6919405646
 30
0.0
 10
33.7196624839
 20
30.3455123928
 30
0.0
 10
33.9411054555
 20
31.0582741468
 30
0.0
 10
34.0998477914
 20
31.825210519
 30
0.0
 10
34.1948164943
 20
32.6406827391
 30
0.0
 10
34.2149628689
 20
33.2004716086
 30
0.0
 10
34.2149628689
 20
33.4865398173
 30
0.0
  0
SPLINE
  5
28C
100
AcDbEntity
  8
0
100
AcDbSpline
 62
7
  6
BYLAYER
 70
0
 71
3
 72
42
 73
38
 74
0
 42
0.0000001
 43
0.0000001
 44
0.0000000001
 40
0.0
 40
0.0
 40
0.0
 40
0.0
 40
0.0309847288
 40
0.0603705901
 40
0.0881496056
 40
0.1014669551
 40
0.1144202804
 40
0.1393100603
 40
0.1630695042
 40
0.1860184408
 40
0.2085428217
 40
0.2197881981
 40
0.2310875526
 40
0.2540369585
 40
0.2777976553
 40
0.3026887535
 40
0.315642618
 40
0.3289610437
 40
0.3567439764
 40
0.3861265363
 40
0.4171171165
 40
0.4496659094
 40
0.4836732137
 40
0.5189995049
 40
0.5554723649
 40
0.5928921944
 40
0.6310394967
 40
0.6696797476
 40
0.7085682734
 40
0.7474561946
 40
0.7860945479
 40
0.8242388941
 40
0.8616558194
 40
0.8981255023
 40
0.9334469841
 40
0.9674572435
 40
1.0
 40
1.0
 40
1.0
 40
1.0
 10
26.6989402833
 20
28.370600331
 30
0.0
 10
26.6989402833
 20
28.016393191
 30
0.0
 10
26.6703777508
 20
27.3257652522
 30
0.0
 10
26.5344633075
 20
26.3257440481
 30
0.0
 10
26.3425579385
 20
25.5412916339
 30
0.0
 10
26.1426078075
 20
24.956279645
 30
0.0
 10
25.919350539
 20
24.4153917807
 30
0.0
 10
25.5875381629
 20
23.7915227304
 30
0.0
 10
25.1004079097
 20
23.1298693757
 30
0.0
 10
24.5338809651
 20
22.5722314304
 30
0.0
 10
23.9993498865
 20
22.1992666679
 30
0.0
 10
23.5421219145
 20
21.9606380349
 30
0.0
 10
23.0618550709
 20
21.7596567191
 30
0.0
 10
22.4196111862
 20
21.5818669066
 30
0.0
 10
21.603102326
 20
21.4908409182
 30
0.0
 10
20.8968490288
 20
21.515357601
 30
0.0
 10
20.3167613336
 20
21.5924105509
 30
0.0
 10
19.7100807024
 20
21.7117416778
 30
0.0
 10
18.9347684579
 20
21.9377774476
 30
0.0
 10
18.0006174537
 20
22.3200708899
 30
0.0
 10
17.0582631662
 20
22.8133961925
 30
0.0
 10
16.1166207876
 20
23.4129738184
 30
0.0
 10
15.1844701381
 20
24.1130181126
 30
0.0
 10
14.2706221991
 20
24.9068516326
 30
0.0
 10
13.3837779904
 20
25.7869368701
 30
0.0
 10
12.5323508146
 20
26.7448377195
 30
0.0
 10
11.7244663495
 20
27.7714016071
 30
0.0
 10
10.9678811099
 20
28.8568335287
 30
0.0
 10
10.2697996809
 20
29.9907220082
 30
0.0
 10
9.6368959134
 20
31.1622156064
 30
0.0
 10
9.0752514742
 20
32.3601196057
 30
0.0
 10
8.5902104909
 20
33.5729721499
 30
0.0
 10
8.1864063779
 20
34.7891898047
 30
0.0
 10
7.8677162466
 20
35.9971431358
 30
0.0
 10
7.6371425438
 20
37.1854344699
 30
0.0
 10
7.4970176711
 20
38.3425660266
 30
0.0
 10
7.4639556101
 20
39.103654684
 30
0.0
 10
7.4639556101
 20
39.4756726796
 30
0.0
  0
SPLINE
  5
28D
100
AcDbEntity
  8
0
100
AcDbSpline
 62
7
  6
BYLAYER
 70
0
 71
3
 72
42
 73
38
 74
0
 42
0.0000001
 43
0.0000001
 44
0.0000000001
 40
0.0
 40
0.0
 40
0.0
 40
0.0
 40
0.0309847256
 40
0.0603705839
 40
0.0881495949
 40
0.1014669409
 40
0.1144202613
 40
0.1393100262
 40
0.1630694619
 40
0.1860184167
 40
0.2085428512
 40
0.2197882643
 40
0.2310876579
 40
0.2540371299
 40
0.2777978483
 40
0.30268892
 40
0.3156427583
 40
0.3289611539
 40
0.3567440273
 40
0.3861265456
 40
0.4171171097
 40
0.4496659097
 40
0.483673234
 40
0.5189995465
 40
0.5554724198
 40
0.5928922507
 40
0.6310395452
 40
0.6696797858
 40
0.7085683047
 40
0.7474562225
 40
0.786094573
 40
0.8242389145
 40
0.861655834
 40
0.8981255124
 40
0.9334469906
 40
0.9674572468
 40
1.0
 40
1.0
 40
1.0
 40
1.0
 10
7.4639556101
 20
39.4756726796
 30
0.0
 10
7.4639556101
 20
39.8298798265
 30
0.0
 10
7.4925181759
 20
40.5205077802
 30
0.0
 10
7.6284326622
 20
41.5205289811
 30
0.0
 10
7.8203380015
 20
42.3049813745
 30
0.0
 10
8.0202880408
 20
42.8899933203
 30
0.0
 10
8.2435451325
 20
43.4308810461
 30
0.0
 10
8.5753571619
 20
44.0547500146
 30
0.0
 10
9.0624873778
 20
44.7164034766
 30
0.0
 10
9.6290151187
 20
45.2740418164
 30
0.0
 10
10.1635474068
 20
45.6470071424
 30
0.0
 10
10.6207767134
 20
45.8856365493
 30
0.0
 10
11.1010450158
 20
46.0866187362
 30
0.0
 10
11.7432902046
 20
46.264409582
 30
0.0
 10
12.5597998431
 20
46.3554361822
 30
0.0
 10
13.266052905
 20
46.3309191232
 30
0.0
 10
13.8461396238
 20
46.2538654215
 30
0.0
 10
14.4528188136
 20
46.134533388
 30
0.0
 10
15.2281292072
 20
45.9084962658
 30
0.0
 10
16.1622783829
 20
45.5262016361
 30
0.0
 10
17.1046319148
 20
45.032875942
 30
0.0
 10
18.0462749076
 20
44.433298857
 30
0.0
 10
18.978427335
 20
43.7332558029
 30
0.0
 10
19.892277638
 20
42.9394238233
 30
0.0
 10
20.7791239657
 20
42.0593398848
 30
0.0
 10
21.6305521116
 20
41.1014395317
 30
0.0
 10
22.4384359868
 20
40.0748751671
 30
0.0
 10
23.1950191977
 20
38.9894419542
 30
0.0
 10
23.8930984318
 20
37.8555522132
 30
0.0
 10
24.5260006215
 20
36.6840577628
 30
0.0
 10
25.0876443486
 20
35.4861534057
 30
0.0
 10
25.5726854066
 20
34.2733008929
 30
0.0
 10
25.9764897995
 20
33.0570833391
 30
0.0
 10
26.2951798704
 20
31.8491299892
 30
0.0
 10
26.5257534864
 20
30.6608386139
 30
0.0
 10
26.6658782622
 20
29.5037070132
 30
0.0
 10
26.6989402833
 20
28.7426183345
 30
0.0
 10
26.6989402833
 20
28.370600331
 30
0.0
  0
SPLINE
  5
28E
100
AcDbEntity
  8
0
100
AcDbSpline
 62
7
  6
BYLAYER
 70
0
 71
3
 72
28
 73
24
 74
0
 42
0.0000001
 43
0.0000001
 44
0.0000000001
 40
0.0
 40
0.0
 40
0.0
 40
0.0
 40
0.0213295182
 40
0.0428875036
 40
0.0648901214
 40
0.0875322554
 40
0.1109787376
 40
0.1353628252
 40
0.1872572677
 40
0.2149176067
 40
0.2437249874
 40
0.3046650218
 40
0.3697443473
 40
0.4383327373
 40
0.5096099133
 40
0.5826247033
 40
0.6563466984
 40
0.7297144959
 40
0.8016816388
 40
0.871265961
 40
0.9375960296
 40
0.9693348089
 40
1.0
 40
1.0
 40
1.0
 40
1.0
 10
17.8950680493
 20
51.4246614837
 30
0.0
 10
18.0762834005
 20
51.5292852852
 30
0.0
 10
18.4545646996
 20
51.716536165
 30
0.0
 10
19.0577292943
 20
51.9249823888
 30
0.0
 10
19.6944434623
 20
52.0608416699
 30
0.0
 10
20.360927158
 20
52.1233061796
 30
0.0
 10
21.053511479
 20
52.1124310196
 30
0.0
 10
22.0264942002
 20
51.9979745714
 30
0.0
 10
23.0178491602
 20
51.7347623299
 30
0.0
 10
24.0076506814
 20
51.3454194752
 30
0.0
 10
25.0470426611
 20
50.8468703175
 30
0.0
 10
26.3463701261
 20
50.0519210957
 30
0.0
 10
27.8524352526
 20
48.8728376535
 30
0.0
 10
29.3029380959
 20
47.4758933159
 30
0.0
 10
30.6671226021
 20
45.8908580152
 30
0.0
 10
31.9161122985
 20
44.1513826269
 30
0.0
 10
33.0232872147
 20
42.2945435103
 30
0.0
 10
33.9650228069
 20
40.3599658213
 30
0.0
 10
34.7212678366
 20
38.3888285987
 30
0.0
 10
35.275817085
 20
36.4232685905
 30
0.0
 10
35.5643928303
 20
34.800611806
 30
0.0
 10
35.6800127252
 20
33.5424197472
 30
0.0
 10
35.6998932917
 20
32.9300689939
 30
0.0
 10
35.6998932917
 20
32.6292342328
 30
0.0
  0
SPLINE
  5
28F
100
AcDbEntity
  8
0
100
AcDbSpline
 62
7
  6
BYLAYER
 70
0
 71
3
 72
28
 73
24
 74
0
 42
0.0000001
 43
0.0000001
 44
0.0000000001
 40
0.0
 40
0.0
 40
0.0
 40
0.0
 40
0.0213295035
 40
0.0428874875
 40
0.0648901226
 40
0.0875322949
 40
0.1109788113
 40
0.1353629144
 40
0.1872573337
 40
0.2149176551
 40
0.2437250304
 40
0.3046650982
 40
0.3697444947
 40
0.4383330093
 40
0.5096104013
 40
0.5826253839
 40
0.6563475177
 40
0.7297153288
 40
0.8016826366
 40
0.871266723
 40
0.9375963138
 40
0.9693348769
 40
1.0
 40
1.0
 40
1.0
 40
1.0
 10
10.6187605083
 20
46.6460727676
 30
0.0
 10
10.7938296844
 20
46.7471483496
 30
0.0
 10
11.1592811997
 20
46.9280488678
 30
0.0
 10
11.7419891725
 20
47.1294262016
 30
0.0
 10
12.3571095002
 20
47.2606783443
 30
0.0
 10
13.0009901278
 20
47.3210245246
 30
0.0
 10
13.6700861838
 20
47.310518677
 30
0.0
 10
14.610070284
 20
47.1999438658
 30
0.0
 10
15.5678030652
 20
46.9456587256
 30
0.0
 10
16.5240348973
 20
46.5695206447
 30
0.0
 10
17.5281757893
 20
46.0878797697
 30
0.0
 10
18.7834370592
 20
45.3198907272
 30
0.0
 10
20.2384251758
 20
44.1807943921
 30
0.0
 10
21.6397362565
 20
42.8312243672
 30
0.0
 10
22.9576564913
 20
41.2999410619
 30
0.0
 10
24.1642881945
 20
39.619455078
 30
0.0
 10
25.2339127801
 20
37.8255869602
 30
0.0
 10
26.143708547
 20
35.9566171049
 30
0.0
 10
26.8743026264
 20
34.0523308136
 30
0.0
 10
27.4100399746
 20
32.1534373084
 30
0.0
 10
27.688825513
 20
30.5858216864
 30
0.0
 10
27.80052338
 20
29.370308599
 30
0.0
 10
27.8197291165
 20
28.7787285031
 30
0.0
 10
27.8197291165
 20
28.4880972469
 30
0.0
  0
SPLINE
  5
290
100
AcDbEntity
  8
0
100
AcDbSpline
 62
7
  6
BYLAYER
 70
0
 71
3
 72
16
 73
12
 74
0
 42
0.0000001
 43
0.0000001
 44
0.0000000001
 40
0.0
 40
0.0
 40
0.0
 40
0.0
 40
0.1485703945
 40
0.2894792759
 40
0.4226811374
 40
0.5485882382
 40
0.6679356661
 40
0.7818619641
 40
0.8919007377
 40
0.9460795739
 40
1.0
 40
1.0
 40
1.0
 40
1.0
 10
35.6998932917
 20
32.6292342328
 30
0.0
 10
35.6998932917
 20
32.2450967073
 30
0.0
 10
35.6689153755
 20
31.4961151882
 30
0.0
 10
35.5214953175
 20
30.4115013273
 30
0.0
 10
35.2751986829
 20
29.4047877836
 30
0.0
 10
34.9320127845
 20
28.4857477361
 30
0.0
 10
34.4944804349
 20
27.6631931088
 30
0.0
 10
33.9662637589
 20
26.9456540873
 30
0.0
 10
33.4510671216
 20
26.438828119
 30
0.0
 10
33.0019548902
 20
26.0967567109
 30
0.0
 10
32.7657183617
 20
25.9466159979
 30
0.0
 10
32.6449816424
 20
25.8769092403
 30
0.0
  0
SPLINE
  5
291
100
AcDbEntity
  8
0
100
AcDbSpline
 62
7
  6
BYLAYER
 70
0
 71
3
 72
11
 73
7
 74
0
 42
0.0000001
 43
0.0000001
 44
0.0000000001
 40
0.0
 40
0.0
 40
0.0
 40
0.0
 40
0.217745073
 40
0.4508830113
 40
0.7104597664
 40
1.0
 40
1.0
 40
1.0
 40
1.0
 10
41.0021169368
 20
29.4669813635
 30
0.0
 10
41.0186070091
 20
29.4765018622
 30
0.0
 10
41.0494911413
 20
29.5024065331
 30
0.0
 10
41.0823443467
 20
29.556147142
 30
0.0
 10
41.1018209122
 20
29.6223525402
 30
0.0
 10
41.1056869069
 20
29.6705307909
 30
0.0
 10
41.1056869069
 20
29.6958501061
 30
0.0
  0
SPLINE
  5
292
100
AcDbEntity
  8
0
100
AcDbSpline
 62
7
  6
BYLAYER
 70
0
 71
3
 72
11
 73
7
 74
0
 42
0.0000001
 43
0.0000001
 44
0.0000000001
 40
0.0
 40
0.0
 40
0.0
 40
0.0
 40
0.217745073
 40
0.4508830113
 40
0.7104597664
 40
1.0
 40
1.0
 40
1.0
 40
1.0
 10
35.4053434622
 20
24.2882320391
 30
0.0
 10
35.4218335346
 20
24.2977525378
 30
0.0
 10
35.4527176668
 20
24.3236572087
 30
0.0
 10
35.4855708722
 20
24.3773978176
 30
0.0
 10
35.5050474377
 20
24.4436032157
 30
0.0
 10
35.5089134324
 20
24.4917814665
 30
0.0
 10
35.5089134324
 20
24.5171007817
 30
0.0
  0
SPLINE
  5
293
100
AcDbEntity
  8
0
100
AcDbSpline
 62
7
  6
BYLAYER
 70
0
 71
3
 72
14
 73
10
 74
0
 42
0.0000001
 43
0.0000001
 44
0.0000000001
 40
0.0
 40
0.0
 40
0.0
 40
0.0
 40
0.1080466357
 40
0.2181307812
 40
0.3321113461
 40
0.4515001674
 40
0.5774437985
 40
0.7107269735
 40
1.0
 40
1.0
 40
1.0
 40
1.0
 10
40.7322820632
 20
25.4440286278
 30
0.0
 10
40.7945845831
 20
25.4799987821
 30
0.0
 10
40.9143539025
 20
25.5636043777
 30
0.0
 10
41.0726610719
 20
25.7193446242
 30
0.0
 10
41.2087439595
 20
25.9042501682
 30
0.0
 10
41.3214846792
 20
26.1161164052
 30
0.0
 10
41.409899233
 20
26.3529159544
 30
0.0
 10
41.4968239311
 20
26.7082684794
 30
0.0
 10
41.5193107685
 20
26.9910030607
 30
0.0
 10
41.5193107685
 20
27.1836095877
 30
0.0
  0
SPLINE
  5
294
100
AcDbEntity
  8
0
100
AcDbSpline
 62
7
  6
BYLAYER
 70
0
 71
3
 72
14
 73
10
 74
0
 42
0.0000001
 43
0.0000001
 44
0.0000000001
 40
0.0
 40
0.0
 40
0.0
 40
0.0
 40
0.1080471438
 40
0.2181317193
 40
0.3321125724
 40
0.4515014986
 40
0.5774450424
 40
0.710727948
 40
1.0
 40
1.0
 40
1.0
 40
1.0
 10
36.4896590399
 20
22.9945637045
 30
0.0
 10
36.4273578994
 20
22.958594339
 30
0.0
 10
36.2950714811
 20
22.8966756938
 30
0.0
 10
36.0810478856
 20
22.837449093
 30
0.0
 10
35.8528792266
 20
22.8120504808
 30
0.0
 10
35.6130335183
 20
22.8203456925
 30
0.0
 10
35.3637583691
 20
22.8621732514
 30
0.0
 10
35.0125611192
 20
22.9645645786
 30
0.0
 10
34.756468848
 20
23.0864516212
 30
0.0
 10
34.5896707897
 20
23.1827503466
 30
0.0
  0
SPLINE
  5
295
100
AcDbEntity
  8
0
100
AcDbSpline
 62
7
  6
BYLAYER
 70
0
 71
3
 72
14
 73
10
 74
0
 42
0.0000001
 43
0.0000001
 44
0.0000000001
 40
0.0
 40
0.0
 40
0.0
 40
0.0
 40
0.1080471438
 40
0.2181317193
 40
0.3321125724
 40
0.4515014986
 40
0.5774450424
 40
0.710727948
 40
1.0
 40
1.0
 40
1.0
 40
1.0
 10
42.0864325145
 20
27.5888691935
 30
0.0
 10
42.0241313739
 20
27.552899828
 30
0.0
 10
41.8918449556
 20
27.4909811828
 30
0.0
 10
41.6778213602
 20
27.431754582
 30
0.0
 10
41.4496527012
 20
27.4063559698
 30
0.0
 10
41.2098069929
 20
27.4146511815
 30
0.0
 10
40.9605318436
 20
27.4564787404
 30
0.0
 10
40.6093345937
 20
27.5588700676
 30
0.0
 10
40.3532423226
 20
27.6807571102
 30
0.0
 10
40.1864442642
 20
27.7770558355
 30
0.0
  0
SPLINE
  5
296
100
AcDbEntity
  8
0
100
AcDbSpline
 62
7
  6
BYLAYER
 70
0
 71
3
 72
10
 73
6
 74
0
 42
0.0000001
 43
0.0000001
 44
0.0000000001
 40
0.0
 40
0.0
 40
0.0
 40
0.0
 40
0.4776641643
 40
0.7333904789
 40
1.0
 40
1.0
 40
1.0
 40
1.0
 10
39.8885594231
 20
35.5540803249
 30
0.0
 10
40.0245125932
 20
35.9548910182
 30
0.0
 10
40.1711820151
 20
36.5925638719
 30
0.0
 10
40.2663292512
 20
37.4738355693
 30
0.0
 10
40.2819052547
 20
37.9369449957
 30
0.0
 10
40.2819052547
 20
38.1731777747
 30
0.0
  0
SPLINE
  5
297
100
AcDbEntity
  8
0
100
AcDbSpline
 62
7
  6
BYLAYER
 70
0
 71
3
 72
23
 73
19
 74
0
 42
0.0000001
 43
0.0000001
 44
0.0000000001
 40
0.0
 40
0.0
 40
0.0
 40
0.0
 40
0.0581353083
 40
0.1193665119
 40
0.183272659
 40
0.2493844042
 40
0.3171372895
 40
0.385924869
 40
0.4551089948
 40
0.5240390802
 40
0.5920724419
 40
0.6585923439
 40
0.7230279691
 40
0.7848746531
 40
0.843716731
 40
0.8992553612
 40
0.9513393859
 40
1.0
 40
1.0
 40
1.0
 40
1.0
 10
40.2819052547
 20
38.1731777747
 30
0.0
 10
40.2819052547
 20
38.5457317171
 30
0.0
 10
40.2415284651
 20
39.3110535572
 30
0.0
 10
40.0725530481
 20
40.4747114825
 30
0.0
 10
39.7957454496
 20
41.6700155642
 30
0.0
 10
39.4151705163
 20
42.8801486139
 30
0.0
 10
38.9360124071
 20
44.0883828471
 30
0.0
 10
38.3650055314
 20
45.2778386501
 30
0.0
 10
37.7101349882
 20
46.4319263484
 30
0.0
 10
36.9805388855
 20
47.5345098729
 30
0.0
 10
36.1863963342
 20
48.5701698486
 30
0.0
 10
35.3387976273
 20
49.5244609593
 30
0.0
 10
34.4495463225
 20
50.3840957423
 30
0.0
 10
33.5309510652
 20
51.1371160555
 30
0.0
 10
32.595664142
 20
51.7730242864
 30
0.0
 10
31.6563486254
 20
52.2829691359
 30
0.0
 10
30.725963414
 20
52.6596633327
 30
0.0
 10
30.0989440504
 20
52.8236059021
 30
0.0
 10
29.7921003166
 20
52.879183288
 30
0.0
  0
SPLINE
  5
298
100
AcDbEntity
  8
0
100
AcDbSpline
 62
7
  6
BYLAYER
 70
0
 71
3
 72
14
 73
10
 74
0
 42
0.0000001
 43
0.0000001
 44
0.0000000001
 40
0.0
 40
0.0
 40
0.0
 40
0.0
 40
0.2892730352
 40
0.4225562199
 40
0.5484998506
 40
0.6678886669
 40
0.7818692291
 40
0.8919533702
 40
1.0
 40
1.0
 40
1.0
 40
1.0
 10
42.8734612198
 20
29.3284501535
 30
0.0
 10
42.8734612198
 20
29.1358436208
 30
0.0
 10
42.8509743762
 20
28.8531090278
 30
0.0
 10
42.7640496752
 20
28.4977564918
 30
0.0
 10
42.6756351178
 20
28.2609569406
 30
0.0
 10
42.5628943913
 20
28.0490907136
 30
0.0
 10
42.4268115078
 20
27.8641851778
 30
0.0
 10
42.2685043461
 20
27.7084449347
 30
0.0
 10
42.1487350276
 20
27.6248393515
 30
0.0
 10
42.0864325145
 20
27.5888691935
 30
0.0
  0
SPLINE
  5
299
100
AcDbEntity
  8
0
100
AcDbSpline
 62
7
  6
BYLAYER
 70
0
 71
3
 72
14
 73
10
 74
0
 42
0.0000001
 43
0.0000001
 44
0.0000000001
 40
0.0
 40
0.0
 40
0.0
 40
0.0
 40
0.2892730352
 40
0.4225562199
 40
0.5484998506
 40
0.6678886669
 40
0.7818692291
 40
0.8919533702
 40
1.0
 40
1.0
 40
1.0
 40
1.0
 10
37.2766877453
 20
24.7341446645
 30
0.0
 10
37.2766877453
 20
24.5415381318
 30
0.0
 10
37.2542009016
 20
24.2588035389
 30
0.0
 10
37.1672762006
 20
23.9034510028
 30
0.0
 10
37.0788616433
 20
23.6666514516
 30
0.0
 10
36.9661209167
 20
23.4547852246
 30
0.0
 10
36.8300380333
 20
23.2698796888
 30
0.0
 10
36.6717308715
 20
23.1141394457
 30
0.0
 10
36.551961553
 20
23.0305338626
 30
0.0
 10
36.4896590399
 20
22.9945637045
 30
0.0
  0
SPLINE
  5
29A
100
AcDbEntity
  8
0
100
AcDbSpline
 62
7
  6
BYLAYER
 70
0
 71
3
 72
11
 73
7
 74
0
 42
0.0000001
 43
0.0000001
 44
0.0000000001
 40
0.0
 40
0.0
 40
0.0
 40
0.0
 40
0.2895391946
 40
0.5491157945
 40
0.7822541179
 40
1.0
 40
1.0
 40
1.0
 40
1.0
 10
35.1553585698
 20
24.3129699503
 30
0.0
 10
35.1772851987
 20
24.3003108916
 30
0.0
 10
35.2209407278
 20
24.2795708622
 30
0.0
 10
35.2880128206
 20
24.2633363285
 30
0.0
 10
35.3509785262
 20
24.2649180559
 30
0.0
 10
35.3888537697
 20
24.2787117597
 30
0.0
 10
35.4053434622
 20
24.2882320391
 30
0.0
  0
SPLINE
  5
29B
100
AcDbEntity
  8
0
100
AcDbSpline
 62
7
  6
BYLAYER
 70
0
 71
3
 72
11
 73
7
 74
0
 42
0.0000001
 43
0.0000001
 44
0.0000000001
 40
0.0
 40
0.0
 40
0.0
 40
0.0
 40
0.2895391946
 40
0.5491157945
 40
0.7822541179
 40
1.0
 40
1.0
 40
1.0
 40
1.0
 10
40.7521320444
 20
29.4917192748
 30
0.0
 10
40.7740586733
 20
29.479060216
 30
0.0
 10
40.8177142023
 20
29.4583201866
 30
0.0
 10
40.8847862951
 20
29.4420856529
 30
0.0
 10
40.9477520007
 20
29.4436673803
 30
0.0
 10
40.9856272443
 20
29.4574610841
 30
0.0
 10
41.0021169368
 20
29.4669813635
 30
0.0
  0
SPLINE
  5
29C
100
AcDbEntity
  8
0
100
AcDbSpline
 62
7
  6
BYLAYER
 70
0
 71
3
 72
11
 73
7
 74
0
 42
0.0000001
 43
0.0000001
 44
0.0000000001
 40
0.0
 40
0.0
 40
0.0
 40
0.0
 40
0.2200625142
 40
0.4576836033
 40
0.7171949095
 40
1.0
 40
1.0
 40
1.0
 40
1.0
 10
46.6199666391
 20
30.2680369114
 30
0.0
 10
46.7022274828
 20
30.35432022
 30
0.0
 10
46.850046227
 20
30.5568970242
 30
0.0
 10
47.0048286068
 20
30.9160213002
 30
0.0
 10
47.0973096489
 20
31.3303709824
 30
0.0
 10
47.1160842431
 20
31.6247134095
 30
0.0
 10
47.1160842431
 20
31.7779150767
 30
0.0
  0
ENDSEC
  0
SECTION
  2
OBJECTS
  0
DICTIONARY
  5
C
100
AcDbDictionary
280
0
281
1
  3
ACAD_GROUP
350
D
  3
ACAD_MLINESTYLE
350
17
  3
ACAD_LAYOUT
350
1A
  3
ACAD_PLOTSETTINGS
350
19
  3
ACAD_PLOTSTYLENAME
350
E
  0
DICTIONARY
  5
D
102
{ACAD_REACTORS
330
C
102
}
100
AcDbDictionary
280
0
281
1
  0
ACDBDICTIONARYWDFLT
  5
E
102
{ACAD_REACTORS
330
C
102
}
100
AcDbDictionary
281
1
  3
Normal
350
F
100
AcDbDictionaryWithDefault
340
F
  0
DICTIONARY
  5
17
102
{ACAD_REACTORS
330
C
102
}
100
AcDbDictionary
280
0
281
1
  3
Standard
350
18
  0
DICTIONARY
  5
19
102
{ACAD_REACTORS
330
C
102
}
100
AcDbDictionary
281
1
  0
DICTIONARY
  5
1A
102
{ACAD_REACTORS
330
C
102
}
100
AcDbDictionary
281
1
  3
Model
350
29D
  3
Layout1
350
29E
  0
ACDBPLACEHOLDER
  5
F
102
{ACAD_REACTORS
330
E
102
}
  0
MLINESTYLE
  5
18
102
{ACAD_REACTORS
330
17
102
}
100
AcDbMlineStyle
  2
STANDARD
 70
0
  3

 62
256
 51
90.0
 52
90.0
 71
2
 49
0.5
 62
256
  6
BYLAYER
 49
-0.5
 62
256
  6
BYLAYER
  0
LAYOUT
  5
29D
102
{ACAD_REACTORS
330
1A
102
}
100
AcDbPlotSettings
  1

  2
none_device
  4

  6

 40
0.0
 41
0.0
 42
0.0
 43
0.0
 44
210.0
 45
297.0
 46
0.0
 47
0.0
 48
0.0
 49
0.0
140
0.0
141
0.0
142
1.0
143
1.0
 70
1024
 72
1
 73
0
 74
0
  7

 75
0
147
1.0
148
0.0
149
0.0
100
AcDbLayout
  1
Model
 70
0
 71
0
 10
0.0
 20
0.0
 11
210.0
 21
297.0
 12
0.0
 22
0.0
 32
0.0
 14
0.0
 24
0.0
 34
0.0
 15
0.0
 25
0.0
 35
0.0
146
0.0
 13
0.0
 23
0.0
 33
0.0
 16
1.0
 26
0.0
 36
0.0
 17
0.0
 27
1.0
 37
0.0
 76
0
330
210
345
0
346
0
  0
LAYOUT
  5
29E
102
{ACAD_REACTORS
330
1A
102
}
100
AcDbPlotSettings
  1

  2
none_device
  4

  6

 40
0.0
 41
0.0
 42
0.0
 43
0.0
 44
210.0
 45
297.0
 46
0.0
 47
0.0
 48
0.0
 49
0.0
140
0.0
141
0.0
142
1.0
143
1.0
 70
0
 72
1
 73
0
 74
0
  7

 75
0
147
1.0
148
0.0
149
0.0
100
AcDbLayout
  1
Layout1
 70
0
 71
1
 10
0.0
 20
0.0
 11
210.0
 21
297.0
 12
0.0
 22
0.0
 32
0.0
 14
0.0
 24
0.0
 34
0.0
 15
0.0
 25
0.0
 35
0.0
146
0.0
 13
0.0
 23
0.0
 33
0.0
 16
1.0
 26
0.0
 36
0.0
 17
0.0
 27
1.0
 37
0.0
 76
0
330
211
345
0
346
0
  0
ENDSEC
  0
EOF
