999
DXF file: C:\Users\sesa63760\Dev\_Creo\CAD\MCADID0002167_3D-CAD\drw0001_6.dxf
999
Pro/ENGINEER 2019471 by Parametric Technology Corporation
  0
SECTION
  2
HEADER
  9
$ACADVER
  1
AC1024
  9
$DWGCODEPAGE
  3
ANSI_1252
  9
$EXTMAX
 10
88.8448440625
 20
125.6519937455
 30
0.0
  9
$EXTMIN
 10
0.0
 20
0.0
 30
0.0
  9
$LIMMIN
 10
0.0
 20
0.0
  9
$LIMMAX
 10
88.8448440625
 20
125.6519937455
  9
$VIEWCTR
 10
44.4224220312
 20
62.8259968727
  9
$VIEWSIZE
 40
125.6519937455
  9
$CLAYER
  8
0
  9
$LTSCALE
 40
8.1906484812
  9
$CELTYPE
  6
BYLAYER
  9
$DIMSCALE
 40
1.0
  9
$DIMASZ
 40
1.057676715
  9
$DIMEXO
 40
1.0
  9
$DIMDLI
 40
5.6589934961
  9
$DIMEXE
 40
1.0
  9
$DIMCEN
 40
1.3402879333
  9
$DIMLFAC
 40
1.0
  9
$DIMBLK
  1
_FILLED
  9
$DIMALT
 70
0
  9
$DIMALTF
 40
0.0393700787
  9
$DIMTXT
 40
1.480747401
  9
$DIMTOL
 70
1
  9
$DIMLIM
 70
0
  9
$DIMTFAC
 40
1.0
  9
$DIMTP
 40
0.01
  9
$DIMTM
 40
0.01
  9
$DIMGAP
 40
0.625
  9
$DIMDSEP
 70
46
  9
$AUNITS
 70
0
  9
$PDMODE
 70
3
  9
$PDSIZE
 40
0.3125
  9
$HANDSEED
  5
430
  9
$TILEMODE
 70
1
  9
$MEASUREMENT
 70
1
  9
$INSUNITS
 70
4
  0
ENDSEC
  0
SECTION
  2
CLASSES
  0
CLASS
  1
ACDBDICTIONARYWDFLT
  2
AcDbDictionaryWithDefault
  3
AutoCAD 2000
 90
0
 91
1
280
0
281
0
  0
CLASS
  1
ACDBPLACEHOLDER
  2
AcDbPlaceHolder
  3
AutoCAD 2000
 90
0
 91
1
280
0
281
0
  0
CLASS
  1
LAYOUT
  2
AcDbLayout
  3
AutoCAD 2000
 90
0
 91
0
280
0
281
0
  0
ENDSEC
  0
SECTION
  2
TABLES
  0
TABLE
  2
VPORT
  5
8
100
AcDbSymbolTable
 70
2
  0
VPORT
  5
1F4
100
AcDbSymbolTableRecord
100
AcDbViewportTableRecord
  2
*ACTIVE
 70
0
 10
0.0
 20
0.0
 11
1.0
 21
1.0
 12
44.4224220312
 22
62.8259968727
 13
0.0
 23
0.0
 14
1.0
 24
1.0
 15
0.0
 25
0.0
 16
0.0
 26
0.0
 36
1.0
 17
0.0
 27
0.0
 37
0.0
 40
125.6519937455
 41
0.7070707071
 42
50.0
 43
0.0
 44
0.0
 50
0.0
 51
0.0
 71
0
 72
100
 73
1
 74
1
 75
0
 76
0
 77
0
 78
0
  0
ENDTAB
  0
TABLE
  2
LTYPE
  5
5
100
AcDbSymbolTable
 70
6
  0
LTYPE
  5
14
100
AcDbSymbolTableRecord
100
AcDbLinetypeTableRecord
  2
BYBLOCK
 70
0
  3

 72
65
 73
0
 40
0.0
  0
LTYPE
  5
15
100
AcDbSymbolTableRecord
100
AcDbLinetypeTableRecord
  2
BYLAYER
 70
0
  3

 72
65
 73
0
 40
0.0
  0
LTYPE
  5
16
100
AcDbSymbolTableRecord
100
AcDbLinetypeTableRecord
  2
CONTINUOUS
 70
64
  3
Solid line
 72
65
 73
0
 40
0.0
  0
LTYPE
  5
1F5
100
AcDbSymbolTableRecord
100
AcDbLinetypeTableRecord
  2
CENTER
 70
64
  3
____ _ ____ _ ____ _ ____ _ ____ _ ____ _ ____
 72
65
 73
4
 40
0.6
 49
0.375
 74
0
 49
-0.075
 74
0
 49
0.075
 74
0
 49
-0.075
 74
0
  0
LTYPE
  5
1F6
100
AcDbSymbolTableRecord
100
AcDbLinetypeTableRecord
  2
HIDDEN
 70
64
  3
- - - - - - - - - - - - - - - - - - - -
 72
65
 73
2
 40
0.2
 49
0.1
 74
0
 49
-0.1
 74
0
  0
LTYPE
  5
1F7
100
AcDbSymbolTableRecord
100
AcDbLinetypeTableRecord
  2
PHANTOM
 70
64
  3
_____ _ _ _____ _ _ _____ _ _ _____
 72
65
 73
6
 40
0.8
 49
0.45
 74
0
 49
-0.05
 74
0
 49
0.1
 74
0
 49
-0.05
 74
0
 49
0.1
 74
0
 49
-0.05
 74
0
  0
LTYPE
  5
1F8
100
AcDbSymbolTableRecord
100
AcDbLinetypeTableRecord
  2
DOT
 70
64
  3
. . . . . . . . . . . . . . . . . . . .
 72
65
 73
2
 40
0.2
 49
0.1
 74
0
 49
-0.1
 74
0
  0
LTYPE
  5
1F9
100
AcDbSymbolTableRecord
100
AcDbLinetypeTableRecord
  2
DASHED
 70
64
  3
- - - - - - - - - - - - - - - - - - - -
 72
65
 73
2
 40
0.2
 49
0.1
 74
0
 49
-0.1
 74
0
  0
ENDTAB
  0
TABLE
  2
LAYER
  5
2
100
AcDbSymbolTable
 70
36
  0
LAYER
  5
10
100
AcDbSymbolTableRecord
100
AcDbLayerTableRecord
  2
0
 70
0
 62
7
  6
CONTINUOUS
370
-3
390
F
  0
LAYER
  5
1FA
100
AcDbSymbolTableRecord
100
AcDbLayerTableRecord
  2
DEFAULT_1
 70
0
 62
7
  6
CENTER
370
-3
390
F
  0
LAYER
  5
1FB
100
AcDbSymbolTableRecord
100
AcDbLayerTableRecord
  2
DEFAULT_2
 70
0
 62
8
  6
HIDDEN
370
-3
390
F
  0
LAYER
  5
1FC
100
AcDbSymbolTableRecord
100
AcDbLayerTableRecord
  2
DEFAULT_3
 70
0
 62
7
  6
PHANTOM
370
-3
390
F
  0
LAYER
  5
1FD
100
AcDbSymbolTableRecord
100
AcDbLayerTableRecord
  2
00_COMPONENTS
 70
0
 62
7
  6
CONTINUOUS
370
-3
390
F
  0
LAYER
  5
1FE
100
AcDbSymbolTableRecord
100
AcDbLayerTableRecord
  2
01_1_DEFAULT_DATUMS
 70
0
 62
7
  6
CONTINUOUS
370
-3
390
F
  0
LAYER
  5
1FF
100
AcDbSymbolTableRecord
100
AcDbLayerTableRecord
  2
01_PLANES
 70
0
 62
7
  6
CONTINUOUS
370
-3
390
F
  0
LAYER
  5
200
100
AcDbSymbolTableRecord
100
AcDbLayerTableRecord
  2
02_COORD_SYS
 70
0
 62
7
  6
CONTINUOUS
370
-3
390
F
  0
LAYER
  5
201
100
AcDbSymbolTableRecord
100
AcDbLayerTableRecord
  2
03_AXES
 70
0
 62
7
  6
CONTINUOUS
370
-3
390
F
  0
LAYER
  5
202
100
AcDbSymbolTableRecord
100
AcDbLayerTableRecord
  2
04_POINTS
 70
0
 62
7
  6
CONTINUOUS
370
-3
390
F
  0
LAYER
  5
203
100
AcDbSymbolTableRecord
100
AcDbLayerTableRecord
  2
05_CURVES
 70
0
 62
7
  6
CONTINUOUS
370
-3
390
F
  0
LAYER
  5
204
100
AcDbSymbolTableRecord
100
AcDbLayerTableRecord
  2
06_SURFS
 70
0
 62
7
  6
CONTINUOUS
370
-3
390
F
  0
LAYER
  5
205
100
AcDbSymbolTableRecord
100
AcDbLayerTableRecord
  2
07_COSMETICS
 70
0
 62
7
  6
CONTINUOUS
370
-3
390
F
  0
LAYER
  5
206
100
AcDbSymbolTableRecord
100
AcDbLayerTableRecord
  2
10_NOTES
 70
0
 62
7
  6
CONTINUOUS
370
-3
390
F
  0
LAYER
  5
207
100
AcDbSymbolTableRecord
100
AcDbLayerTableRecord
  2
11_NOTES_PUB
 70
0
 62
7
  6
CONTINUOUS
370
-3
390
F
  0
LAYER
  5
208
100
AcDbSymbolTableRecord
100
AcDbLayerTableRecord
  2
13_REF_GTOL
 70
0
 62
7
  6
CONTINUOUS
370
-3
390
F
  0
LAYER
  5
209
100
AcDbSymbolTableRecord
100
AcDbLayerTableRecord
  2
16_MISC
 70
0
 62
7
  6
CONTINUOUS
370
-3
390
F
  0
LAYER
  5
20A
100
AcDbSymbolTableRecord
100
AcDbLayerTableRecord
  2
17_NO_PRINT
 70
0
 62
7
  6
CONTINUOUS
370
-3
390
F
  0
LAYER
  5
20B
100
AcDbSymbolTableRecord
100
AcDbLayerTableRecord
  2
18_DATUM_CAMS_JOINTS
 70
0
 62
7
  6
CONTINUOUS
370
-3
390
F
  0
LAYER
  5
20C
100
AcDbSymbolTableRecord
100
AcDbLayerTableRecord
  2
19_DATUM_FUNCTIONAL
 70
0
 62
7
  6
CONTINUOUS
370
-3
390
F
  0
LAYER
  5
20D
100
AcDbSymbolTableRecord
100
AcDbLayerTableRecord
  2
20_DATUM_KINEMATIC_SCHEME
 70
0
 62
7
  6
CONTINUOUS
370
-3
390
F
  0
ENDTAB
  0
TABLE
  2
STYLE
  5
3
100
AcDbSymbolTable
 70
1
  0
STYLE
  5
11
100
AcDbSymbolTableRecord
100
AcDbTextStyleTableRecord
  2
STANDARD
 70
0
 40
0.0
 41
0.8
 50
0.0
 71
0
 42
0.2
  3
txt
  4

  0
STYLE
  5
20E
100
AcDbSymbolTableRecord
100
AcDbTextStyleTableRecord
  2
TEXTSTYLE_1
 70
0
 40
0.0
 41
0.8
 50
0.0
 71
0
 42
0.2
  3
gdt
  4

  0
ENDTAB
  0
TABLE
  2
VIEW
  5
6
100
AcDbSymbolTable
 70
0
  0
ENDTAB
  0
TABLE
  2
UCS
  5
7
100
AcDbSymbolTable
 70
0
  0
ENDTAB
  0
TABLE
  2
APPID
  5
9
100
AcDbSymbolTable
 70
1
  0
APPID
  5
20F
100
AcDbSymbolTableRecord
100
AcDbRegAppTableRecord
  2
ACAD
 70
0
  0
ENDTAB
  0
TABLE
  2
BLOCK_RECORD
  5
1
100
AcDbSymbolTable
 70
0
  0
BLOCK_RECORD
  5
210
100
AcDbSymbolTableRecord
100
AcDbBlockTableRecord
  2
*Model_Space
  0
BLOCK_RECORD
  5
211
100
AcDbSymbolTableRecord
100
AcDbBlockTableRecord
  2
*Paper_Space
  0
BLOCK_RECORD
  5
212
100
AcDbSymbolTableRecord
100
AcDbBlockTableRecord
  2
_FILLED
  0
ENDTAB
  0
TABLE
  2
DIMSTYLE
  5
A
100
AcDbSymbolTable
 70
1
100
AcDbDimStyleTable
 71
0
  0
DIMSTYLE
105
213
100
AcDbSymbolTableRecord
100
AcDbDimStyleTableRecord
  2
STANDARD
 70
0
  3

  4

 40
1.0
 41
1.057676715
 42
1.0
 43
0.38
 44
1.0
 45
0.0
 46
0.0
 47
0.01
 48
0.01
140
1.480747401
141
0.09
142
0.0
143
25.4
144
1.0
145
0.0
146
1.0
147
0.625
 71
1
 72
0
 73
0
 74
0
 75
0
 76
0
 77
1
 78
8
 79
2
170
0
171
1
172
0
173
0
174
0
175
0
176
0
177
0
178
0
270
2
179
2
271
2
272
2
273
2
274
2
275
0
280
0
281
0
282
0
283
1
284
8
285
0
286
0
287
3
288
0
340
11
278
46
341
212
342
212
343
212
344
212
  0
ENDTAB
  0
ENDSEC
  0
SECTION
  2
BLOCKS
  0
BLOCK
  5
20
100
AcDbEntity
  8
0
100
AcDbBlockBegin
  2
*Model_Space
 70
0
 10
0.0
 20
0.0
 30
0.0
  3
*Model_Space
  1

  0
ENDBLK
  5
21
100
AcDbEntity
  8
0
100
AcDbBlockEnd
  0
BLOCK
  5
1C
100
AcDbEntity
  8
0
100
AcDbBlockBegin
  2
*Paper_Space
 70
0
 10
0.0
 20
0.0
 30
0.0
  3
*Paper_Space
  1

  0
ENDBLK
  5
1D
100
AcDbEntity
  8
0
100
AcDbBlockEnd
  0
BLOCK
  5
214
100
AcDbEntity
  8
0
100
AcDbBlockBegin
  2
_FILLED
 70
64
 10
0.0
 20
0.0
  3
_FILLED
  1

  0
SOLID
  5
215
100
AcDbEntity
  8
0
  6
BYBLOCK
 62
0
100
AcDbTrace
 10
0.0
 20
0.0
 11
-1.0
 21
0.25
 12
-1.0
 22
-0.25
 13
-1.0
 23
-0.25
  0
ENDBLK
  5
216
100
AcDbEntity
  8
0
  6
BYBLOCK
 62
0
100
AcDbBlockEnd
  0
ENDSEC
  0
SECTION
  2
ENTITIES
  0
LINE
  5
217
100
AcDbEntity
  8
0
100
AcDbLine
 62
7
  6
CONTINUOUS
 10
10.0669099565
 20
59.376034635
 11
10.0636750115
 21
60.7009968147
  0
LINE
  5
218
100
AcDbEntity
  8
0
100
AcDbLine
 62
7
  6
CONTINUOUS
 10
11.9801124268
 20
47.0272553956
 11
11.8619429818
 21
47.3591612301
  0
LINE
  5
219
100
AcDbEntity
  8
0
100
AcDbLine
 62
7
  6
CONTINUOUS
 10
11.8619429818
 20
74.0442466129
 11
11.8619429818
 21
73.9902381718
  0
LINE
  5
21A
100
AcDbEntity
  8
0
100
AcDbLine
 62
7
  6
CONTINUOUS
 10
11.8619429818
 20
73.9856307999
 11
11.8619429818
 21
73.3888403712
  0
LINE
  5
21B
100
AcDbEntity
  8
0
100
AcDbLine
 62
7
  6
CONTINUOUS
 10
11.8619429818
 20
48.0147094552
 11
11.8619429818
 21
47.3591612301
  0
LINE
  5
21C
100
AcDbEntity
  8
0
100
AcDbLine
 62
7
  6
CONTINUOUS
 10
11.9801124268
 20
74.3761524474
 11
11.9801124268
 21
74.3234601791
  0
LINE
  5
21D
100
AcDbEntity
  8
0
100
AcDbLine
 62
7
  6
CONTINUOUS
 10
11.9801124268
 20
74.3189664616
 11
11.9801124268
 21
73.7890253737
  0
LINE
  5
21E
100
AcDbEntity
  8
0
100
AcDbLine
 62
7
  6
CONTINUOUS
 10
11.9801124268
 20
47.6146745603
 11
11.9801124268
 21
47.0272553956
  0
LINE
  5
21F
100
AcDbEntity
  8
0
100
AcDbLine
 62
7
  6
CONTINUOUS
 10
12.3763861299
 20
46.8046349152
 11
12.3763861299
 21
47.322868911
  0
LINE
  5
220
100
AcDbEntity
  8
0
100
AcDbLine
 62
7
  6
CONTINUOUS
 10
12.3763861299
 20
74.0809922211
 11
12.3763861299
 21
74.5425057127
  0
LINE
  5
221
100
AcDbEntity
  8
0
100
AcDbLine
 62
7
  6
CONTINUOUS
 10
12.3763861299
 20
74.5469342695
 11
12.3763861299
 21
74.5987729281
  0
LINE
  5
222
100
AcDbEntity
  8
0
100
AcDbLine
 62
7
  6
CONTINUOUS
 10
26.0288350029
 20
73.5617039214
 11
26.4379656367
 21
74.9364521308
  0
LINE
  5
223
100
AcDbEntity
  8
0
100
AcDbLine
 62
7
  6
CONTINUOUS
 10
53.5327595021
 20
42.2009965763
 11
60.0327594033
 21
43.3471231148
  0
LINE
  5
224
100
AcDbEntity
  8
0
100
AcDbLine
 62
7
  6
CONTINUOUS
 10
26.442072433
 20
74.6671155803
 11
26.4419949668
 21
74.9352523545
  0
LINE
  5
225
100
AcDbEntity
  8
0
100
AcDbLine
 62
7
  6
CONTINUOUS
 10
25.1427593093
 20
74.9330719553
 11
25.1427593093
 21
74.9204482527
  0
LINE
  5
226
100
AcDbEntity
  8
0
100
AcDbLine
 62
7
  6
CONTINUOUS
 10
25.1927592826
 20
74.9204073038
 11
25.1927592826
 21
74.9343812013
  0
LINE
  5
227
100
AcDbEntity
  8
0
100
AcDbLine
 62
7
  6
CONTINUOUS
 10
25.2988350051
 20
74.9363538944
 11
25.2988350052
 21
72.4657421192
  0
LINE
  5
228
100
AcDbEntity
  8
0
100
AcDbLine
 62
7
  6
CONTINUOUS
 10
25.2988350036
 20
48.9375930719
 11
25.2988350032
 21
46.466353687
  0
LINE
  5
229
100
AcDbEntity
  8
0
100
AcDbLine
 62
7
  6
CONTINUOUS
 10
25.3024437337
 20
52.3724702714
 11
25.3024437337
 21
69.0295233581
  0
LINE
  5
22A
100
AcDbEntity
  8
0
100
AcDbLine
 62
7
  6
CONTINUOUS
 10
25.8027589908
 20
48.2267039415
 11
25.8027589908
 21
72.4648912013
  0
LINE
  5
22B
100
AcDbEntity
  8
0
100
AcDbLine
 62
7
  6
CONTINUOUS
 10
26.0288350029
 20
47.8418016104
 11
26.0288350029
 21
48.9371592456
  0
LINE
  5
22C
100
AcDbEntity
  8
0
100
AcDbLine
 62
7
  6
CONTINUOUS
 10
26.0288350029
 20
72.4657421192
 11
26.0288350029
 21
73.5616080391
  0
LINE
  5
22D
100
AcDbEntity
  8
0
100
AcDbLine
 62
7
  6
CONTINUOUS
 10
26.0327593451
 20
48.5453147007
 11
26.0327593451
 21
72.8566915037
  0
LINE
  5
22E
100
AcDbEntity
  8
0
100
AcDbLine
 62
7
  6
CONTINUOUS
 10
26.4466834594
 20
46.450996811
 11
26.4466834594
 21
74.9509968185
  0
LINE
  5
22F
100
AcDbEntity
  8
0
100
AcDbLine
 62
7
  6
CONTINUOUS
 10
67.6106744864
 20
45.6716690131
 11
74.9827592826
 21
46.9809968147
  0
LINE
  5
230
100
AcDbEntity
  8
0
100
AcDbLine
 62
7
  6
CONTINUOUS
 10
53.5327595021
 20
42.2009965763
 11
51.8527592826
 21
42.2009965763
  0
LINE
  5
231
100
AcDbEntity
  8
0
100
AcDbLine
 62
7
  6
CONTINUOUS
 10
51.7527592826
 20
42.8832066118
 11
50.2527592826
 21
42.8832066118
  0
LINE
  5
232
100
AcDbEntity
  8
0
100
AcDbLine
 62
7
  6
CONTINUOUS
 10
48.2327591921
 20
42.9009972498
 11
50.2327595199
 21
42.9009972498
  0
LINE
  5
233
100
AcDbEntity
  8
0
100
AcDbLine
 62
7
  6
CONTINUOUS
 10
50.2327592826
 20
43.7799916016
 11
50.2527592826
 21
43.7799916016
  0
LINE
  5
234
100
AcDbEntity
  8
0
100
AcDbLine
 62
7
  6
CONTINUOUS
 10
51.7527592826
 20
43.7799916016
 11
51.8527592826
 21
43.7799916016
  0
LINE
  5
235
100
AcDbEntity
  8
0
100
AcDbLine
 62
7
  6
CONTINUOUS
 10
51.8527592826
 20
43.7827238849
 11
51.7527592826
 21
43.7827238849
  0
LINE
  5
236
100
AcDbEntity
  8
0
100
AcDbLine
 62
7
  6
CONTINUOUS
 10
50.2527592826
 20
43.7827238849
 11
50.2327592826
 21
43.7827238849
  0
LINE
  5
237
100
AcDbEntity
  8
0
100
AcDbLine
 62
7
  6
CONTINUOUS
 10
43.8327592826
 20
45.9509967253
 11
45.3327592956
 21
45.993064566
  0
LINE
  5
238
100
AcDbEntity
  8
0
100
AcDbLine
 62
7
  6
CONTINUOUS
 10
70.2257347072
 20
44.6151157705
 11
76.0915429929
 21
44.6151157705
  0
LINE
  5
239
100
AcDbEntity
  8
0
100
AcDbLine
 62
7
  6
CONTINUOUS
 10
45.3327592956
 20
46.0009968147
 11
48.2327591921
 21
46.0009968147
  0
LINE
  5
23A
100
AcDbEntity
  8
0
100
AcDbLine
 62
7
  6
CONTINUOUS
 10
50.2527592826
 20
46.0337834203
 11
51.7527592826
 21
46.0337834203
  0
LINE
  5
23B
100
AcDbEntity
  8
0
100
AcDbLine
 62
7
  6
CONTINUOUS
 10
48.2327591921
 20
46.0430646366
 11
45.3327592956
 21
46.0430646366
  0
LINE
  5
23C
100
AcDbEntity
  8
0
100
AcDbLine
 62
7
  6
CONTINUOUS
 10
36.3327590777
 20
46.450996811
 11
26.4466834594
 21
46.450996811
  0
LINE
  5
23D
100
AcDbEntity
  8
0
100
AcDbLine
 62
7
  6
CONTINUOUS
 10
60.0327594033
 20
46.7161937044
 11
51.8527592826
 21
46.7161937044
  0
LINE
  5
23E
100
AcDbEntity
  8
0
100
AcDbLine
 62
7
  6
CONTINUOUS
 10
12.3763861299
 20
46.804634915
 11
25.2988350028
 21
46.4662486823
  0
LINE
  5
23F
100
AcDbEntity
  8
0
100
AcDbLine
 62
7
  6
CONTINUOUS
 10
37.5827592826
 20
47.1259970576
 11
36.3327590777
 21
47.1259970576
  0
LINE
  5
240
100
AcDbEntity
  8
0
100
AcDbLine
 62
7
  6
CONTINUOUS
 10
48.2327591921
 20
47.538786553
 11
46.6983741607
 21
47.538786553
  0
LINE
  5
241
100
AcDbEntity
  8
0
100
AcDbLine
 62
7
  6
CONTINUOUS
 10
51.8527592826
 20
47.5481145517
 11
51.7527592826
 21
47.5481145517
  0
LINE
  5
242
100
AcDbEntity
  8
0
100
AcDbLine
 62
7
  6
CONTINUOUS
 10
50.2527592826
 20
47.5481145517
 11
50.2327592826
 21
47.5481145517
  0
LINE
  5
243
100
AcDbEntity
  8
0
100
AcDbLine
 62
7
  6
CONTINUOUS
 10
49.732759438
 20
47.7009965465
 11
48.2327591921
 21
47.7009965465
  0
LINE
  5
244
100
AcDbEntity
  8
0
100
AcDbLine
 62
7
  6
CONTINUOUS
 10
51.7527592826
 20
47.9756015826
 11
50.2527592826
 21
47.9756015826
  0
LINE
  5
245
100
AcDbEntity
  8
0
100
AcDbLine
 62
7
  6
CONTINUOUS
 10
43.2677592826
 20
48.0509968833
 11
43.8327592826
 21
48.0509968833
  0
LINE
  5
246
100
AcDbEntity
  8
0
100
AcDbLine
 62
7
  6
CONTINUOUS
 10
26.0288350029
 20
48.2267039215
 11
25.2988350033
 21
48.2267039215
  0
LINE
  5
247
100
AcDbEntity
  8
0
100
AcDbLine
 62
7
  6
CONTINUOUS
 10
11.673128553
 20
48.7719968029
 11
25.2988349968
 21
48.7719968029
  0
LINE
  5
248
100
AcDbEntity
  8
0
100
AcDbLine
 62
7
  6
CONTINUOUS
 10
25.2988349968
 20
48.9375930719
 11
25.8026511095
 21
48.9375930719
  0
LINE
  5
249
100
AcDbEntity
  8
0
100
AcDbLine
 62
7
  6
CONTINUOUS
 10
43.2677592826
 20
48.0509968833
 11
43.2277592826
 21
48.0512497983
  0
LINE
  5
24A
100
AcDbEntity
  8
0
100
AcDbLine
 62
7
  6
CONTINUOUS
 10
40.2827592826
 20
49.8259968147
 11
37.5827592826
 21
49.8259968147
  0
LINE
  5
24B
100
AcDbEntity
  8
0
100
AcDbLine
 62
7
  6
CONTINUOUS
 10
40.8327592826
 20
50.2009968147
 11
40.5327592826
 21
50.2009968147
  0
LINE
  5
24C
100
AcDbEntity
  8
0
100
AcDbLine
 62
7
  6
CONTINUOUS
 10
40.8327592826
 20
50.6009968147
 11
42.8327592351
 21
50.6009968147
  0
LINE
  5
24D
100
AcDbEntity
  8
0
100
AcDbLine
 62
7
  6
CONTINUOUS
 10
49.8327593347
 20
51.0449104835
 11
50.2327595045
 21
51.0449104835
  0
LINE
  5
24E
100
AcDbEntity
  8
0
100
AcDbLine
 62
7
  6
CONTINUOUS
 10
45.3327592956
 20
51.7538662801
 11
49.8227592826
 21
51.7538662801
  0
LINE
  5
24F
100
AcDbEntity
  8
0
100
AcDbLine
 62
7
  6
CONTINUOUS
 10
35.1327592826
 20
61.7509968147
 11
35.1327592826
 21
59.6509968147
  0
LINE
  5
250
100
AcDbEntity
  8
0
100
AcDbLine
 62
7
  6
CONTINUOUS
 10
36.3327590777
 20
46.4509968073
 11
36.3327590777
 21
74.9509968222
  0
LINE
  5
251
100
AcDbEntity
  8
0
100
AcDbLine
 62
7
  6
CONTINUOUS
 10
49.8227592826
 20
52.4079647101
 11
45.3327592956
 21
52.4079647101
  0
LINE
  5
252
100
AcDbEntity
  8
0
100
AcDbLine
 62
7
  6
CONTINUOUS
 10
37.5827592826
 20
53.4874107564
 11
38.3684097585
 21
53.4874512722
  0
LINE
  5
253
100
AcDbEntity
  8
0
100
AcDbLine
 62
7
  6
CONTINUOUS
 10
51.8527592826
 20
53.7009965987
 11
51.7527592826
 21
53.7009965987
  0
LINE
  5
254
100
AcDbEntity
  8
0
100
AcDbLine
 62
7
  6
CONTINUOUS
 10
49.8227592826
 20
54.3360967412
 11
45.3327592956
 21
54.3360967412
  0
LINE
  5
255
100
AcDbEntity
  8
0
100
AcDbLine
 62
7
  6
CONTINUOUS
 10
37.5827592826
 20
47.1259970576
 11
37.5827592826
 21
74.2759965718
  0
LINE
  5
256
100
AcDbEntity
  8
0
100
AcDbLine
 62
7
  6
CONTINUOUS
 10
38.3327592826
 20
72.5309968147
 11
38.3327592826
 21
71.3406925341
  0
LINE
  5
257
100
AcDbEntity
  8
0
100
AcDbLine
 62
7
  6
CONTINUOUS
 10
38.3684097585
 20
70.4808020804
 11
38.3684097585
 21
67.7561113819
  0
LINE
  5
258
100
AcDbEntity
  8
0
100
AcDbLine
 62
7
  6
CONTINUOUS
 10
38.3684097585
 20
57.2598256758
 11
38.3684097585
 21
53.4874917903
  0
LINE
  5
259
100
AcDbEntity
  8
0
100
AcDbLine
 62
7
  6
CONTINUOUS
 10
38.5674619727
 20
53.5341977446
 11
38.5674619727
 21
57.2008398811
  0
LINE
  5
25A
100
AcDbEntity
  8
0
100
AcDbLine
 62
7
  6
CONTINUOUS
 10
38.5674619727
 20
67.8033564071
 11
38.5674619727
 21
70.4442757576
  0
LINE
  5
25B
100
AcDbEntity
  8
0
100
AcDbLine
 62
7
  6
CONTINUOUS
 10
38.8327592826
 20
71.3406925341
 11
38.8327592826
 21
71.5758969445
  0
LINE
  5
25C
100
AcDbEntity
  8
0
100
AcDbLine
 62
7
  6
CONTINUOUS
 10
54.8183998352
 20
76.1442026643
 11
53.232759822
 21
75.2287321312
  0
LINE
  5
25D
100
AcDbEntity
  8
0
100
AcDbLine
 62
7
  6
CONTINUOUS
 10
70.3427592826
 20
76.5709968147
 11
59.1327592826
 21
72.8709968147
  0
LINE
  5
25E
100
AcDbEntity
  8
0
100
AcDbLine
 62
7
  6
CONTINUOUS
 10
50.2527592826
 20
55.4331706837
 11
50.0527598565
 21
55.4331706837
  0
LINE
  5
25F
100
AcDbEntity
  8
0
100
AcDbLine
 62
7
  6
CONTINUOUS
 10
37.5827592826
 20
55.6492032317
 11
36.3327592826
 21
55.6492032317
  0
LINE
  5
260
100
AcDbEntity
  8
0
100
AcDbLine
 62
7
  6
CONTINUOUS
 10
49.8227592826
 20
56.2849551933
 11
46.6983741624
 21
56.2849551933
  0
LINE
  5
261
100
AcDbEntity
  8
0
100
AcDbLine
 62
7
  6
CONTINUOUS
 10
56.7327592826
 20
56.3709968147
 11
56.7127590501
 21
56.3709968147
  0
LINE
  5
262
100
AcDbEntity
  8
0
100
AcDbLine
 62
7
  6
CONTINUOUS
 10
57.1127591321
 20
56.8151164663
 11
56.7127590501
 21
56.8151164663
  0
LINE
  5
263
100
AcDbEntity
  8
0
100
AcDbLine
 62
7
  6
CONTINUOUS
 10
38.3684097585
 20
57.2598770443
 11
37.5827592826
 21
57.2599284034
  0
LINE
  5
264
100
AcDbEntity
  8
0
100
AcDbLine
 62
7
  6
CONTINUOUS
 10
60.0327594033
 20
48.7333464037
 11
70.2257347072
 21
44.6151157705
  0
LINE
  5
265
100
AcDbEntity
  8
0
100
AcDbLine
 62
7
  6
CONTINUOUS
 10
40.1927592821
 20
55.1183515507
 11
40.1927592821
 21
55.4099465705
  0
LINE
  5
266
100
AcDbEntity
  8
0
100
AcDbLine
 62
7
  6
CONTINUOUS
 10
40.1927592821
 20
69.1659391898
 11
40.1927592821
 21
69.3732354148
  0
LINE
  5
267
100
AcDbEntity
  8
0
100
AcDbLine
 62
7
  6
CONTINUOUS
 10
40.2827592826
 20
71.5759968147
 11
40.2827592826
 21
49.8259968147
  0
LINE
  5
268
100
AcDbEntity
  8
0
100
AcDbLine
 62
7
  6
CONTINUOUS
 10
40.5327592826
 20
71.3259968147
 11
40.5327592826
 21
50.0759968147
  0
LINE
  5
269
100
AcDbEntity
  8
0
100
AcDbLine
 62
7
  6
CONTINUOUS
 10
40.8327592826
 20
71.2009932872
 11
40.8327592826
 21
70.8009968147
  0
LINE
  5
26A
100
AcDbEntity
  8
0
100
AcDbLine
 62
7
  6
CONTINUOUS
 10
40.8327592826
 20
50.6009968147
 11
40.8327592826
 21
50.2010003422
  0
LINE
  5
26B
100
AcDbEntity
  8
0
100
AcDbLine
 62
7
  6
CONTINUOUS
 10
40.9327592826
 20
50.6009968147
 11
40.9327592826
 21
58.9509968147
  0
LINE
  5
26C
100
AcDbEntity
  8
0
100
AcDbLine
 62
7
  6
CONTINUOUS
 10
40.9327592826
 20
62.4509968147
 11
40.9327592826
 21
70.9509968147
  0
LINE
  5
26D
100
AcDbEntity
  8
0
100
AcDbLine
 62
7
  6
CONTINUOUS
 10
42.8327592351
 20
48.0599180132
 11
42.8327592351
 21
54.7447187206
  0
LINE
  5
26E
100
AcDbEntity
  8
0
100
AcDbLine
 62
7
  6
CONTINUOUS
 10
42.8327592351
 20
54.7918195228
 11
42.8327592351
 21
55.58373507
  0
LINE
  5
26F
100
AcDbEntity
  8
0
100
AcDbLine
 62
7
  6
CONTINUOUS
 10
42.8327592351
 20
55.7891423078
 11
42.8327592351
 21
56.4616968711
  0
LINE
  5
270
100
AcDbEntity
  8
0
100
AcDbLine
 62
7
  6
CONTINUOUS
 10
42.8327592351
 20
56.8238472714
 11
42.8327592351
 21
57.3719223045
  0
LINE
  5
271
100
AcDbEntity
  8
0
100
AcDbLine
 62
7
  6
CONTINUOUS
 10
42.8327592351
 20
57.8880596377
 11
42.8327592351
 21
58.3074840051
  0
LINE
  5
272
100
AcDbEntity
  8
0
100
AcDbLine
 62
7
  6
CONTINUOUS
 10
42.8327592351
 20
58.9736802469
 11
42.8327592351
 21
59.2612617835
  0
LINE
  5
273
100
AcDbEntity
  8
0
100
AcDbLine
 62
7
  6
CONTINUOUS
 10
42.8327592351
 20
60.0724466842
 11
42.8327592351
 21
60.2259968147
  0
LINE
  5
274
100
AcDbEntity
  8
0
100
AcDbLine
 62
7
  6
CONTINUOUS
 10
42.8327592351
 20
61.1759968622
 11
42.8327592351
 21
61.3295469452
  0
LINE
  5
275
100
AcDbEntity
  8
0
100
AcDbLine
 62
7
  6
CONTINUOUS
 10
42.8327592351
 20
62.1407318463
 11
42.8327592351
 21
62.4283134297
  0
LINE
  5
276
100
AcDbEntity
  8
0
100
AcDbLine
 62
7
  6
CONTINUOUS
 10
42.8327592351
 20
63.0945096252
 11
42.8327592351
 21
63.5139339917
  0
LINE
  5
277
100
AcDbEntity
  8
0
100
AcDbLine
 62
7
  6
CONTINUOUS
 10
42.8327592351
 20
64.0300713703
 11
42.8327592351
 21
64.5781464033
  0
LINE
  5
278
100
AcDbEntity
  8
0
100
AcDbLine
 62
7
  6
CONTINUOUS
 10
42.8327592351
 20
64.9402967584
 11
42.8327592351
 21
65.6128513655
  0
LINE
  5
279
100
AcDbEntity
  8
0
100
AcDbLine
 62
7
  6
CONTINUOUS
 10
42.8327592351
 20
65.8182585595
 11
42.8327592351
 21
66.6101741487
  0
LINE
  5
27A
100
AcDbEntity
  8
0
100
AcDbLine
 62
7
  6
CONTINUOUS
 10
42.8327592351
 20
66.6572749088
 11
42.8327592351
 21
73.3353714727
  0
LINE
  5
27B
100
AcDbEntity
  8
0
100
AcDbLine
 62
7
  6
CONTINUOUS
 10
70.3469544315
 20
76.8309983346
 11
69.8108556599
 21
76.6151172904
  0
LINE
  5
27C
100
AcDbEntity
  8
0
100
AcDbLine
 62
7
  6
CONTINUOUS
 10
56.8327594842
 20
58.5709968147
 11
57.1127591321
 21
58.5709968147
  0
LINE
  5
27D
100
AcDbEntity
  8
0
100
AcDbLine
 62
7
  6
CONTINUOUS
 10
42.8556618983
 20
58.9509968147
 11
40.5327592826
 21
58.9509968147
  0
LINE
  5
27E
100
AcDbEntity
  8
0
100
AcDbLine
 62
7
  6
CONTINUOUS
 10
51.8527592826
 20
59.2009968017
 11
51.7527592826
 21
59.2009968017
  0
LINE
  5
27F
100
AcDbEntity
  8
0
100
AcDbLine
 62
7
  6
CONTINUOUS
 10
50.2527592826
 20
59.2009968017
 11
50.0527598565
 21
59.2009968017
  0
LINE
  5
280
100
AcDbEntity
  8
0
100
AcDbLine
 62
7
  6
CONTINUOUS
 10
36.3327592826
 20
59.5459968147
 11
35.1327592826
 21
59.6509968147
  0
LINE
  5
281
100
AcDbEntity
  8
0
100
AcDbLine
 62
7
  6
CONTINUOUS
 10
43.2277592826
 20
60.7809968147
 11
42.8327592351
 21
61.1759968622
  0
LINE
  5
282
100
AcDbEntity
  8
0
100
AcDbLine
 62
7
  6
CONTINUOUS
 10
43.2277592826
 20
73.3095801324
 11
43.2277592826
 21
73.2956352653
  0
LINE
  5
283
100
AcDbEntity
  8
0
100
AcDbLine
 62
7
  6
CONTINUOUS
 10
43.2277592826
 20
73.1724575532
 11
43.2277592826
 21
73.1446738959
  0
LINE
  5
284
100
AcDbEntity
  8
0
100
AcDbLine
 62
7
  6
CONTINUOUS
 10
43.2277592826
 20
72.9404196274
 11
43.2277592826
 21
72.8990086303
  0
LINE
  5
285
100
AcDbEntity
  8
0
100
AcDbLine
 62
7
  6
CONTINUOUS
 10
43.2277592826
 20
72.6152323035
 11
43.2277592826
 21
72.5605091294
  0
LINE
  5
286
100
AcDbEntity
  8
0
100
AcDbLine
 62
7
  6
CONTINUOUS
 10
43.2277592826
 20
72.1993704536
 11
43.2277592826
 21
72.1317515788
  0
LINE
  5
287
100
AcDbEntity
  8
0
100
AcDbLine
 62
7
  6
CONTINUOUS
 10
43.2277592826
 20
71.6959990374
 11
43.2277592826
 21
71.6159990824
  0
LINE
  5
288
100
AcDbEntity
  8
0
100
AcDbLine
 62
7
  6
CONTINUOUS
 10
43.2277592826
 20
71.1089490153
 11
43.2277592826
 21
71.0171768281
  0
LINE
  5
289
100
AcDbEntity
  8
0
100
AcDbLine
 62
7
  6
CONTINUOUS
 10
43.2277592826
 20
70.4426881925
 11
43.2277592826
 21
70.3398422148
  0
LINE
  5
28A
100
AcDbEntity
  8
0
100
AcDbLine
 62
7
  6
CONTINUOUS
 10
43.2277592826
 20
69.7022872161
 11
43.2277592826
 21
69.5891501679
  0
LINE
  5
28B
100
AcDbEntity
  8
0
100
AcDbLine
 62
7
  6
CONTINUOUS
 10
43.2277592826
 20
68.8933809846
 11
43.2277592826
 21
68.7708139071
  0
LINE
  5
28C
100
AcDbEntity
  8
0
100
AcDbLine
 62
7
  6
CONTINUOUS
 10
43.2277592826
 20
68.0221257629
 11
43.2277592826
 21
67.8910614656
  0
LINE
  5
28D
100
AcDbEntity
  8
0
100
AcDbLine
 62
7
  6
CONTINUOUS
 10
43.2277592826
 20
67.0951523293
 11
43.2277592826
 21
66.9565882906
  0
LINE
  5
28E
100
AcDbEntity
  8
0
100
AcDbLine
 62
7
  6
CONTINUOUS
 10
43.2277592826
 20
66.1195155113
 11
43.2277592826
 21
65.9745062873
  0
LINE
  5
28F
100
AcDbEntity
  8
0
100
AcDbLine
 62
7
  6
CONTINUOUS
 10
43.2277592826
 20
65.1026404942
 11
43.2277592826
 21
64.9522896927
  0
LINE
  5
290
100
AcDbEntity
  8
0
100
AcDbLine
 62
7
  6
CONTINUOUS
 10
43.2277592826
 20
64.052266311
 11
43.2277592826
 21
63.8977181788
  0
LINE
  5
291
100
AcDbEntity
  8
0
100
AcDbLine
 62
7
  6
CONTINUOUS
 10
43.2277592826
 20
62.9763869433
 11
43.2277592826
 21
62.8188177028
  0
LINE
  5
292
100
AcDbEntity
  8
0
100
AcDbLine
 62
7
  6
CONTINUOUS
 10
43.2277592826
 20
61.8831904828
 11
43.2277592826
 21
61.7480960088
  0
LINE
  5
293
100
AcDbEntity
  8
0
100
AcDbLine
 62
7
  6
CONTINUOUS
 10
43.2277592826
 20
59.6538976207
 11
43.2277592826
 21
59.5188031466
  0
LINE
  5
294
100
AcDbEntity
  8
0
100
AcDbLine
 62
7
  6
CONTINUOUS
 10
43.2277592826
 20
58.5831759176
 11
43.2277592826
 21
58.4256066862
  0
LINE
  5
295
100
AcDbEntity
  8
0
100
AcDbLine
 62
7
  6
CONTINUOUS
 10
43.2277592826
 20
57.5042754372
 11
43.2277592826
 21
57.3497273185
  0
LINE
  5
296
100
AcDbEntity
  8
0
100
AcDbLine
 62
7
  6
CONTINUOUS
 10
43.2277592826
 20
56.4497039368
 11
43.2277592826
 21
56.2993531352
  0
LINE
  5
297
100
AcDbEntity
  8
0
100
AcDbLine
 62
7
  6
CONTINUOUS
 10
43.2277592826
 20
55.4274873421
 11
43.2277592826
 21
55.2824781182
  0
LINE
  5
298
100
AcDbEntity
  8
0
100
AcDbLine
 62
7
  6
CONTINUOUS
 10
43.2277592826
 20
54.4454053388
 11
43.2277592826
 21
54.3068413002
  0
LINE
  5
299
100
AcDbEntity
  8
0
100
AcDbLine
 62
7
  6
CONTINUOUS
 10
43.2277592826
 20
53.5109321638
 11
43.2277592826
 21
53.3798678665
  0
LINE
  5
29A
100
AcDbEntity
  8
0
100
AcDbLine
 62
7
  6
CONTINUOUS
 10
43.2277592826
 20
52.6311797223
 11
43.2277592826
 21
52.5086126448
  0
LINE
  5
29B
100
AcDbEntity
  8
0
100
AcDbLine
 62
7
  6
CONTINUOUS
 10
43.2277592826
 20
51.8128434616
 11
43.2277592826
 21
51.6997064133
  0
LINE
  5
29C
100
AcDbEntity
  8
0
100
AcDbLine
 62
7
  6
CONTINUOUS
 10
43.2277592826
 20
51.0621514147
 11
43.2277592826
 21
50.9593054369
  0
LINE
  5
29D
100
AcDbEntity
  8
0
100
AcDbLine
 62
7
  6
CONTINUOUS
 10
43.2277592826
 20
50.3848168014
 11
43.2277592826
 21
50.2930446141
  0
LINE
  5
29E
100
AcDbEntity
  8
0
100
AcDbLine
 62
7
  6
CONTINUOUS
 10
43.2277592826
 20
49.785994547
 11
43.2277592826
 21
49.705994592
  0
LINE
  5
29F
100
AcDbEntity
  8
0
100
AcDbLine
 62
7
  6
CONTINUOUS
 10
43.2277592826
 20
49.2702420506
 11
43.2277592826
 21
49.2026231758
  0
LINE
  5
2A0
100
AcDbEntity
  8
0
100
AcDbLine
 62
7
  6
CONTINUOUS
 10
43.2277592826
 20
48.8414845
 11
43.2277592826
 21
48.7867613259
  0
LINE
  5
2A1
100
AcDbEntity
  8
0
100
AcDbLine
 62
7
  6
CONTINUOUS
 10
43.2277592826
 20
48.5029849991
 11
43.2277592826
 21
48.4615740021
  0
LINE
  5
2A2
100
AcDbEntity
  8
0
100
AcDbLine
 62
7
  6
CONTINUOUS
 10
43.2277592826
 20
48.2573197335
 11
43.2277592826
 21
48.2295360762
  0
LINE
  5
2A3
100
AcDbEntity
  8
0
100
AcDbLine
 62
7
  6
CONTINUOUS
 10
43.2277592826
 20
48.1063583642
 11
43.2277592826
 21
48.0924134971
  0
LINE
  5
2A4
100
AcDbEntity
  8
0
100
AcDbLine
 62
7
  6
CONTINUOUS
 10
43.8327592826
 20
45.9509967253
 11
43.8327592826
 21
75.4509969041
  0
LINE
  5
2A5
100
AcDbEntity
  8
0
100
AcDbLine
 62
7
  6
CONTINUOUS
 10
45.3327592956
 20
75.4089290634
 11
45.3327592956
 21
45.993064566
  0
LINE
  5
2A6
100
AcDbEntity
  8
0
100
AcDbLine
 62
7
  6
CONTINUOUS
 10
56.9027596424
 20
76.1709969593
 11
57.5327594592
 21
76.8009974048
  0
LINE
  5
2A7
100
AcDbEntity
  8
0
100
AcDbLine
 62
7
  6
CONTINUOUS
 10
42.8327592588
 20
60.225996791
 11
43.2277592826
 21
60.6209968147
  0
LINE
  5
2A8
100
AcDbEntity
  8
0
100
AcDbLine
 62
7
  6
CONTINUOUS
 10
35.1327592826
 20
61.7509968147
 11
36.3327592826
 21
61.8559968147
  0
LINE
  5
2A9
100
AcDbEntity
  8
0
100
AcDbLine
 62
7
  6
CONTINUOUS
 10
50.0527598565
 20
62.2009968278
 11
50.2527592826
 21
62.2009968278
  0
LINE
  5
2AA
100
AcDbEntity
  8
0
100
AcDbLine
 62
7
  6
CONTINUOUS
 10
51.7527592826
 20
62.2009968278
 11
51.8527592826
 21
62.2009968278
  0
LINE
  5
2AB
100
AcDbEntity
  8
0
100
AcDbLine
 62
7
  6
CONTINUOUS
 10
40.5327592826
 20
62.4509968147
 11
42.8556618983
 21
62.4509968147
  0
LINE
  5
2AC
100
AcDbEntity
  8
0
100
AcDbLine
 62
7
  6
CONTINUOUS
 10
57.1127591321
 20
62.5709968147
 11
56.8327594842
 21
62.5709968147
  0
LINE
  5
2AD
100
AcDbEntity
  8
0
100
AcDbLine
 62
7
  6
CONTINUOUS
 10
43.2201484089
 20
61.7556692036
 11
43.2277592826
 21
61.7480960088
  0
LINE
  5
2AE
100
AcDbEntity
  8
0
100
AcDbLine
 62
7
  6
CONTINUOUS
 10
48.2327591921
 20
82.000996022
 11
48.2327591921
 21
74.5009966553
  0
LINE
  5
2AF
100
AcDbEntity
  8
0
100
AcDbLine
 62
7
  6
CONTINUOUS
 10
48.2327591921
 20
47.7009965465
 11
48.2327591921
 21
42.9009972498
  0
LINE
  5
2B0
100
AcDbEntity
  8
0
100
AcDbLine
 62
7
  6
CONTINUOUS
 10
59.5127587804
 20
76.6151172904
 11
59.0327592826
 21
76.1351168985
  0
LINE
  5
2B1
100
AcDbEntity
  8
0
100
AcDbLine
 62
7
  6
CONTINUOUS
 10
43.2277592826
 20
59.6538976207
 11
43.220148241
 21
59.6463205494
  0
LINE
  5
2B2
100
AcDbEntity
  8
0
100
AcDbLine
 62
7
  6
CONTINUOUS
 10
56.6127590501
 20
64.4151165945
 11
57.1127591321
 21
64.4151165945
  0
LINE
  5
2B3
100
AcDbEntity
  8
0
100
AcDbLine
 62
7
  6
CONTINUOUS
 10
46.6983743811
 20
65.1170383141
 11
49.8227592826
 21
65.1170383141
  0
LINE
  5
2B4
100
AcDbEntity
  8
0
100
AcDbLine
 62
7
  6
CONTINUOUS
 10
36.3327592826
 20
65.7527903978
 11
37.5827592826
 21
65.7527903978
  0
LINE
  5
2B5
100
AcDbEntity
  8
0
100
AcDbLine
 62
7
  6
CONTINUOUS
 10
60.0327594033
 20
53.3455503531
 11
56.8327594842
 21
55.8009967566
  0
LINE
  5
2B6
100
AcDbEntity
  8
0
100
AcDbLine
 62
7
  6
CONTINUOUS
 10
56.7327592826
 20
56.3709968147
 11
60.1527592826
 21
53.7009968147
  0
LINE
  5
2B7
100
AcDbEntity
  8
0
100
AcDbLine
 62
7
  6
CONTINUOUS
 10
42.8327592826
 20
66.6572749087
 11
42.8559889616
 21
66.6376427179
  0
LINE
  5
2B8
100
AcDbEntity
  8
0
100
AcDbLine
 62
7
  6
CONTINUOUS
 10
49.6353653264
 20
72.7135494844
 11
49.6353653264
 21
69.6481273494
  0
LINE
  5
2B9
100
AcDbEntity
  8
0
100
AcDbLine
 62
7
  6
CONTINUOUS
 10
49.6353653264
 20
64.5422098004
 11
49.6353653264
 21
56.859783909
  0
LINE
  5
2BA
100
AcDbEntity
  8
0
100
AcDbLine
 62
7
  6
CONTINUOUS
 10
49.6353653264
 20
51.7538662801
 11
49.6353653264
 21
48.688444145
  0
LINE
  5
2BB
100
AcDbEntity
  8
0
100
AcDbLine
 62
7
  6
CONTINUOUS
 10
49.8227592826
 20
74.2009971649
 11
49.8227592826
 21
72.5020726113
  0
LINE
  5
2BC
100
AcDbEntity
  8
0
100
AcDbLine
 62
7
  6
CONTINUOUS
 10
49.8227592826
 20
69.6480665236
 11
49.8227592826
 21
64.4364714085
  0
LINE
  5
2BD
100
AcDbEntity
  8
0
100
AcDbLine
 62
7
  6
CONTINUOUS
 10
49.8227592826
 20
56.9655223307
 11
49.8227592826
 21
51.7539271058
  0
LINE
  5
2BE
100
AcDbEntity
  8
0
100
AcDbLine
 62
7
  6
CONTINUOUS
 10
49.8227592826
 20
48.8999210182
 11
49.8227592826
 21
47.7302640944
  0
LINE
  5
2BF
100
AcDbEntity
  8
0
100
AcDbLine
 62
7
  6
CONTINUOUS
 10
49.8327593347
 20
72.6957916535
 11
49.8327593347
 21
48.706195353
  0
LINE
  5
2C0
100
AcDbEntity
  8
0
100
AcDbLine
 62
7
  6
CONTINUOUS
 10
50.0527598565
 20
65.9688229458
 11
50.0527598565
 21
55.4331706837
  0
LINE
  5
2C1
100
AcDbEntity
  8
0
100
AcDbLine
 62
7
  6
CONTINUOUS
 10
50.2327594842
 20
78.2509968147
 11
50.2327595199
 21
79.5509973899
  0
LINE
  5
2C2
100
AcDbEntity
  8
0
100
AcDbLine
 62
7
  6
CONTINUOUS
 10
50.2327595199
 20
74.2009971649
 11
50.2327595199
 21
68.400996773
  0
LINE
  5
2C3
100
AcDbEntity
  8
0
100
AcDbLine
 62
7
  6
CONTINUOUS
 10
50.2327595199
 20
53.2009969824
 11
50.2327594842
 21
48.2009968147
  0
LINE
  5
2C4
100
AcDbEntity
  8
0
100
AcDbLine
 62
7
  6
CONTINUOUS
 10
50.2327592826
 20
47.5481145517
 11
50.2327595199
 21
42.9009972498
  0
LINE
  5
2C5
100
AcDbEntity
  8
0
100
AcDbLine
 62
7
  6
CONTINUOUS
 10
50.2527592826
 20
42.8832066118
 11
50.2527592826
 21
80.1850490715
  0
LINE
  5
2C6
100
AcDbEntity
  8
0
100
AcDbLine
 62
7
  6
CONTINUOUS
 10
42.8559912679
 20
54.7644096996
 11
42.8327592588
 21
54.7447187006
  0
LINE
  5
2C7
100
AcDbEntity
  8
0
100
AcDbLine
 62
7
  6
CONTINUOUS
 10
50.0527598565
 20
65.9688229458
 11
50.2527592826
 21
65.9688229458
  0
LINE
  5
2C8
100
AcDbEntity
  8
0
100
AcDbLine
 62
7
  6
CONTINUOUS
 10
49.8227592826
 20
67.0658968883
 11
45.3327592956
 21
67.0658968883
  0
LINE
  5
2C9
100
AcDbEntity
  8
0
100
AcDbLine
 62
7
  6
CONTINUOUS
 10
51.7527592826
 20
67.7009970308
 11
51.8527592826
 21
67.7009970308
  0
LINE
  5
2CA
100
AcDbEntity
  8
0
100
AcDbLine
 62
7
  6
CONTINUOUS
 10
37.5827592826
 20
67.7560289685
 11
38.3684097585
 21
67.7560701703
  0
LINE
  5
2CB
100
AcDbEntity
  8
0
100
AcDbLine
 62
7
  6
CONTINUOUS
 10
39.195747373
 20
70.1724229541
 11
38.5674619727
 21
70.4442757576
  0
LINE
  5
2CC
100
AcDbEntity
  8
0
100
AcDbLine
 62
7
  6
CONTINUOUS
 10
50.2327595199
 20
79.5509973899
 11
50.0184123698
 21
82.000996022
  0
LINE
  5
2CD
100
AcDbEntity
  8
0
100
AcDbLine
 62
7
  6
CONTINUOUS
 10
51.7527592826
 20
80.1850490715
 11
51.7527592826
 21
42.8832066118
  0
LINE
  5
2CE
100
AcDbEntity
  8
0
100
AcDbLine
 62
7
  6
CONTINUOUS
 10
51.8527592826
 20
42.2009965763
 11
51.8527592826
 21
83.4509972495
  0
LINE
  5
2CF
100
AcDbEntity
  8
0
100
AcDbLine
 62
7
  6
CONTINUOUS
 10
53.1327594018
 20
75.0555275099
 11
53.1327594018
 21
73.9511291061
  0
LINE
  5
2D0
100
AcDbEntity
  8
0
100
AcDbLine
 62
7
  6
CONTINUOUS
 10
49.8327593347
 20
48.706195353
 11
49.8227592826
 21
48.6380208157
  0
LINE
  5
2D1
100
AcDbEntity
  8
0
100
AcDbLine
 62
7
  6
CONTINUOUS
 10
55.6600649999
 20
72.0709972379
 11
55.9590529909
 21
73.60915938
  0
LINE
  5
2D2
100
AcDbEntity
  8
0
100
AcDbLine
 62
7
  6
CONTINUOUS
 10
56.8327592826
 20
73.3148597907
 11
57.096863648
 21
73.3709969146
  0
LINE
  5
2D3
100
AcDbEntity
  8
0
100
AcDbLine
 62
7
  6
CONTINUOUS
 10
38.3684097585
 20
70.4808020804
 11
38.378932055
 21
70.4809120624
  0
LINE
  5
2D4
100
AcDbEntity
  8
0
100
AcDbLine
 62
7
  6
CONTINUOUS
 10
49.8227592826
 20
68.9940289193
 11
45.3327592956
 21
68.9940289193
  0
LINE
  5
2D5
100
AcDbEntity
  8
0
100
AcDbLine
 62
7
  6
CONTINUOUS
 10
45.3327592956
 20
69.6481273494
 11
49.8227592826
 21
69.6481273494
  0
LINE
  5
2D6
100
AcDbEntity
  8
0
100
AcDbLine
 62
7
  6
CONTINUOUS
 10
49.8327593347
 20
70.7009968147
 11
50.2327595199
 21
70.7009968147
  0
LINE
  5
2D7
100
AcDbEntity
  8
0
100
AcDbLine
 62
7
  6
CONTINUOUS
 10
42.8327592351
 20
70.8009968147
 11
40.8327592826
 21
70.8009968147
  0
LINE
  5
2D8
100
AcDbEntity
  8
0
100
AcDbLine
 62
7
  6
CONTINUOUS
 10
40.9327592826
 20
70.9509968147
 11
42.8327592351
 21
70.9509968147
  0
LINE
  5
2D9
100
AcDbEntity
  8
0
100
AcDbLine
 62
7
  6
CONTINUOUS
 10
40.8327592826
 20
71.2009968147
 11
40.5327592826
 21
71.2009968147
  0
LINE
  5
2DA
100
AcDbEntity
  8
0
100
AcDbLine
 62
7
  6
CONTINUOUS
 10
38.3684097585
 20
70.4808020804
 11
37.5827592826
 21
70.4809301591
  0
LINE
  5
2DB
100
AcDbEntity
  8
0
100
AcDbLine
 62
7
  6
CONTINUOUS
 10
38.378932055
 20
70.4809120624
 11
38.5674619727
 21
70.4442757576
  0
LINE
  5
2DC
100
AcDbEntity
  8
0
100
AcDbLine
 62
7
  6
CONTINUOUS
 10
74.9827592826
 20
46.9809968147
 11
74.9868769296
 21
46.977467403
  0
LINE
  5
2DD
100
AcDbEntity
  8
0
100
AcDbLine
 62
7
  6
CONTINUOUS
 10
50.2327595199
 20
68.400996773
 11
50.2527592826
 21
68.3809970104
  0
LINE
  5
2DE
100
AcDbEntity
  8
0
100
AcDbLine
 62
7
  6
CONTINUOUS
 10
49.8327593347
 20
72.6957982764
 11
49.8227592826
 21
72.7639728138
  0
LINE
  5
2DF
100
AcDbEntity
  8
0
100
AcDbLine
 62
7
  6
CONTINUOUS
 10
54.1527595664
 20
83.4509972495
 11
54.1527594842
 21
80.2014526986
  0
LINE
  5
2E0
100
AcDbEntity
  8
0
100
AcDbLine
 62
7
  6
CONTINUOUS
 10
55.5816762656
 20
71.8738437252
 11
55.4827592826
 21
71.3509968147
  0
LINE
  5
2E1
100
AcDbEntity
  8
0
100
AcDbLine
 62
7
  6
CONTINUOUS
 10
50.2527592826
 20
53.2209967264
 11
50.2327595199
 21
53.2009969824
  0
LINE
  5
2E2
100
AcDbEntity
  8
0
100
AcDbLine
 62
7
  6
CONTINUOUS
 10
74.9868769296
 20
74.1645262265
 11
74.9827592826
 21
74.1609968147
  0
LINE
  5
2E3
100
AcDbEntity
  8
0
100
AcDbLine
 62
7
  6
CONTINUOUS
 10
43.2277592826
 20
73.3507438312
 11
43.2677592826
 21
73.3509967462
  0
LINE
  5
2E4
100
AcDbEntity
  8
0
100
AcDbLine
 62
7
  6
CONTINUOUS
 10
38.8327592826
 20
71.3406925341
 11
37.5827592826
 21
71.3406925341
  0
LINE
  5
2E5
100
AcDbEntity
  8
0
100
AcDbLine
 62
7
  6
CONTINUOUS
 10
51.8527592826
 20
71.3509968147
 11
55.4827592826
 21
71.3509968147
  0
LINE
  5
2E6
100
AcDbEntity
  8
0
100
AcDbLine
 62
7
  6
CONTINUOUS
 10
76.3327592826
 20
71.5709968147
 11
79.0427592826
 21
71.5709968147
  0
LINE
  5
2E7
100
AcDbEntity
  8
0
100
AcDbLine
 62
7
  6
CONTINUOUS
 10
40.2827592826
 20
71.5759968147
 11
38.8327592826
 21
71.5759968147
  0
LINE
  5
2E8
100
AcDbEntity
  8
0
100
AcDbLine
 62
7
  6
CONTINUOUS
 10
37.5827592826
 20
72.5309968147
 11
38.3327592826
 21
72.5309968147
  0
LINE
  5
2E9
100
AcDbEntity
  8
0
100
AcDbLine
 62
7
  6
CONTINUOUS
 10
11.6727803516
 20
72.6299968265
 11
25.298835003
 21
72.6299968265
  0
LINE
  5
2EA
100
AcDbEntity
  8
0
100
AcDbLine
 62
7
  6
CONTINUOUS
 10
56.6127590501
 20
72.8709968147
 11
58.2327597102
 21
72.8709968147
  0
LINE
  5
2EB
100
AcDbEntity
  8
0
100
AcDbLine
 62
7
  6
CONTINUOUS
 10
59.0327592826
 20
72.8709968147
 11
59.1327592826
 21
72.8709968147
  0
LINE
  5
2EC
100
AcDbEntity
  8
0
100
AcDbLine
 62
7
  6
CONTINUOUS
 10
58.2327597102
 20
72.9151161251
 11
56.6958161101
 21
72.9151161251
  0
LINE
  5
2ED
100
AcDbEntity
  8
0
100
AcDbLine
 62
7
  6
CONTINUOUS
 10
79.3327592826
 20
73.0709968147
 11
79.8527592826
 21
73.0709968147
  0
LINE
  5
2EE
100
AcDbEntity
  8
0
100
AcDbLine
 62
7
  6
CONTINUOUS
 10
26.0288350029
 20
73.1767039215
 11
25.298835005
 21
73.1767039215
  0
LINE
  5
2EF
100
AcDbEntity
  8
0
100
AcDbLine
 62
7
  6
CONTINUOUS
 10
56.352759059
 20
73.200997001
 11
55.8797143787
 21
73.200997001
  0
LINE
  5
2F0
100
AcDbEntity
  8
0
100
AcDbLine
 62
7
  6
CONTINUOUS
 10
43.8327592826
 20
73.3509967462
 11
43.2677592826
 21
73.3509967462
  0
LINE
  5
2F1
100
AcDbEntity
  8
0
100
AcDbLine
 62
7
  6
CONTINUOUS
 10
56.7053793546
 20
73.3709969146
 11
57.9327592885
 21
73.3709969146
  0
LINE
  5
2F2
100
AcDbEntity
  8
0
100
AcDbLine
 62
7
  6
CONTINUOUS
 10
57.9327592885
 20
73.470997676
 11
58.2327597102
 21
73.470997676
  0
LINE
  5
2F3
100
AcDbEntity
  8
0
100
AcDbLine
 62
7
  6
CONTINUOUS
 10
56.1553790004
 20
73.7709971664
 11
56.3053788026
 21
73.7709972379
  0
LINE
  5
2F4
100
AcDbEntity
  8
0
100
AcDbLine
 62
7
  6
CONTINUOUS
 10
46.6983741607
 20
73.8632070765
 11
49.8227592826
 21
73.8632070765
  0
LINE
  5
2F5
100
AcDbEntity
  8
0
100
AcDbLine
 62
7
  6
CONTINUOUS
 10
26.0327593451
 20
72.4648912013
 11
25.2988349984
 21
72.4657421192
  0
LINE
  5
2F6
100
AcDbEntity
  8
0
100
AcDbLine
 62
7
  6
CONTINUOUS
 10
48.2327591921
 20
74.5009966553
 11
48.5327596138
 21
74.2009971649
  0
LINE
  5
2F7
100
AcDbEntity
  8
0
100
AcDbLine
 62
7
  6
CONTINUOUS
 10
60.1569622754
 20
53.6922590138
 11
60.1527592826
 21
53.7009968147
  0
LINE
  5
2F8
100
AcDbEntity
  8
0
100
AcDbLine
 62
7
  6
CONTINUOUS
 10
56.6127590501
 20
72.8709968147
 11
56.6127590501
 21
64.4151165945
  0
LINE
  5
2F9
100
AcDbEntity
  8
0
100
AcDbLine
 62
7
  6
CONTINUOUS
 10
56.7127590501
 20
56.8151164663
 11
56.7127590501
 21
56.3709968147
  0
LINE
  5
2FA
100
AcDbEntity
  8
0
100
AcDbLine
 62
7
  6
CONTINUOUS
 10
56.8327594842
 20
55.8009967566
 11
56.8327594842
 21
56.2929264819
  0
LINE
  5
2FB
100
AcDbEntity
  8
0
100
AcDbLine
 62
7
  6
CONTINUOUS
 10
56.8327594842
 20
56.8151164663
 11
56.8327594842
 21
64.4151165945
  0
LINE
  5
2FC
100
AcDbEntity
  8
0
100
AcDbLine
 62
7
  6
CONTINUOUS
 10
56.8327594842
 20
72.9151161251
 11
56.8327594842
 21
73.3709969146
  0
LINE
  5
2FD
100
AcDbEntity
  8
0
100
AcDbLine
 62
7
  6
CONTINUOUS
 10
56.8327594842
 20
76.1709969692
 11
56.8327594842
 21
78.8909371626
  0
LINE
  5
2FE
100
AcDbEntity
  8
0
100
AcDbLine
 62
7
  6
CONTINUOUS
 10
57.1127591321
 20
64.4151165945
 11
57.1127591321
 21
56.8151164663
  0
LINE
  5
2FF
100
AcDbEntity
  8
0
100
AcDbLine
 62
7
  6
CONTINUOUS
 10
57.5327594592
 20
76.8009974048
 11
57.5327594592
 21
78.6009962097
  0
LINE
  5
300
100
AcDbEntity
  8
0
100
AcDbLine
 62
7
  6
CONTINUOUS
 10
57.9327592885
 20
73.3709969146
 11
57.9327592885
 21
73.470997676
  0
LINE
  5
301
100
AcDbEntity
  8
0
100
AcDbLine
 62
7
  6
CONTINUOUS
 10
57.9327592885
 20
76.0209970695
 11
57.9327592885
 21
76.1709968147
  0
LINE
  5
302
100
AcDbEntity
  8
0
100
AcDbLine
 62
7
  6
CONTINUOUS
 10
58.2327597102
 20
76.1709968147
 11
58.2327597102
 21
76.0209970695
  0
LINE
  5
303
100
AcDbEntity
  8
0
100
AcDbLine
 62
7
  6
CONTINUOUS
 10
58.2327597102
 20
73.470997676
 11
58.2327597102
 21
72.8709968147
  0
LINE
  5
304
100
AcDbEntity
  8
0
100
AcDbLine
 62
7
  6
CONTINUOUS
 10
59.0327592826
 20
72.8709968147
 11
59.0327592826
 21
76.1709968147
  0
LINE
  5
305
100
AcDbEntity
  8
0
100
AcDbLine
 62
7
  6
CONTINUOUS
 10
12.4427592826
 20
74.5486723241
 11
12.3762939672
 21
74.546925352
  0
LINE
  5
306
100
AcDbEntity
  8
0
100
AcDbLine
 62
7
  6
CONTINUOUS
 10
12.3763861299
 20
74.5987729281
 11
25.1427593093
 21
74.9330721749
  0
LINE
  5
307
100
AcDbEntity
  8
0
100
AcDbLine
 62
7
  6
CONTINUOUS
 10
25.1927592826
 20
74.9343814702
 11
25.271841092
 21
74.9364523003
  0
LINE
  5
308
100
AcDbEntity
  8
0
100
AcDbLine
 62
7
  6
CONTINUOUS
 10
48.5327596138
 20
74.2009971649
 11
50.2327595199
 21
74.2009971649
  0
LINE
  5
309
100
AcDbEntity
  8
0
100
AcDbLine
 62
7
  6
CONTINUOUS
 10
36.3327590777
 20
74.2759965718
 11
37.5827592826
 21
74.2759965718
  0
LINE
  5
30A
100
AcDbEntity
  8
0
100
AcDbLine
 62
7
  6
CONTINUOUS
 10
25.2671404585
 20
74.6690939554
 11
25.2988350038
 21
74.6690939554
  0
LINE
  5
30B
100
AcDbEntity
  8
0
100
AcDbLine
 62
7
  6
CONTINUOUS
 10
25.2988350038
 20
74.9364523179
 11
25.2718424334
 21
74.9364523179
  0
LINE
  5
30C
100
AcDbEntity
  8
0
100
AcDbLine
 62
7
  6
CONTINUOUS
 10
26.4466834594
 20
74.9509968185
 11
36.3327590777
 21
74.9509968185
  0
LINE
  5
30D
100
AcDbEntity
  8
0
100
AcDbLine
 62
7
  6
CONTINUOUS
 10
48.2327591921
 20
75.3589289929
 11
45.3327592956
 21
75.3589289929
  0
LINE
  5
30E
100
AcDbEntity
  8
0
100
AcDbLine
 62
7
  6
CONTINUOUS
 10
45.3327592956
 20
75.4009968147
 11
48.2327591921
 21
75.4009968147
  0
LINE
  5
30F
100
AcDbEntity
  8
0
100
AcDbLine
 62
7
  6
CONTINUOUS
 10
58.2327597102
 20
76.0209970695
 11
57.9327592885
 21
76.0209970695
  0
LINE
  5
310
100
AcDbEntity
  8
0
100
AcDbLine
 62
7
  6
CONTINUOUS
 10
59.0327592826
 20
76.1709968147
 11
58.2327597102
 21
76.1709968147
  0
LINE
  5
311
100
AcDbEntity
  8
0
100
AcDbLine
 62
7
  6
CONTINUOUS
 10
57.9327592885
 20
76.1709968147
 11
54.9184008314
 21
76.1709972379
  0
LINE
  5
312
100
AcDbEntity
  8
0
100
AcDbLine
 62
7
  6
CONTINUOUS
 10
76.0915429929
 20
76.6151172904
 11
59.5127587804
 21
76.6151172904
  0
LINE
  5
313
100
AcDbEntity
  8
0
100
AcDbLine
 62
7
  6
CONTINUOUS
 10
50.2527592826
 20
76.6346082953
 11
51.7527592826
 21
76.6346082953
  0
LINE
  5
314
100
AcDbEntity
  8
0
100
AcDbLine
 62
7
  6
CONTINUOUS
 10
45.3327592956
 20
75.4089290634
 11
43.8327592826
 21
75.4509969041
  0
LINE
  5
315
100
AcDbEntity
  8
0
100
AcDbLine
 62
7
  6
CONTINUOUS
 10
53.1880880034
 20
73.8130333421
 11
55.1927548056
 21
71.7129022417
  0
LINE
  5
316
100
AcDbEntity
  8
0
100
AcDbLine
 62
7
  6
CONTINUOUS
 10
60.0327594033
 20
43.3471231148
 11
60.0327594033
 21
53.3455503531
  0
LINE
  5
317
100
AcDbEntity
  8
0
100
AcDbLine
 62
7
  6
CONTINUOUS
 10
60.5327592826
 20
48.5313332762
 11
60.5327592826
 21
52.9109968147
  0
LINE
  5
318
100
AcDbEntity
  8
0
100
AcDbLine
 62
7
  6
CONTINUOUS
 10
70.3469544315
 20
76.8309983346
 11
76.2127592826
 21
76.8309983346
  0
LINE
  5
319
100
AcDbEntity
  8
0
100
AcDbLine
 62
7
  6
CONTINUOUS
 10
51.8527592826
 20
77.5509970621
 11
51.7527592826
 21
77.5509970352
  0
LINE
  5
31A
100
AcDbEntity
  8
0
100
AcDbLine
 62
7
  6
CONTINUOUS
 10
67.9503242065
 20
77.8309975747
 11
65.9123893493
 21
77.8309984986
  0
LINE
  5
31B
100
AcDbEntity
  8
0
100
AcDbLine
 62
7
  6
CONTINUOUS
 10
51.7527592826
 20
79.4009968147
 11
50.2527592826
 21
79.4009968147
  0
LINE
  5
31C
100
AcDbEntity
  8
0
100
AcDbLine
 62
7
  6
CONTINUOUS
 10
69.5011013965
 20
77.3233916922
 11
68.5419321848
 21
77.3309975747
  0
LINE
  5
31D
100
AcDbEntity
  8
0
100
AcDbLine
 62
7
  6
CONTINUOUS
 10
74.9827592826
 20
74.1609968147
 11
67.2188566665
 21
75.5399138817
  0
LINE
  5
31E
100
AcDbEntity
  8
0
100
AcDbLine
 62
7
  6
CONTINUOUS
 10
56.7487592826
 20
72.8709968147
 11
56.352759059
 21
73.200997001
  0
LINE
  5
31F
100
AcDbEntity
  8
0
100
AcDbLine
 62
7
  6
CONTINUOUS
 10
51.8527592826
 20
79.6236461387
 11
55.0637914931
 21
79.6236461387
  0
LINE
  5
320
100
AcDbEntity
  8
0
100
AcDbLine
 62
7
  6
CONTINUOUS
 10
51.7527592826
 20
80.1850490715
 11
50.2527592826
 21
80.1850490715
  0
LINE
  5
321
100
AcDbEntity
  8
0
100
AcDbLine
 62
7
  6
CONTINUOUS
 10
54.1527594915
 20
80.4896718249
 11
51.8527592826
 21
80.4896718249
  0
LINE
  5
322
100
AcDbEntity
  8
0
100
AcDbLine
 62
7
  6
CONTINUOUS
 10
51.8527592826
 20
81.8670215443
 11
54.1527595263
 21
81.8670215443
  0
LINE
  5
323
100
AcDbEntity
  8
0
100
AcDbLine
 62
7
  6
CONTINUOUS
 10
54.1527595297
 20
82.000996022
 11
51.8527592826
 21
82.000996022
  0
LINE
  5
324
100
AcDbEntity
  8
0
100
AcDbLine
 62
7
  6
CONTINUOUS
 10
50.0184123698
 20
82.000996022
 11
48.2327591921
 21
82.000996022
  0
LINE
  5
325
100
AcDbEntity
  8
0
100
AcDbLine
 62
7
  6
CONTINUOUS
 10
57.5327594592
 20
78.6009962097
 11
54.337957383
 21
79.9242876259
  0
LINE
  5
326
100
AcDbEntity
  8
0
100
AcDbLine
 62
7
  6
CONTINUOUS
 10
54.1527595327
 20
82.3742550477
 11
51.8527592826
 21
82.3742550477
  0
LINE
  5
327
100
AcDbEntity
  8
0
100
AcDbLine
 62
7
  6
CONTINUOUS
 10
54.1527595577
 20
83.4509972495
 11
51.8527592826
 21
83.4509972495
  0
LINE
  5
328
100
AcDbEntity
  8
0
100
AcDbLine
 62
7
  6
CONTINUOUS
 10
69.7339765393
 20
76.6151172904
 11
69.7339765393
 21
77.0309979949
  0
LINE
  5
329
100
AcDbEntity
  8
0
100
AcDbLine
 62
7
  6
CONTINUOUS
 10
80.2127590069
 20
75.1151161132
 11
76.0915429929
 21
76.6151172904
  0
LINE
  5
32A
100
AcDbEntity
  8
0
100
AcDbLine
 62
7
  6
CONTINUOUS
 10
80.3339771592
 20
75.3309971575
 11
76.2127592826
 21
76.8309983346
  0
LINE
  5
32B
100
AcDbEntity
  8
0
100
AcDbLine
 62
7
  6
CONTINUOUS
 10
70.3427592826
 20
76.5709968147
 11
70.3427592826
 21
76.6151172904
  0
LINE
  5
32C
100
AcDbEntity
  8
0
100
AcDbLine
 62
7
  6
CONTINUOUS
 10
80.2127590069
 20
46.2868781767
 11
80.3339771592
 21
46.3309979919
  0
LINE
  5
32D
100
AcDbEntity
  8
0
100
AcDbLine
 62
7
  6
CONTINUOUS
 10
75.3327592826
 20
44.6151157705
 11
75.3327592826
 21
46.6809968147
  0
LINE
  5
32E
100
AcDbEntity
  8
0
100
AcDbLine
 62
7
  6
CONTINUOUS
 10
75.3327592826
 20
74.4609968147
 11
75.3327592826
 21
76.8309983346
  0
LINE
  5
32F
100
AcDbEntity
  8
0
100
AcDbLine
 62
7
  6
CONTINUOUS
 10
76.0915429929
 20
44.6151157705
 11
80.2127590069
 21
46.1151169476
  0
LINE
  5
330
100
AcDbEntity
  8
0
100
AcDbLine
 62
7
  6
CONTINUOUS
 10
80.2127590069
 20
72.7709970445
 11
79.8527592826
 21
73.0709968147
  0
LINE
  5
331
100
AcDbEntity
  8
0
100
AcDbLine
 62
7
  6
CONTINUOUS
 10
76.3327592826
 20
76.5273216696
 11
76.3327592826
 21
71.5709968147
  0
LINE
  5
332
100
AcDbEntity
  8
0
100
AcDbLine
 62
7
  6
CONTINUOUS
 10
79.3327592826
 20
73.0709968147
 11
79.0427592826
 21
71.5709968147
  0
LINE
  5
333
100
AcDbEntity
  8
0
100
AcDbLine
 62
7
  6
CONTINUOUS
 10
80.2127590069
 20
46.1151169476
 11
80.2127590069
 21
75.1151161132
  0
LINE
  5
334
100
AcDbEntity
  8
0
100
AcDbLine
 62
7
  6
CONTINUOUS
 10
80.3339771592
 20
46.3309979919
 11
80.3339771592
 21
75.3309971575
  0
ARC
  5
335
100
AcDbEntity
  8
0
100
AcDbCircle
 62
7
  6
CONTINUOUS
 10
-439.1613421019
 20
-1171.5868410828
 40
1336.8640511361
100
AcDbArc
 50
68.5536927482
 51
68.6888579879
  0
ARC
  5
336
100
AcDbEntity
  8
0
100
AcDbCircle
 62
7
  6
CONTINUOUS
 10
-439.161342609
 20
1292.9888356982
 40
1336.8640522401
100
AcDbArc
 50
291.311142017
 51
291.4463072567
  0
ARC
  5
337
100
AcDbEntity
  8
0
100
AcDbCircle
 62
7
  6
CONTINUOUS
 10
-97.2137502223
 20
-79.7905441049
 40
200.2653594432
100
AcDbArc
 50
45.470444474
 51
45.6287524705
  0
ARC
  5
338
100
AcDbEntity
  8
0
100
AcDbCircle
 62
7
  6
CONTINUOUS
 10
-79.5563183414
 20
-62.1280430252
 40
175.0993261372
100
AcDbArc
 50
45.5002066831
 51
45.6556197478
  0
ARC
  5
339
100
AcDbEntity
  8
0
100
AcDbCircle
 62
7
  6
CONTINUOUS
 10
-47.2117925809
 20
-29.7361292197
 40
130.2903514366
100
AcDbArc
 50
46.0413918279
 51
46.2822119313
  0
ARC
  5
33A
100
AcDbEntity
  8
0
100
AcDbCircle
 62
7
  6
CONTINUOUS
 10
-35.6290631279
 20
-18.1423994613
 40
113.6158991122
100
AcDbArc
 50
46.1366220627
 51
46.3232958448
  0
ARC
  5
33B
100
AcDbEntity
  8
0
100
AcDbCircle
 62
7
  6
CONTINUOUS
 10
-21.4529317728
 20
-3.887340079
 40
94.5685424171
100
AcDbArc
 50
46.8464680166
 51
47.1736392483
  0
ARC
  5
33C
100
AcDbEntity
  8
0
100
AcDbCircle
 62
7
  6
CONTINUOUS
 10
-12.9781510901
 20
4.6071700917
 40
82.1884656749
100
AcDbArc
 50
47.0463577948
 51
47.2297579498
  0
ARC
  5
33D
100
AcDbEntity
  8
0
100
AcDbCircle
 62
7
  6
CONTINUOUS
 10
-5.474368085
 20
12.2244240174
 40
72.6400584889
100
AcDbArc
 50
47.8975564583
 51
48.3161025686
  0
ARC
  5
33E
100
AcDbEntity
  8
0
100
AcDbCircle
 62
7
  6
CONTINUOUS
 10
1.0549936407
 20
18.7822912383
 40
62.9107615902
100
AcDbArc
 50
48.249899934
 51
48.3882315744
  0
ARC
  5
33F
100
AcDbEntity
  8
0
100
AcDbCircle
 62
7
  6
CONTINUOUS
 10
5.5331033305
 20
23.4104233023
 40
57.6995895783
100
AcDbArc
 50
49.2097650237
 51
49.7258384787
  0
ARC
  5
340
100
AcDbEntity
  8
0
100
AcDbCircle
 62
7
  6
CONTINUOUS
 10
13.6241906781
 20
31.7230266182
 40
46.8401096587
100
AcDbArc
 50
50.8011889505
 51
51.4219407356
  0
ARC
  5
341
100
AcDbEntity
  8
0
100
AcDbCircle
 62
7
  6
CONTINUOUS
 10
-28.2001367334
 20
38.428214694
 40
41.193095452
100
AcDbArc
 50
13.4573163483
 51
14.5428954718
  0
ARC
  5
342
100
AcDbEntity
  8
0
100
AcDbCircle
 62
7
  6
CONTINUOUS
 10
19.8243023759
 20
38.1803859324
 40
38.6135968315
100
AcDbArc
 50
52.6924167834
 51
53.4257422703
  0
ARC
  5
343
100
AcDbEntity
  8
0
100
AcDbCircle
 62
7
  6
CONTINUOUS
 10
24.7048406245
 20
43.3413396192
 40
32.2179774943
100
AcDbArc
 50
54.9056243929
 51
55.7597194063
  0
ARC
  5
344
100
AcDbEntity
  8
0
100
AcDbCircle
 62
7
  6
CONTINUOUS
 10
28.613428694
 20
47.5353909728
 40
27.1720982713
100
AcDbArc
 50
57.4630577636
 51
58.445705032
  0
ARC
  5
345
100
AcDbEntity
  8
0
100
AcDbCircle
 62
7
  6
CONTINUOUS
 10
31.7785522116
 20
50.9672412388
 40
23.168356323
100
AcDbArc
 50
60.384680243
 51
61.5021869211
  0
ARC
  5
346
100
AcDbEntity
  8
0
100
AcDbCircle
 62
7
  6
CONTINUOUS
 10
34.3617772529
 20
53.7690280306
 40
19.9995481657
100
AcDbArc
 50
63.6847928128
 51
64.9405340003
  0
ARC
  5
347
100
AcDbEntity
  8
0
100
AcDbCircle
 62
7
  6
CONTINUOUS
 10
36.4856982267
 20
56.0284001776
 40
17.5201503118
100
AcDbArc
 50
67.3675869182
 51
68.7602030453
  0
ARC
  5
348
100
AcDbEntity
  8
0
100
AcDbCircle
 62
7
  6
CONTINUOUS
 10
38.2497096076
 20
57.8045122406
 40
15.624929035
100
AcDbArc
 50
71.4219239995
 51
72.9433845539
  0
ARC
  5
349
100
AcDbEntity
  8
0
100
AcDbCircle
 62
7
  6
CONTINUOUS
 10
39.7392298271
 20
59.137502817
 40
14.2369361253
100
AcDbArc
 50
75.8161733697
 51
77.4501482047
  0
ARC
  5
34A
100
AcDbEntity
  8
0
100
AcDbCircle
 62
7
  6
CONTINUOUS
 10
41.0312518679
 20
60.0543079495
 40
13.3007704231
100
AcDbArc
 50
80.4945531184
 51
82.2157144544
  0
ARC
  5
34B
100
AcDbEntity
  8
0
100
AcDbCircle
 62
7
  6
CONTINUOUS
 10
42.197737956
 20
60.5722302045
 40
12.7789290286
100
AcDbArc
 50
85.3767670811
 51
87.1516366648
  0
ARC
  5
34C
100
AcDbEntity
  8
0
100
AcDbCircle
 62
7
  6
CONTINUOUS
 10
43.3077695746
 20
60.7005278158
 40
12.6504689861
100
AcDbArc
 50
90.3623804478
 51
92.151895273
  0
ARC
  5
34D
100
AcDbEntity
  8
0
100
AcDbCircle
 62
7
  6
CONTINUOUS
 10
12.3964933193
 20
47.3044286139
 40
0.5001980013
100
AcDbArc
 50
213.6506057876
 51
267.6961771444
  0
ARC
  5
34E
100
AcDbEntity
  8
0
100
AcDbCircle
 62
7
  6
CONTINUOUS
 10
40.2827592826
 20
50.0759968147
 40
0.25
100
AcDbArc
 50
270.0
 51
360.0
  0
ARC
  5
34F
100
AcDbEntity
  8
0
100
AcDbCircle
 62
7
  6
CONTINUOUS
 10
43.167853884
 20
59.7340449552
 40
0.1000612454
100
AcDbArc
 50
306.7759413769
 51
316.744382649
  0
ARC
  5
350
100
AcDbEntity
  8
0
100
AcDbCircle
 62
7
  6
CONTINUOUS
 10
43.1683375288
 20
59.5985135031
 40
0.0994217606
100
AcDbArc
 50
306.7034569736
 51
53.2635339622
  0
ARC
  5
351
100
AcDbEntity
  8
0
100
AcDbCircle
 62
7
  6
CONTINUOUS
 10
185.3971188843
 20
-81.3823094257
 40
202.4996095668
100
AcDbArc
 50
134.5934994827
 51
134.7506584786
  0
ARC
  5
352
100
AcDbEntity
  8
0
100
AcDbCircle
 62
7
  6
CONTINUOUS
 10
135.3513820832
 20
-31.3133142011
 40
132.4835935682
100
AcDbArc
 50
134.0558099077
 51
134.2939914111
  0
ARC
  5
353
100
AcDbEntity
  8
0
100
AcDbCircle
 62
7
  6
CONTINUOUS
 10
69.513586907
 20
-10.8155476945
 40
62.6550408624
100
AcDbArc
 50
111.3523460044
 51
112.7018524176
  0
ARC
  5
354
100
AcDbEntity
  8
0
100
AcDbCircle
 62
7
  6
CONTINUOUS
 10
109.5186278875
 20
-5.4295645356
 40
96.6854935474
100
AcDbArc
 50
133.2854937091
 51
133.607907603
  0
ARC
  5
355
100
AcDbEntity
  8
0
100
AcDbCircle
 62
7
  6
CONTINUOUS
 10
93.4434350949
 20
10.7323359337
 40
74.6546145944
100
AcDbArc
 50
132.2711454171
 51
132.6821730939
  0
ARC
  5
356
100
AcDbEntity
  8
0
100
AcDbCircle
 62
7
  6
CONTINUOUS
 10
82.3213139633
 20
21.9816081771
 40
59.5907278983
100
AcDbArc
 50
130.9981140193
 51
131.5032655965
  0
ARC
  5
357
100
AcDbEntity
  8
0
100
AcDbCircle
 62
7
  6
CONTINUOUS
 10
60.2329147053
 20
60.6759756552
 40
50.1700167102
100
AcDbArc
 50
164.6102648505
 51
166.8856143585
  0
ARC
  5
358
100
AcDbEntity
  8
0
100
AcDbCircle
 62
7
  6
CONTINUOUS
 10
60.2023390405
 20
60.6808446792
 40
50.1535083753
100
AcDbArc
 50
164.5468705919
 51
175.2811684608
  0
ARC
  5
359
100
AcDbEntity
  8
0
100
AcDbCircle
 62
7
  6
CONTINUOUS
 10
60.2023390405
 20
60.6808446792
 40
50.1535083753
100
AcDbArc
 50
179.5315250834
 51
179.9761702298
  0
ARC
  5
35A
100
AcDbEntity
  8
0
100
AcDbCircle
 62
7
  6
CONTINUOUS
 10
60.2126969014
 20
60.6790124569
 40
50.1496529729
100
AcDbArc
 50
167.8826727424
 51
169.2403080608
  0
ARC
  5
35B
100
AcDbEntity
  8
0
100
AcDbCircle
 62
7
  6
CONTINUOUS
 10
60.2019392837
 20
60.6811379455
 40
50.1386885233
100
AcDbArc
 50
169.9805924813
 51
171.1920112185
  0
ARC
  5
35C
100
AcDbEntity
  8
0
100
AcDbCircle
 62
7
  6
CONTINUOUS
 10
60.1985902257
 20
60.6816741426
 40
50.1352968562
100
AcDbArc
 50
171.192030708
 51
172.8325615423
  0
ARC
  5
35D
100
AcDbEntity
  8
0
100
AcDbCircle
 62
7
  6
CONTINUOUS
 10
60.1951579253
 20
60.6821223506
 40
50.1318353604
100
AcDbArc
 50
172.8325794407
 51
174.2290846045
  0
ARC
  5
35E
100
AcDbEntity
  8
0
100
AcDbCircle
 62
7
  6
CONTINUOUS
 10
60.1943605858
 20
60.6824610163
 40
50.1309952189
100
AcDbArc
 50
169.2402677374
 51
169.9805745802
  0
ARC
  5
35F
100
AcDbEntity
  8
0
100
AcDbCircle
 62
7
  6
CONTINUOUS
 10
60.1334772584
 20
60.695818628
 40
50.0686705051
100
AcDbArc
 50
166.8819106956
 51
167.8824466133
  0
ARC
  5
360
100
AcDbEntity
  8
0
100
AcDbCircle
 62
7
  6
CONTINUOUS
 10
74.1018441397
 20
30.3694197585
 40
48.5909735438
100
AcDbArc
 50
129.4487116942
 51
130.0545257939
  0
ARC
  5
361
100
AcDbEntity
  8
0
100
AcDbCircle
 62
7
  6
CONTINUOUS
 10
57.535383538
 20
60.6578482825
 40
47.3774197029
100
AcDbArc
 50
183.971203133
 51
194.5293478191
  0
ARC
  5
362
100
AcDbEntity
  8
0
100
AcDbCircle
 62
7
  6
CONTINUOUS
 10
67.7639441786
 20
36.9129881871
 40
40.2112599496
100
AcDbArc
 50
127.6026600958
 51
128.3165044949
  0
ARC
  5
363
100
AcDbEntity
  8
0
100
AcDbCircle
 62
7
  6
CONTINUOUS
 10
62.7406544403
 20
42.1702909109
 40
33.6533344317
100
AcDbArc
 50
125.4379226538
 51
126.2676381705
  0
ARC
  5
364
100
AcDbEntity
  8
0
100
AcDbCircle
 62
7
  6
CONTINUOUS
 10
58.6888568463
 20
46.4699726777
 40
28.4396942264
100
AcDbArc
 50
122.9321162179
 51
123.8854310122
  0
ARC
  5
365
100
AcDbEntity
  8
0
100
AcDbCircle
 62
7
  6
CONTINUOUS
 10
55.384533656
 20
50.0158514516
 40
24.2660839228
100
AcDbArc
 50
120.0647255767
 51
121.1483601603
  0
ARC
  5
366
100
AcDbEntity
  8
0
100
AcDbCircle
 62
7
  6
CONTINUOUS
 10
52.6704341378
 20
52.939145147
 40
20.9281862488
100
AcDbArc
 50
116.8203241453
 51
118.0387236847
  0
ARC
  5
367
100
AcDbEntity
  8
0
100
AcDbCircle
 62
7
  6
CONTINUOUS
 10
50.4280091086
 20
55.326539485
 40
18.2827445832
100
AcDbArc
 50
113.1928758999
 51
114.5465682865
  0
ARC
  5
368
100
AcDbEntity
  8
0
100
AcDbCircle
 62
7
  6
CONTINUOUS
 10
48.561519103
 20
57.2361905434
 40
16.2260202284
100
AcDbArc
 50
109.1908879418
 51
110.6745972425
  0
ARC
  5
369
100
AcDbEntity
  8
0
100
AcDbCircle
 62
7
  6
CONTINUOUS
 10
46.9887068336
 20
58.7072011999
 40
14.6816934718
100
AcDbArc
 50
104.8426744376
 51
106.4435201362
  0
ARC
  5
36A
100
AcDbEntity
  8
0
100
AcDbCircle
 62
7
  6
CONTINUOUS
 10
45.6351508238
 20
59.7654455689
 40
13.5940900133
100
AcDbArc
 50
100.2003667539
 51
101.8966976263
  0
ARC
  5
36B
100
AcDbEntity
  8
0
100
AcDbCircle
 62
7
  6
CONTINUOUS
 10
44.4307960245
 20
60.4271415352
 40
12.9246054854
100
AcDbArc
 50
95.3408866163
 51
97.102396363
  0
ARC
  5
36C
100
AcDbEntity
  8
0
100
AcDbCircle
 62
7
  6
CONTINUOUS
 10
59.5327592826
 20
52.9109968147
 40
1.0
100
AcDbArc
 50
0.0
 51
51.3762868713
  0
ARC
  5
36D
100
AcDbEntity
  8
0
100
AcDbCircle
 62
7
  6
CONTINUOUS
 10
49.7327590263
 20
48.2009970044
 40
0.5000004579
100
AcDbArc
 50
270.000047176
 51
359.9999782665
  0
ARC
  5
36E
100
AcDbEntity
  8
0
100
AcDbCircle
 62
7
  6
CONTINUOUS
 10
58.2307592826
 20
54.5589968147
 40
0.5
100
AcDbArc
 50
52.5628220426
 51
121.5181337207
  0
ARC
  5
36F
100
AcDbEntity
  8
0
100
AcDbCircle
 62
7
  6
CONTINUOUS
 10
60.0307592826
 20
50.3489968147
 40
0.5
100
AcDbArc
 50
270.0
 51
360.0
  0
ARC
  5
370
100
AcDbEntity
  8
0
100
AcDbCircle
 62
7
  6
CONTINUOUS
 10
75.0327592826
 20
46.6809968147
 40
0.3
100
AcDbArc
 50
0.0
 51
98.79741071
  0
ARC
  5
371
100
AcDbEntity
  8
0
100
AcDbCircle
 62
7
  6
CONTINUOUS
 10
-21.2596509834
 20
125.0819925001
 40
94.2850866298
100
AcDbArc
 50
312.8258689352
 51
313.1540237867
  0
ARC
  5
372
100
AcDbEntity
  8
0
100
AcDbCircle
 62
7
  6
CONTINUOUS
 10
-13.0777613474
 20
116.9021597945
 40
82.3349007136
100
AcDbArc
 50
312.7704051358
 51
312.9534791306
  0
ARC
  5
373
100
AcDbEntity
  8
0
100
AcDbCircle
 62
7
  6
CONTINUOUS
 10
-5.299158652
 20
108.9822486674
 40
72.3776700458
100
AcDbArc
 50
311.6831387361
 51
312.1032022201
  0
ARC
  5
374
100
AcDbEntity
  8
0
100
AcDbCircle
 62
7
  6
CONTINUOUS
 10
1.0549915194
 20
102.6197047231
 40
62.9107647425
100
AcDbArc
 50
311.6117684307
 51
311.7501000931
  0
ARC
  5
375
100
AcDbEntity
  8
0
100
AcDbCircle
 62
7
  6
CONTINUOUS
 10
5.6900865277
 20
97.8079756311
 40
57.458033067
100
AcDbArc
 50
310.2730766884
 51
310.7913197884
  0
ARC
  5
376
100
AcDbEntity
  8
0
100
AcDbCircle
 62
7
  6
CONTINUOUS
 10
13.7625446117
 20
89.5074322747
 40
46.6197360102
100
AcDbArc
 50
308.5765921199
 51
309.200278219
  0
ARC
  5
377
100
AcDbEntity
  8
0
100
AcDbCircle
 62
7
  6
CONTINUOUS
 10
-27.549885142
 20
82.8103240278
 40
40.522296953
100
AcDbArc
 50
345.4498215019
 51
346.5556258586
  0
ARC
  5
378
100
AcDbEntity
  8
0
100
AcDbCircle
 62
7
  6
CONTINUOUS
 10
19.9437608955
 20
83.0627403384
 40
38.4148317711
100
AcDbArc
 50
306.5723606001
 51
307.3094804052
  0
ARC
  5
379
100
AcDbEntity
  8
0
100
AcDbCircle
 62
7
  6
CONTINUOUS
 10
24.8054524006
 20
77.9151749675
 40
32.0411014537
100
AcDbArc
 50
304.2379230824
 51
305.096733084
  0
ARC
  5
37A
100
AcDbEntity
  8
0
100
AcDbCircle
 62
7
  6
CONTINUOUS
 10
28.695655015
 20
73.7352458673
 40
27.017133766
100
AcDbArc
 50
301.5514767216
 51
302.5397604432
  0
ARC
  5
37B
100
AcDbEntity
  8
0
100
AcDbCircle
 62
7
  6
CONTINUOUS
 10
31.8432940267
 20
70.3182265337
 40
23.0350593677
100
AcDbArc
 50
298.4945796943
 51
299.6185531866
  0
ARC
  5
37C
100
AcDbEntity
  8
0
100
AcDbCircle
 62
7
  6
CONTINUOUS
 10
34.4103783934
 20
67.5319227331
 40
19.8874312025
100
AcDbArc
 50
295.0559261237
 51
296.3187470127
  0
ARC
  5
37D
100
AcDbEntity
  8
0
100
AcDbCircle
 62
7
  6
CONTINUOUS
 10
36.519927821
 20
65.2885994863
 40
17.4285293923
100
AcDbArc
 50
291.2361364558
 51
292.6360736927
  0
ARC
  5
37E
100
AcDbEntity
  8
0
100
AcDbCircle
 62
7
  6
CONTINUOUS
 10
38.2717157428
 20
63.5290115269
 40
15.5530160598
100
AcDbArc
 50
287.0530978252
 51
288.5815936215
  0
ARC
  5
37F
100
AcDbEntity
  8
0
100
AcDbCircle
 62
7
  6
CONTINUOUS
 10
39.7514867783
 20
62.2129091275
 40
14.1839235847
100
AcDbArc
 50
282.5467981714
 51
284.1868803198
  0
ARC
  5
380
100
AcDbEntity
  8
0
100
AcDbCircle
 62
7
  6
CONTINUOUS
 10
41.0364888105
 20
61.3132404877
 40
13.2659333411
100
AcDbArc
 50
277.7820255284
 51
279.5077069679
  0
ARC
  5
381
100
AcDbEntity
  8
0
100
AcDbCircle
 62
7
  6
CONTINUOUS
 10
42.1988598855
 20
60.8125808292
 40
12.7617119121
100
AcDbArc
 50
272.8471659807
 51
274.6244302734
  0
ARC
  5
382
100
AcDbEntity
  8
0
100
AcDbCircle
 62
7
  6
CONTINUOUS
 10
43.3077695746
 20
60.7014658136
 40
12.6504689861
100
AcDbArc
 50
267.848104727
 51
269.6376195522
  0
ARC
  5
383
100
AcDbEntity
  8
0
100
AcDbCircle
 62
7
  6
CONTINUOUS
 10
13.8194919765
 20
73.4787244209
 40
2.0222188417
100
AcDbArc
 50
155.4325229251
 51
165.4821329578
  0
ARC
  5
384
100
AcDbEntity
  8
0
100
AcDbCircle
 62
7
  6
CONTINUOUS
 10
13.8159904581
 20
73.4842291307
 40
2.0186015961
100
AcDbArc
 50
155.4299439973
 51
165.481875789
  0
ARC
  5
385
100
AcDbEntity
  8
0
100
AcDbCircle
 62
7
  6
CONTINUOUS
 10
13.7992484097
 20
73.5414908928
 40
2.0014783624
100
AcDbArc
 50
155.3532509409
 51
165.451929324
  0
ARC
  5
386
100
AcDbEntity
  8
0
100
AcDbCircle
 62
7
  6
CONTINUOUS
 10
12.3964933193
 20
74.0989792292
 40
0.5001980013
100
AcDbArc
 50
92.3038228556
 51
146.3493942124
  0
ARC
  5
387
100
AcDbEntity
  8
0
100
AcDbCircle
 62
7
  6
CONTINUOUS
 10
12.3970326235
 20
74.0427767239
 40
0.500173204
100
AcDbArc
 50
92.3551162306
 51
146.4128948625
  0
ARC
  5
388
100
AcDbEntity
  8
0
100
AcDbCircle
 62
7
  6
CONTINUOUS
 10
12.3969169464
 20
74.0473933806
 40
0.4999574959
100
AcDbArc
 50
92.3640909973
 51
146.467496758
  0
ARC
  5
389
100
AcDbEntity
  8
0
100
AcDbCircle
 62
7
  6
CONTINUOUS
 10
43.1924594052
 20
72.8908402746
 40
0.2838210735
100
AcDbArc
 50
81.8065172126
 51
82.8554107379
  0
ARC
  5
38A
100
AcDbEntity
  8
0
100
AcDbCircle
 62
7
  6
CONTINUOUS
 10
40.2827592826
 20
71.3259968147
 40
0.25
100
AcDbArc
 50
0.0
 51
90.0
  0
ARC
  5
38B
100
AcDbEntity
  8
0
100
AcDbCircle
 62
7
  6
CONTINUOUS
 10
43.1678655712
 20
61.6679622072
 40
0.1000434088
100
AcDbArc
 50
43.4219733331
 51
53.2247797886
  0
ARC
  5
38C
100
AcDbEntity
  8
0
100
AcDbCircle
 62
7
  6
CONTINUOUS
 10
43.1677592826
 20
60.7009968147
 40
0.1
100
AcDbArc
 50
306.8698976458
 51
53.1301023542
  0
ARC
  5
38D
100
AcDbEntity
  8
0
100
AcDbCircle
 62
7
  6
CONTINUOUS
 10
43.168337529
 20
61.8034801264
 40
0.0994217604
100
AcDbArc
 50
306.7364661018
 51
53.2965430913
  0
ARC
  5
38E
100
AcDbEntity
  8
0
100
AcDbCircle
 62
7
  6
CONTINUOUS
 10
-96.9765519854
 20
200.9507447195
 40
199.9266462219
100
AcDbArc
 50
314.3711134197
 51
314.5296896294
  0
ARC
  5
38F
100
AcDbEntity
  8
0
100
AcDbCircle
 62
7
  6
CONTINUOUS
 10
-79.7723998698
 20
183.7505217383
 40
175.4080407692
100
AcDbArc
 50
314.3445170075
 51
314.499656559
  0
ARC
  5
390
100
AcDbEntity
  8
0
100
AcDbCircle
 62
7
  6
CONTINUOUS
 10
-46.999353025
 20
150.9168883788
 40
129.9836352171
100
AcDbArc
 50
313.7175039665
 51
313.9588922935
  0
ARC
  5
391
100
AcDbEntity
  8
0
100
AcDbCircle
 62
7
  6
CONTINUOUS
 10
-35.781548462
 20
139.7035698626
 40
113.8363279968
100
AcDbArc
 50
313.6768849188
 51
313.8631971986
  0
ARC
  5
392
100
AcDbEntity
  8
0
100
AcDbCircle
 62
7
  6
CONTINUOUS
 10
109.3637761521
 20
126.6680741894
 40
96.4603143567
100
AcDbArc
 50
226.3917160383
 51
226.7148826237
  0
ARC
  5
393
100
AcDbEntity
  8
0
100
AcDbCircle
 62
7
  6
CONTINUOUS
 10
93.2948074466
 20
110.5073263813
 40
74.4345214133
100
AcDbArc
 50
227.3172191845
 51
227.7294622715
  0
ARC
  5
394
100
AcDbEntity
  8
0
100
AcDbCircle
 62
7
  6
CONTINUOUS
 10
68.6596470168
 20
130.1068406972
 40
60.378305395
100
AcDbArc
 50
247.2727028543
 51
248.6730987265
  0
ARC
  5
395
100
AcDbEntity
  8
0
100
AcDbCircle
 62
7
  6
CONTINUOUS
 10
82.1826061888
 20
99.2622234063
 40
59.3803610368
100
AcDbArc
 50
228.4958395464
 51
229.0027807973
  0
ARC
  5
396
100
AcDbEntity
  8
0
100
AcDbCircle
 62
7
  6
CONTINUOUS
 10
60.2023390405
 20
60.7225631638
 40
50.1535083753
100
AcDbArc
 50
180.0238297702
 51
181.0756565389
  0
ARC
  5
397
100
AcDbEntity
  8
0
100
AcDbCircle
 62
7
  6
CONTINUOUS
 10
60.2023390405
 20
60.7225631638
 40
50.1535083753
100
AcDbArc
 50
181.5384714109
 51
195.4531294081
  0
ARC
  5
398
100
AcDbEntity
  8
0
100
AcDbCircle
 62
7
  6
CONTINUOUS
 10
73.9756447202
 20
90.8808442897
 40
48.3936234327
100
AcDbArc
 50
229.9442389033
 51
230.5525235842
  0
ARC
  5
399
100
AcDbEntity
  8
0
100
AcDbCircle
 62
7
  6
CONTINUOUS
 10
71.7548713499
 20
60.7017039215
 40
47.5
100
AcDbArc
 50
195.7081179438
 51
197.4401065767
  0
ARC
  5
39A
100
AcDbEntity
  8
0
100
AcDbCircle
 62
7
  6
CONTINUOUS
 10
67.6520373081
 20
84.3455627158
 40
40.0293322903
100
AcDbArc
 50
231.681873359
 51
232.398962079
  0
ARC
  5
39B
100
AcDbEntity
  8
0
100
AcDbCircle
 62
7
  6
CONTINUOUS
 10
62.6441369383
 20
79.0981374279
 40
33.4885500745
100
AcDbArc
 50
233.7303203534
 51
234.5641187556
  0
ARC
  5
39C
100
AcDbEntity
  8
0
100
AcDbCircle
 62
7
  6
CONTINUOUS
 10
58.6081843373
 20
74.8097154438
 40
28.2931841667
100
AcDbArc
 50
236.1121005683
 51
237.070352125
  0
ARC
  5
39D
100
AcDbEntity
  8
0
100
AcDbCircle
 62
7
  6
CONTINUOUS
 10
55.3195656542
 20
71.276315921
 40
24.1384861791
100
AcDbArc
 50
238.8487756145
 51
239.938138605
  0
ARC
  5
39E
100
AcDbEntity
  8
0
100
AcDbCircle
 62
7
  6
CONTINUOUS
 10
52.6204688408
 20
68.366577122
 40
20.8197271836
100
AcDbArc
 50
241.9581024839
 51
243.1828495882
  0
ARC
  5
39F
100
AcDbEntity
  8
0
100
AcDbCircle
 62
7
  6
CONTINUOUS
 10
50.3918177643
 20
65.9936670658
 40
18.193314063
100
AcDbArc
 50
245.4501045405
 51
246.8104513274
  0
ARC
  5
3A0
100
AcDbEntity
  8
0
100
AcDbCircle
 62
7
  6
CONTINUOUS
 10
48.5374025314
 20
64.0993005588
 40
16.1552858477
100
AcDbArc
 50
249.3221544348
 51
250.8123603809
  0
ARC
  5
3A1
100
AcDbEntity
  8
0
100
AcDbCircle
 62
7
  6
CONTINUOUS
 10
46.974550111
 20
62.644235613
 40
14.6291971419
100
AcDbArc
 50
253.5536073078
 51
255.1601980541
  0
ARC
  5
3A2
100
AcDbEntity
  8
0
100
AcDbCircle
 62
7
  6
CONTINUOUS
 10
45.6284959684
 20
61.6024659746
 40
13.5593681071
100
AcDbArc
 50
258.1011302048
 51
259.8018053468
  0
ARC
  5
3A3
100
AcDbEntity
  8
0
100
AcDbCircle
 62
7
  6
CONTINUOUS
 10
44.428919633
 20
60.9576401695
 40
12.9072936318
100
AcDbArc
 50
262.896422235
 51
264.6602947857
  0
ARC
  5
3A4
100
AcDbEntity
  8
0
100
AcDbCircle
 62
7
  6
CONTINUOUS
 10
61.8339770341
 20
80.0621153528
 40
4.5
100
AcDbArc
 50
309.8195994394
 51
328.1756997682
  0
ARC
  5
3A5
100
AcDbEntity
  8
0
100
AcDbCircle
 62
7
  6
CONTINUOUS
 10
54.5855936936
 20
72.3788362191
 40
1.117700061
100
AcDbArc
 50
326.0129244912
 51
344.0128467536
  0
ARC
  5
3A6
100
AcDbEntity
  8
0
100
AcDbCircle
 62
7
  6
CONTINUOUS
 10
50.9327594842
 20
78.2509968147
 40
0.7
100
AcDbArc
 50
180.0
 51
186.4722862499
  0
ARC
  5
3A7
100
AcDbEntity
  8
0
100
AcDbCircle
 62
7
  6
CONTINUOUS
 10
69.4313020237
 20
77.0288675869
 40
0.3026820131
100
AcDbArc
 50
0.4032760075
 51
76.6674259829
  0
ARC
  5
3A8
100
AcDbEntity
  8
0
100
AcDbCircle
 62
7
  6
CONTINUOUS
 10
65.9123914429
 20
77.530994836
 40
0.3000036626
100
AcDbArc
 50
90.0003998346
 51
148.1755182963
  0
ARC
  5
3A9
100
AcDbEntity
  8
0
100
AcDbCircle
 62
7
  6
CONTINUOUS
 10
54.4527594842
 20
80.2014526986
 40
0.3
100
AcDbArc
 50
180.0
 51
247.5006053947
  0
ARC
  5
3AA
100
AcDbEntity
  8
0
100
AcDbCircle
 62
7
  6
CONTINUOUS
 10
68.5419321848
 20
77.6309975747
 40
0.3
100
AcDbArc
 50
189.5940682268
 51
270.0000000002
  0
ARC
  5
3AB
100
AcDbEntity
  8
0
100
AcDbCircle
 62
7
  6
CONTINUOUS
 10
67.9503242065
 20
77.5309975747
 40
0.3
100
AcDbArc
 50
9.5940682269
 51
90.0
  0
ARC
  5
3AC
100
AcDbEntity
  8
0
100
AcDbCircle
 62
7
  6
CONTINUOUS
 10
75.0327592826
 20
74.4609968147
 40
0.3
100
AcDbArc
 50
261.20258929
 51
360.0
  0
ARC
  5
3AD
100
AcDbEntity
  8
0
100
AcDbCircle
 62
7
  6
CONTINUOUS
 10
54.9184008314
 20
75.9709912861
 40
0.2000059518
100
AcDbArc
 50
90.0000000053
 51
119.9993451435
  0
ARC
  5
3AE
100
AcDbEntity
  8
0
100
AcDbCircle
 62
7
  6
CONTINUOUS
 10
53.3327616929
 20
73.9511291061
 40
0.2000022912
100
AcDbArc
 50
180.000000001
 51
223.6673970258
  0
ARC
  5
3AF
100
AcDbEntity
  8
0
100
AcDbCircle
 62
7
  6
CONTINUOUS
 10
56.1553790004
 20
73.5709963739
 40
0.2000007925
100
AcDbArc
 50
90.0000000004
 51
168.9996918799
  0
ARC
  5
3B0
100
AcDbEntity
  8
0
100
AcDbCircle
 62
7
  6
CONTINUOUS
 10
56.7053793546
 20
73.5709974666
 40
0.200000552
100
AcDbArc
 50
180.0000327513
 51
269.9999999978
  0
ARC
  5
3B1
100
AcDbEntity
  8
0
100
AcDbCircle
 62
7
  6
CONTINUOUS
 10
56.3053788026
 20
73.5709972379
 40
0.2
100
AcDbArc
 50
0.0000327514
 51
90.0
  0
ARC
  5
3B2
100
AcDbEntity
  8
0
100
AcDbCircle
 62
7
  6
CONTINUOUS
 10
55.3374260606
 20
71.8509972379
 40
0.2
100
AcDbArc
 50
223.6677195048
 51
331.0
  0
ARC
  5
3B3
100
AcDbEntity
  8
0
100
AcDbCircle
 62
7
  6
CONTINUOUS
 10
53.3327581857
 20
75.0555275099
 40
0.1999987839
100
AcDbArc
 50
119.9996598517
 51
179.9999999996
  0
ARC
  5
3B4
100
AcDbEntity
  8
0
100
AcDbCircle
 62
7
  6
CONTINUOUS
 10
185.2519628269
 20
202.6374758873
 40
202.2931430612
100
AcDbArc
 50
225.249261305
 51
225.4065807212
  0
ARC
  5
3B5
100
AcDbEntity
  8
0
100
AcDbCircle
 62
7
  6
CONTINUOUS
 10
135.1959611312
 20
152.5553448067
 40
132.2605607768
100
AcDbArc
 50
225.7058077762
 51
225.9443909145
  0
SPLINE
  5
3B6
100
AcDbEntity
  8
0
100
AcDbSpline
 62
7
  6
CONTINUOUS
 70
0
 71
3
 72
12
 73
8
 74
0
 42
0.0000001
 43
0.0000001
 44
0.0000000001
 40
0.0
 40
0.0
 40
0.0
 40
0.0
 40
0.4084046162
 40
0.7190401195
 40
0.9160468635
 40
0.9705081316
 40
1.0
 40
1.0
 40
1.0
 40
1.0
 10
43.2277592826
 20
73.2956352653
 30
0.0
 10
43.2333555434
 20
73.2960275149
 30
0.0
 10
43.2432196613
 20
73.296868013
 30
0.0
 10
43.255641675
 20
73.2984550061
 30
0.0
 10
43.2633226099
 20
73.3001114525
 30
0.0
 10
43.2668189027
 20
73.3014955211
 30
0.0
 10
43.2677592826
 20
73.3024545665
 30
0.0
 10
43.2677592826
 20
73.3028596773
 30
0.0
  0
SPLINE
  5
3B7
100
AcDbEntity
  8
0
100
AcDbSpline
 62
7
  6
CONTINUOUS
 70
0
 71
3
 72
12
 73
8
 74
0
 42
0.0000001
 43
0.0000001
 44
0.0000000001
 40
0.0
 40
0.0
 40
0.0
 40
0.0
 40
0.0294918816
 40
0.0839531859
 40
0.2809599999
 40
0.5915954448
 40
1.0
 40
1.0
 40
1.0
 40
1.0
 10
43.2677592826
 20
48.0991339521
 30
0.0
 10
43.2677592826
 20
48.0995390631
 30
0.0
 10
43.2668189012
 20
48.1004981085
 30
0.0
 10
43.2633226075
 20
48.1018821774
 30
0.0
 10
43.2556416715
 20
48.1035386241
 30
0.0
 10
43.2432196588
 20
48.105125617
 30
0.0
 10
43.2333555425
 20
48.1059661146
 30
0.0
 10
43.2277592826
 20
48.1063583642
 30
0.0
  0
SPLINE
  5
3B8
100
AcDbEntity
  8
0
100
AcDbSpline
 62
7
  6
CONTINUOUS
 70
0
 71
3
 72
12
 73
8
 74
0
 42
0.0000001
 43
0.0000001
 44
0.0000000001
 40
0.0
 40
0.0
 40
0.0
 40
0.0
 40
0.3887124635
 40
0.688994115
 40
0.8019919894
 40
0.8898153181
 40
1.0
 40
1.0
 40
1.0
 40
1.0
 10
43.2277592826
 20
73.1446738959
 30
0.0
 10
43.2333770893
 20
73.1454317757
 30
0.0
 10
43.2433073432
 20
73.1470705257
 30
0.0
 10
43.2546554951
 20
73.1498799887
 30
0.0
 10
43.261509012
 20
73.1526330624
 30
0.0
 10
43.2653753156
 20
73.1547332674
 30
0.0
 10
43.2677592826
 20
73.1572079702
 30
0.0
 10
43.2677592826
 20
73.1588148228
 30
0.0
  0
SPLINE
  5
3B9
100
AcDbEntity
  8
0
100
AcDbSpline
 62
7
  6
CONTINUOUS
 70
0
 71
3
 72
12
 73
8
 74
0
 42
0.0000001
 43
0.0000001
 44
0.0000000001
 40
0.0
 40
0.0
 40
0.0
 40
0.0
 40
0.1101847279
 40
0.1980080878
 40
0.3110060007
 40
0.6112875951
 40
1.0
 40
1.0
 40
1.0
 40
1.0
 10
43.2677592826
 20
48.2431788066
 30
0.0
 10
43.2677592826
 20
48.2447856599
 30
0.0
 10
43.2653753131
 20
48.2472603625
 30
0.0
 10
43.2615090087
 20
48.2493605689
 30
0.0
 10
43.2546554911
 20
48.2521136416
 30
0.0
 10
43.2433073408
 20
48.2549231049
 30
0.0
 10
43.2333770884
 20
48.2565618538
 30
0.0
 10
43.2277592826
 20
48.2573197335
 30
0.0
  0
SPLINE
  5
3BA
100
AcDbEntity
  8
0
100
AcDbSpline
 62
7
  6
CONTINUOUS
 70
0
 71
3
 72
12
 73
8
 74
0
 42
0.0000001
 43
0.0000001
 44
0.0000000001
 40
0.0
 40
0.0
 40
0.0
 40
0.0
 40
0.1383980255
 40
0.2315351742
 40
0.3448819322
 40
0.6340902445
 40
1.0
 40
1.0
 40
1.0
 40
1.0
 10
43.2677592826
 20
48.4820351784
 30
0.0
 10
43.2677592826
 20
48.4842144052
 30
0.0
 10
43.2657557689
 20
48.4877486573
 30
0.0
 10
43.2615955621
 20
48.4911787969
 30
0.0
 10
43.2548468398
 20
48.4951947427
 30
0.0
 10
43.2434496365
 20
48.4994293805
 30
0.0
 10
43.2334104542
 20
48.5018621379
 30
0.0
 10
43.2277592826
 20
48.5029849991
 30
0.0
  0
SPLINE
  5
3BB
100
AcDbEntity
  8
0
100
AcDbSpline
 62
7
  6
CONTINUOUS
 70
0
 71
3
 72
12
 73
8
 74
0
 42
0.0000001
 43
0.0000001
 44
0.0000000001
 40
0.0
 40
0.0
 40
0.0
 40
0.0
 40
0.3659098126
 40
0.6551181816
 40
0.7684649048
 40
0.8616020196
 40
1.0
 40
1.0
 40
1.0
 40
1.0
 10
43.2277592826
 20
72.8990086303
 30
0.0
 10
43.2334104551
 20
72.9001314918
 30
0.0
 10
43.2434496389
 20
72.9025642506
 30
0.0
 10
43.254846844
 20
72.9067988882
 30
0.0
 10
43.2615955653
 20
72.9108148351
 30
0.0
 10
43.2657557716
 20
72.914244973
 30
0.0
 10
43.2677592826
 20
72.9177792249
 30
0.0
 10
43.2677592826
 20
72.9199584511
 30
0.0
  0
SPLINE
  5
3BC
100
AcDbEntity
  8
0
100
AcDbSpline
 62
7
  6
CONTINUOUS
 70
0
 71
3
 72
11
 73
7
 74
0
 42
0.0000001
 43
0.0000001
 44
0.0000000001
 40
0.0
 40
0.0
 40
0.0
 40
0.0
 40
0.1624921221
 40
0.3749750024
 40
0.6551090983
 40
1.0
 40
1.0
 40
1.0
 40
1.0
 10
43.2677592826
 20
48.8138852262
 30
0.0
 10
43.2677592826
 20
48.81665764
 30
0.0
 10
43.2651938122
 20
48.8230146761
 30
0.0
 10
43.2564900227
 20
48.8303309122
 30
0.0
 10
43.2436585646
 20
48.8367687953
 30
0.0
 10
43.2334530569
 20
48.839998586
 30
0.0
 10
43.2277592826
 20
48.8414845
 30
0.0
  0
SPLINE
  5
3BD
100
AcDbEntity
  8
0
100
AcDbSpline
 62
7
  6
CONTINUOUS
 70
0
 71
3
 72
11
 73
7
 74
0
 42
0.0000001
 43
0.0000001
 44
0.0000000001
 40
0.0
 40
0.0
 40
0.0
 40
0.0
 40
0.3448909574
 40
0.6250251104
 40
0.8375079241
 40
1.0
 40
1.0
 40
1.0
 40
1.0
 10
43.2277592826
 20
72.5605091294
 30
0.0
 10
43.2334530578
 20
72.5619950437
 30
0.0
 10
43.2436585674
 20
72.5652248359
 30
0.0
 10
43.2564900258
 20
72.5716627196
 30
0.0
 10
43.2651938154
 20
72.5789789552
 30
0.0
 10
43.2677592826
 20
72.5853359903
 30
0.0
 10
43.2677592826
 20
72.5881084033
 30
0.0
  0
SPLINE
  5
3BE
100
AcDbEntity
  8
0
100
AcDbSpline
 62
7
  6
CONTINUOUS
 70
0
 71
3
 72
11
 73
7
 74
0
 42
0.0000001
 43
0.0000001
 44
0.0000000001
 40
0.0
 40
0.0
 40
0.0
 40
0.0
 40
0.181869203
 40
0.4009414899
 40
0.6737299184
 40
1.0
 40
1.0
 40
1.0
 40
1.0
 10
43.2677592826
 20
49.2362033708
 30
0.0
 10
43.2677592826
 20
49.2395655839
 30
0.0
 10
43.2654522952
 20
49.2470143468
 30
0.0
 10
43.2568039028
 20
49.2563055138
 30
0.0
 10
43.243861047
 20
49.2643331253
 30
0.0
 10
43.2335019592
 20
49.268397147
 30
0.0
 10
43.2277592826
 20
49.2702420506
 30
0.0
  0
SPLINE
  5
3BF
100
AcDbEntity
  8
0
100
AcDbSpline
 62
7
  6
CONTINUOUS
 70
0
 71
3
 72
11
 73
7
 74
0
 42
0.0000001
 43
0.0000001
 44
0.0000000001
 40
0.0
 40
0.0
 40
0.0
 40
0.0
 40
0.1972418892
 40
0.422301112
 40
0.689448308
 40
1.0
 40
1.0
 40
1.0
 40
1.0
 10
43.2677592826
 20
49.7457755162
 30
0.0
 10
43.2677592826
 20
49.7497117184
 30
0.0
 10
43.2656139307
 20
49.7582044049
 30
0.0
 10
43.2570734091
 20
49.7693128613
 30
0.0
 10
43.2440678952
 20
49.778905075
 30
0.0
 10
43.2335542613
 20
49.7837976287
 30
0.0
 10
43.2277592826
 20
49.785994547
 30
0.0
  0
SPLINE
  5
3C0
100
AcDbEntity
  8
0
100
AcDbSpline
 62
7
  6
CONTINUOUS
 70
0
 71
3
 72
11
 73
7
 74
0
 42
0.0000001
 43
0.0000001
 44
0.0000000001
 40
0.0
 40
0.0
 40
0.0
 40
0.0
 40
0.3262701371
 40
0.5990586234
 40
0.8181308445
 40
1.0
 40
1.0
 40
1.0
 40
1.0
 10
43.2277592826
 20
72.1317515788
 30
0.0
 10
43.2335019603
 20
72.1335964828
 30
0.0
 10
43.2438610497
 20
72.1376605063
 30
0.0
 10
43.256803906
 20
72.1456881185
 30
0.0
 10
43.2654522982
 20
72.1549792849
 30
0.0
 10
43.2677592826
 20
72.1624280464
 30
0.0
 10
43.2677592826
 20
72.1657902586
 30
0.0
  0
SPLINE
  5
3C1
100
AcDbEntity
  8
0
100
AcDbSpline
 62
7
  6
CONTINUOUS
 70
0
 71
3
 72
11
 73
7
 74
0
 42
0.0000001
 43
0.0000001
 44
0.0000000001
 40
0.0
 40
0.0
 40
0.0
 40
0.0
 40
0.2093722711
 40
0.4396079791
 40
0.7024687949
 40
1.0
 40
1.0
 40
1.0
 40
1.0
 10
43.2677592826
 20
50.3387235106
 30
0.0
 10
43.2677592826
 20
50.3432097812
 30
0.0
 10
43.2657182566
 20
50.3527032796
 30
0.0
 10
43.2572927201
 20
50.3654826639
 30
0.0
 10
43.2442670632
 20
50.3765718419
 30
0.0
 10
43.2336073837
 20
50.3822783322
 30
0.0
 10
43.2277592826
 20
50.3848168014
 30
0.0
  0
SPLINE
  5
3C2
100
AcDbEntity
  8
0
100
AcDbSpline
 62
7
  6
CONTINUOUS
 70
0
 71
3
 72
11
 73
7
 74
0
 42
0.0000001
 43
0.0000001
 44
0.0000000001
 40
0.0
 40
0.0
 40
0.0
 40
0.0
 40
0.3105517473
 40
0.5776990022
 40
0.8027581595
 40
1.0
 40
1.0
 40
1.0
 40
1.0
 10
43.2277592826
 20
71.6159990824
 30
0.0
 10
43.2335542624
 20
71.6181960012
 30
0.0
 10
43.244067898
 20
71.6230885571
 30
0.0
 10
43.2570734123
 20
71.6326807715
 30
0.0
 10
43.2656139337
 20
71.6437892273
 30
0.0
 10
43.2677592826
 20
71.652281912
 30
0.0
 10
43.2677592826
 20
71.6562181132
 30
0.0
  0
SPLINE
  5
3C3
100
AcDbEntity
  8
0
100
AcDbSpline
 62
7
  6
CONTINUOUS
 70
0
 71
3
 72
11
 73
7
 74
0
 42
0.0000001
 43
0.0000001
 44
0.0000000001
 40
0.0
 40
0.0
 40
0.0
 40
0.0
 40
0.2189444868
 40
0.453534986
 40
0.7131429292
 40
1.0
 40
1.0
 40
1.0
 40
1.0
 10
43.2677592826
 20
51.0105346618
 30
0.0
 10
43.2677592826
 20
51.0155409096
 30
0.0
 10
43.2657878636
 20
51.0259859167
 30
0.0
 10
43.2574669736
 20
51.0402997471
 30
0.0
 10
43.2444501011
 20
51.0527924257
 30
0.0
 10
43.2336592196
 20
51.0592856751
 30
0.0
 10
43.2277592826
 20
51.0621514147
 30
0.0
  0
SPLINE
  5
3C4
100
AcDbEntity
  8
0
100
AcDbSpline
 62
7
  6
CONTINUOUS
 70
0
 71
3
 72
10
 73
6
 74
0
 42
0.0000001
 43
0.0000001
 44
0.0000000001
 40
0.0
 40
0.0
 40
0.0
 40
0.0
 40
0.2273281123
 40
0.466381514
 40
1.0
 40
1.0
 40
1.0
 40
1.0
 10
43.2677592826
 20
51.7560960812
 30
0.0
 10
43.2677592826
 20
51.7615871094
 30
0.0
 10
43.2658318455
 20
51.7729292495
 30
0.0
 10
43.2544951711
 20
51.7945959696
 30
0.0
 10
43.2391305941
 20
51.8067747789
 30
0.0
 10
43.2277592826
 20
51.8128434616
 30
0.0
  0
SPLINE
  5
3C5
100
AcDbEntity
  8
0
100
AcDbSpline
 62
7
  6
CONTINUOUS
 70
0
 71
3
 72
11
 73
7
 74
0
 42
0.0000001
 43
0.0000001
 44
0.0000000001
 40
0.0
 40
0.0
 40
0.0
 40
0.0
 40
0.2975312603
 40
0.560392136
 40
0.7906277788
 40
1.0
 40
1.0
 40
1.0
 40
1.0
 10
43.2277592826
 20
71.0171768281
 30
0.0
 10
43.2336073848
 20
71.0197152978
 30
0.0
 10
43.2442670659
 20
71.0254217905
 30
0.0
 10
43.2572927233
 20
71.0365109694
 30
0.0
 10
43.2657182596
 20
71.0492903529
 30
0.0
 10
43.2677592826
 20
71.0587838493
 30
0.0
 10
43.2677592826
 20
71.0632701188
 30
0.0
  0
SPLINE
  5
3C6
100
AcDbEntity
  8
0
100
AcDbSpline
 62
7
  6
CONTINUOUS
 70
0
 71
3
 72
10
 73
6
 74
0
 42
0.0000001
 43
0.0000001
 44
0.0000000001
 40
0.0
 40
0.0
 40
0.0
 40
0.0
 40
0.2333452681
 40
0.4753645409
 40
1.0
 40
1.0
 40
1.0
 40
1.0
 10
43.2677592826
 20
52.5697335963
 30
0.0
 10
43.2677592826
 20
52.5756698092
 30
0.0
 10
43.2658636017
 20
52.5878373894
 30
0.0
 10
43.2547506971
 20
52.6110283449
 30
0.0
 10
43.2393165509
 20
52.6245044542
 30
0.0
 10
43.2277592826
 20
52.6311797223
 30
0.0
  0
SPLINE
  5
3C7
100
AcDbEntity
  8
0
100
AcDbSpline
 62
7
  6
CONTINUOUS
 70
0
 71
3
 72
11
 73
7
 74
0
 42
0.0000001
 43
0.0000001
 44
0.0000000001
 40
0.0
 40
0.0
 40
0.0
 40
0.0
 40
0.2868571261
 40
0.5464651299
 40
0.7810555641
 40
1.0
 40
1.0
 40
1.0
 40
1.0
 10
43.2277592826
 20
70.3398422148
 30
0.0
 10
43.2336592207
 20
70.3427079549
 30
0.0
 10
43.2444501038
 20
70.3492012071
 30
0.0
 10
43.2574669768
 20
70.3616938867
 30
0.0
 10
43.2657878665
 20
70.3760077161
 30
0.0
 10
43.2677592826
 20
70.386452721
 30
0.0
 10
43.2677592826
 20
70.3914589677
 30
0.0
  0
SPLINE
  5
3C8
100
AcDbEntity
  8
0
100
AcDbSpline
 62
7
  6
CONTINUOUS
 70
0
 71
3
 72
9
 73
5
 74
0
 42
0.0000001
 43
0.0000001
 44
0.0000000001
 40
0.0
 40
0.0
 40
0.0
 40
0.0
 40
0.4801665322
 40
1.0
 40
1.0
 40
1.0
 40
1.0
 10
43.2677592826
 20
53.4452549342
 30
0.0
 10
43.2677592826
 20
53.4579784009
 30
0.0
 10
43.259672049
 20
53.4848542487
 30
0.0
 10
43.2394816011
 20
53.5036985053
 30
0.0
 10
43.2277592826
 20
53.5109321638
 30
0.0
  0
SPLINE
  5
3C9
100
AcDbEntity
  8
0
100
AcDbSpline
 62
7
  6
CONTINUOUS
 70
0
 71
3
 72
9
 73
5
 74
0
 42
0.0000001
 43
0.0000001
 44
0.0000000001
 40
0.0
 40
0.0
 40
0.0
 40
0.0
 40
0.4860449026
 40
1.0
 40
1.0
 40
1.0
 40
1.0
 10
43.2677592826
 20
54.375996849
 30
0.0
 10
43.2677592826
 20
54.3893913677
 30
0.0
 10
43.2599323972
 20
54.4173572293
 30
0.0
 10
43.2396244645
 20
54.437670541
 30
0.0
 10
43.2277592826
 20
54.4454053388
 30
0.0
  0
SPLINE
  5
3CA
100
AcDbEntity
  8
0
100
AcDbSpline
 62
7
  6
CONTINUOUS
 70
0
 71
3
 72
10
 73
6
 74
0
 42
0.0000001
 43
0.0000001
 44
0.0000000001
 40
0.0
 40
0.0
 40
0.0
 40
0.0
 40
0.5336186032
 40
0.7726719396
 40
1.0
 40
1.0
 40
1.0
 40
1.0
 10
43.2277592826
 20
69.5891501679
 30
0.0
 10
43.2391305966
 20
69.5952188519
 30
0.0
 10
43.2544951734
 20
69.6073976636
 30
0.0
 10
43.2658318484
 20
69.6290643836
 30
0.0
 10
43.2677592826
 20
69.6404065213
 30
0.0
 10
43.2677592826
 20
69.6458975483
 30
0.0
  0
SPLINE
  5
3CB
100
AcDbEntity
  8
0
100
AcDbSpline
 62
7
  6
CONTINUOUS
 70
0
 71
3
 72
9
 73
5
 74
0
 42
0.0000001
 43
0.0000001
 44
0.0000000001
 40
0.0
 40
0.0
 40
0.0
 40
0.0
 40
0.4906466859
 40
1.0
 40
1.0
 40
1.0
 40
1.0
 10
43.2677592826
 20
55.3548758327
 30
0.0
 10
43.2677592826
 20
55.3688487009
 30
0.0
 10
43.2601308535
 20
55.3977493927
 30
0.0
 10
43.2397446727
 20
55.4193164803
 30
0.0
 10
43.2277592826
 20
55.4274873421
 30
0.0
  0
SPLINE
  5
3CC
100
AcDbEntity
  8
0
100
AcDbSpline
 62
7
  6
CONTINUOUS
 70
0
 71
3
 72
10
 73
6
 74
0
 42
0.0000001
 43
0.0000001
 44
0.0000000001
 40
0.0
 40
0.0
 40
0.0
 40
0.0
 40
0.524635577
 40
0.7666547845
 40
1.0
 40
1.0
 40
1.0
 40
1.0
 10
43.2277592826
 20
68.7708139071
 30
0.0
 10
43.2393165535
 20
68.7774891768
 30
0.0
 10
43.2547506993
 20
68.7909652886
 30
0.0
 10
43.2658636046
 20
68.814156244
 30
0.0
 10
43.2677592826
 20
68.8263238216
 30
0.0
 10
43.2677592826
 20
68.8322600332
 30
0.0
  0
SPLINE
  5
3CD
100
AcDbEntity
  8
0
100
AcDbSpline
 62
7
  6
CONTINUOUS
 70
0
 71
3
 72
9
 73
5
 74
0
 42
0.0000001
 43
0.0000001
 44
0.0000000001
 40
0.0
 40
0.0
 40
0.0
 40
0.0
 40
0.4941778759
 40
1.0
 40
1.0
 40
1.0
 40
1.0
 10
43.2677592826
 20
56.3744420251
 30
0.0
 10
43.2677592826
 20
56.3888950326
 30
0.0
 10
43.2602796982
 20
56.4185697799
 30
0.0
 10
43.2398422478
 20
56.4411686324
 30
0.0
 10
43.2277592826
 20
56.4497039368
 30
0.0
  0
SPLINE
  5
3CE
100
AcDbEntity
  8
0
100
AcDbSpline
 62
7
  6
CONTINUOUS
 70
0
 71
3
 72
9
 73
5
 74
0
 42
0.0000001
 43
0.0000001
 44
0.0000000001
 40
0.0
 40
0.0
 40
0.0
 40
0.0
 40
0.4967905129
 40
1.0
 40
1.0
 40
1.0
 40
1.0
 10
43.2677592826
 20
57.4269359119
 30
0.0
 10
43.2677592826
 20
57.4417664065
 30
0.0
 10
43.2603878389
 20
57.4720488014
 30
0.0
 10
43.239917463
 20
57.4954525879
 30
0.0
 10
43.2277592826
 20
57.5042754372
 30
0.0
  0
SPLINE
  5
3CF
100
AcDbEntity
  8
0
100
AcDbSpline
 62
7
  6
CONTINUOUS
 70
0
 71
3
 72
9
 73
5
 74
0
 42
0.0000001
 43
0.0000001
 44
0.0000000001
 40
0.0
 40
0.0
 40
0.0
 40
0.0
 40
0.5198335871
 40
1.0
 40
1.0
 40
1.0
 40
1.0
 10
43.2277592826
 20
67.8910614656
 30
0.0
 10
43.2394816037
 20
67.8982951258
 30
0.0
 10
43.2596720513
 20
67.9171393841
 30
0.0
 10
43.2677592826
 20
67.9440152317
 30
0.0
 10
43.2677592826
 20
67.9567386953
 30
0.0
  0
SPLINE
  5
3D0
100
AcDbEntity
  8
0
100
AcDbSpline
 62
7
  6
CONTINUOUS
 70
0
 71
3
 72
9
 73
5
 74
0
 42
0.0000001
 43
0.0000001
 44
0.0000000001
 40
0.0
 40
0.0
 40
0.0
 40
0.0
 40
0.4985930476
 40
1.0
 40
1.0
 40
1.0
 40
1.0
 10
43.2677592826
 20
58.5043473791
 30
0.0
 10
43.2677592826
 20
58.5194492865
 30
0.0
 10
43.2604615385
 20
58.5501680017
 30
0.0
 10
43.2399706714
 20
58.5741464581
 30
0.0
 10
43.2277592826
 20
58.5831759176
 30
0.0
  0
SPLINE
  5
3D1
100
AcDbEntity
  8
0
100
AcDbSpline
 62
7
  6
CONTINUOUS
 70
0
 71
3
 72
9
 73
5
 74
0
 42
0.0000001
 43
0.0000001
 44
0.0000000001
 40
0.0
 40
0.0
 40
0.0
 40
0.0
 40
0.2501794607
 40
1.0
 40
1.0
 40
1.0
 40
1.0
 10
43.220148241
 20
59.6463205494
 30
0.0
 10
43.1878672264
 20
59.614184579
 30
0.0
 10
43.0588112555
 20
59.4857575552
 30
0.0
 10
42.9296571231
 20
59.3574291733
 30
0.0
 10
42.8327592826
 20
59.2612617835
 30
0.0
  0
LINE
  5
3D2
100
AcDbEntity
  8
0
100
AcDbLine
 62
7
  6
CONTINUOUS
 10
43.2277592826
 20
59.6781942983
 11
42.8327592826
 21
60.0724466842
  0
SPLINE
  5
3D3
100
AcDbEntity
  8
0
100
AcDbSpline
 62
7
  6
CONTINUOUS
 70
0
 71
3
 72
9
 73
5
 74
0
 42
0.0000001
 43
0.0000001
 44
0.0000000001
 40
0.0
 40
0.0
 40
0.0
 40
0.0
 40
0.5139552172
 40
1.0
 40
1.0
 40
1.0
 40
1.0
 10
43.2277592826
 20
66.9565882906
 30
0.0
 10
43.2396244673
 20
66.9643230902
 30
0.0
 10
43.2599323994
 20
66.9846364037
 30
0.0
 10
43.2677592826
 20
67.012602265
 30
0.0
 10
43.2677592826
 20
67.0259967805
 30
0.0
  0
SPLINE
  5
3D4
100
AcDbEntity
  8
0
100
AcDbSpline
 62
7
  6
CONTINUOUS
 70
0
 71
3
 72
9
 73
5
 74
0
 42
0.0000001
 43
0.0000001
 44
0.0000000001
 40
0.0
 40
0.0
 40
0.0
 40
0.0
 40
0.5093534341
 40
1.0
 40
1.0
 40
1.0
 40
1.0
 10
43.2277592826
 20
65.9745062873
 30
0.0
 10
43.2397446755
 20
65.9826771511
 30
0.0
 10
43.2601308556
 20
66.0042442405
 30
0.0
 10
43.2677592826
 20
66.033144932
 30
0.0
 10
43.2677592826
 20
66.0471177968
 30
0.0
  0
LINE
  5
3D5
100
AcDbEntity
  8
0
100
AcDbLine
 62
7
  6
CONTINUOUS
 10
42.8327592826
 20
61.3295469452
 11
43.2277592826
 21
61.7237993311
  0
SPLINE
  5
3D6
100
AcDbEntity
  8
0
100
AcDbSpline
 62
7
  6
CONTINUOUS
 70
0
 71
3
 72
9
 73
5
 74
0
 42
0.0000001
 43
0.0000001
 44
0.0000000001
 40
0.0
 40
0.0
 40
0.0
 40
0.0
 40
0.2498109106
 40
1.0
 40
1.0
 40
1.0
 40
1.0
 10
42.8327592826
 20
62.140731846
 30
0.0
 10
42.8650418575
 20
62.1086926286
 30
0.0
 10
42.9942452632
 20
61.9804139319
 30
0.0
 10
43.1233502669
 20
61.8520361241
 30
0.0
 10
43.220148241
 20
61.7556730801
 30
0.0
  0
SPLINE
  5
3D7
100
AcDbEntity
  8
0
100
AcDbSpline
 62
7
  6
CONTINUOUS
 70
0
 71
3
 72
9
 73
5
 74
0
 42
0.0000001
 43
0.0000001
 44
0.0000000001
 40
0.0
 40
0.0
 40
0.0
 40
0.0
 40
0.5014070731
 40
1.0
 40
1.0
 40
1.0
 40
1.0
 10
43.2277592826
 20
62.8188177118
 30
0.0
 10
43.2399706744
 20
62.8278471735
 30
0.0
 10
43.2604615405
 20
62.8518256318
 30
0.0
 10
43.2677592826
 20
62.8825443466
 30
0.0
 10
43.2677592826
 20
62.8976462503
 30
0.0
  0
SPLINE
  5
3D8
100
AcDbEntity
  8
0
100
AcDbSpline
 62
7
  6
CONTINUOUS
 70
0
 71
3
 72
9
 73
5
 74
0
 42
0.0000001
 43
0.0000001
 44
0.0000000001
 40
0.0
 40
0.0
 40
0.0
 40
0.0
 40
0.5058222444
 40
1.0
 40
1.0
 40
1.0
 40
1.0
 10
43.2277592826
 20
64.9522896927
 30
0.0
 10
43.2398422507
 20
64.9608249991
 30
0.0
 10
43.2602797002
 20
64.9834238534
 30
0.0
 10
43.2677592826
 20
65.0130986004
 30
0.0
 10
43.2677592826
 20
65.0275516044
 30
0.0
  0
SPLINE
  5
3D9
100
AcDbEntity
  8
0
100
AcDbSpline
 62
7
  6
CONTINUOUS
 70
0
 71
3
 72
9
 73
5
 74
0
 42
0.0000001
 43
0.0000001
 44
0.0000000001
 40
0.0
 40
0.0
 40
0.0
 40
0.0
 40
0.5032096077
 40
1.0
 40
1.0
 40
1.0
 40
1.0
 10
43.2277592826
 20
63.8977181922
 30
0.0
 10
43.2399174659
 20
63.9065410436
 30
0.0
 10
43.2603878409
 20
63.9299448319
 30
0.0
 10
43.2677592826
 20
63.9602272265
 30
0.0
 10
43.2677592826
 20
63.9750577175
 30
0.0
  0
SPLINE
  5
3DA
100
AcDbEntity
  8
0
100
AcDbSpline
 62
7
  6
CONTINUOUS
 70
0
 71
3
 72
9
 73
5
 74
0
 42
0.0000001
 43
0.0000001
 44
0.0000000001
 40
0.0
 40
0.0
 40
0.0
 40
0.0
 40
0.4349757286
 40
1.0
 40
1.0
 40
1.0
 40
1.0
 10
43.2677592826
 20
72.5881084033
 30
0.0
 10
43.2677592826
 20
72.5908324544
 30
0.0
 10
43.2652873913
 20
72.5970678707
 30
0.0
 10
43.2603654779
 20
72.6011588049
 30
0.0
 10
43.2574488471
 20
72.6031623366
 30
0.0
  0
SPLINE
  5
3DB
100
AcDbEntity
  8
0
100
AcDbSpline
 62
7
  6
CONTINUOUS
 70
0
 71
3
 72
9
 73
5
 74
0
 42
0.0000001
 43
0.0000001
 44
0.0000000001
 40
0.0
 40
0.0
 40
0.0
 40
0.0
 40
0.4468375074
 40
1.0
 40
1.0
 40
1.0
 40
1.0
 10
43.2574488471
 20
72.6031623366
 30
0.0
 10
43.2535000731
 20
72.605874882
 30
0.0
 10
43.243776376
 20
72.6106229465
 30
0.0
 10
43.2335100482
 20
72.613782823
 30
0.0
 10
43.2277592826
 20
72.6152323523
 30
0.0
  0
SPLINE
  5
3DC
100
AcDbEntity
  8
0
100
AcDbSpline
 62
7
  6
CONTINUOUS
 70
0
 71
3
 72
11
 73
7
 74
0
 42
0.0000001
 43
0.0000001
 44
0.0000000001
 40
0.0
 40
0.0
 40
0.0
 40
0.0
 40
0.3266965812
 40
0.5992916472
 40
0.8179452315
 40
1.0
 40
1.0
 40
1.0
 40
1.0
 10
43.2277592826
 20
49.2026231287
 30
0.0
 10
43.2334967261
 20
49.204417029
 30
0.0
 10
43.2438457036
 20
49.2083730987
 30
0.0
 10
43.2567961119
 20
49.2162453136
 30
0.0
 10
43.2654630702
 20
49.2254383456
 30
0.0
 10
43.2677592826
 20
49.2328534887
 30
0.0
 10
43.2677592826
 20
49.2362033708
 30
0.0
  0
SPLINE
  5
3DD
100
AcDbEntity
  8
0
100
AcDbSpline
 62
7
  6
CONTINUOUS
 70
0
 71
3
 72
8
 73
4
 74
0
 42
0.0000001
 43
0.0000001
 44
0.0000000001
 40
0.0
 40
0.0
 40
0.0
 40
0.0
 40
1.0
 40
1.0
 40
1.0
 40
1.0
 10
49.8227592826
 20
48.9006467371
 30
0.0
 10
49.8142673535
 20
48.8679012474
 30
0.0
 10
49.8005859186
 20
48.8360088666
 30
0.0
 10
49.7821758165
 20
48.8076284492
 30
0.0
  0
SPLINE
  5
3DE
100
AcDbEntity
  8
0
100
AcDbSpline
 62
7
  6
CONTINUOUS
 70
0
 71
3
 72
9
 73
5
 74
0
 42
0.0000001
 43
0.0000001
 44
0.0000000001
 40
0.0
 40
0.0
 40
0.0
 40
0.0
 40
0.5000699594
 40
1.0
 40
1.0
 40
1.0
 40
1.0
 10
49.7821758165
 20
48.8076284492
 30
0.0
 10
49.7647940593
 20
48.780833295
 30
0.0
 10
49.7210875743
 20
48.7326986923
 30
0.0
 10
49.6649838889
 20
48.6997706742
 30
0.0
 10
49.6351607314
 20
48.6883639095
 30
0.0
  0
SPLINE
  5
3DF
100
AcDbEntity
  8
0
100
AcDbSpline
 62
7
  6
CONTINUOUS
 70
0
 71
3
 72
11
 73
7
 74
0
 42
0.0000001
 43
0.0000001
 44
0.0000000001
 40
0.0
 40
0.0
 40
0.0
 40
0.0
 40
0.3108379397
 40
0.5777405206
 40
0.8024578308
 40
1.0
 40
1.0
 40
1.0
 40
1.0
 10
43.2277592826
 20
49.705994547
 30
0.0
 10
43.2335488858
 20
49.708141869
 30
0.0
 10
43.2440535144
 20
49.7129285942
 30
0.0
 10
43.2570696606
 20
49.7223742962
 30
0.0
 10
43.2656247441
 20
49.7333932741
 30
0.0
 10
43.2677592826
 20
49.7418512178
 30
0.0
 10
43.2677592826
 20
49.7457755162
 30
0.0
  0
SPLINE
  5
3E0
100
AcDbEntity
  8
0
100
AcDbSpline
 62
7
  6
CONTINUOUS
 70
0
 71
3
 72
11
 73
7
 74
0
 42
0.0000001
 43
0.0000001
 44
0.0000000001
 40
0.0
 40
0.0
 40
0.0
 40
0.0
 40
0.1820548165
 40
0.4007084659
 40
0.6733034737
 40
1.0
 40
1.0
 40
1.0
 40
1.0
 10
43.2677592826
 20
72.1657902586
 30
0.0
 10
43.2677592826
 20
72.1691401417
 30
0.0
 10
43.2654630672
 20
72.1765552861
 30
0.0
 10
43.2567961087
 20
72.1857483186
 30
0.0
 10
43.2438457009
 20
72.1936205328
 30
0.0
 10
43.2334967251
 20
72.1975766008
 30
0.0
 10
43.2277592826
 20
72.1993705007
 30
0.0
  0
SPLINE
  5
3E1
100
AcDbEntity
  8
0
100
AcDbSpline
 62
7
  6
CONTINUOUS
 70
0
 71
3
 72
9
 73
5
 74
0
 42
0.0000001
 43
0.0000001
 44
0.0000000001
 40
0.0
 40
0.0
 40
0.0
 40
0.0
 40
0.4976829399
 40
1.0
 40
1.0
 40
1.0
 40
1.0
 10
46.7007435943
 20
56.2849551933
 30
0.0
 10
46.4699338685
 20
56.2398224159
 30
0.0
 10
46.0089686613
 20
56.1341257943
 30
0.0
 10
45.5565512516
 20
55.9957031525
 30
0.0
 10
45.3327592956
 20
55.9165698415
 30
0.0
  0
SPLINE
  5
3E2
100
AcDbEntity
  8
0
100
AcDbSpline
 62
7
  6
CONTINUOUS
 70
0
 71
3
 72
11
 73
7
 74
0
 42
0.0000001
 43
0.0000001
 44
0.0000000001
 40
0.0
 40
0.0
 40
0.0
 40
0.0
 40
0.2977001199
 40
0.5602918233
 40
0.7902589137
 40
1.0
 40
1.0
 40
1.0
 40
1.0
 10
43.2277592826
 20
50.2930445716
 30
0.0
 10
43.2336021193
 20
50.2955353577
 30
0.0
 10
43.2442544799
 20
50.3011397412
 30
0.0
 10
43.2572920153
 20
50.3120928627
 30
0.0
 10
43.2657283511
 20
50.3247898961
 30
0.0
 10
43.2677592826
 20
50.3342485699
 30
0.0
 10
43.2677592826
 20
50.3387235106
 30
0.0
  0
SPLINE
  5
3E3
100
AcDbEntity
  8
0
100
AcDbSpline
 62
7
  6
CONTINUOUS
 70
0
 71
3
 72
11
 73
7
 74
0
 42
0.0000001
 43
0.0000001
 44
0.0000000001
 40
0.0
 40
0.0
 40
0.0
 40
0.0
 40
0.2499535178
 40
0.4999166593
 40
0.7499370846
 40
1.0
 40
1.0
 40
1.0
 40
1.0
 10
49.6351607296
 20
64.5422499185
 30
0.0
 10
49.3904972199
 20
64.5902584237
 30
0.0
 10
48.9011406968
 20
64.6861748905
 30
0.0
 10
48.1670631367
 20
64.8301533637
 30
0.0
 10
47.4328017768
 20
64.9737613912
 30
0.0
 10
46.9431764478
 20
65.0691694793
 30
0.0
 10
46.6983743811
 20
65.1170383141
 30
0.0
  0
SPLINE
  5
3E4
100
AcDbEntity
  8
0
100
AcDbSpline
 62
7
  6
CONTINUOUS
 70
0
 71
3
 72
11
 73
7
 74
0
 42
0.0000001
 43
0.0000001
 44
0.0000000001
 40
0.0
 40
0.0
 40
0.0
 40
0.0
 40
0.2500629155
 40
0.5000833408
 40
0.7500464823
 40
1.0
 40
1.0
 40
1.0
 40
1.0
 10
46.6983741624
 20
56.2849551933
 30
0.0
 10
46.9431762477
 20
56.3328240449
 30
0.0
 10
47.4328016137
 20
56.4282321661
 30
0.0
 10
48.1670630288
 20
56.571840244
 30
0.0
 10
48.9011406438
 20
56.7158187683
 30
0.0
 10
49.3904972035
 20
56.811735269
 30
0.0
 10
49.6351607314
 20
56.8597437913
 30
0.0
  0
SPLINE
  5
3E5
100
AcDbEntity
  8
0
100
AcDbSpline
 62
7
  6
CONTINUOUS
 70
0
 71
3
 72
11
 73
7
 74
0
 42
0.0000001
 43
0.0000001
 44
0.0000000001
 40
0.0
 40
0.0
 40
0.0
 40
0.0
 40
0.1975422184
 40
0.4222595934
 40
0.689162115
 40
1.0
 40
1.0
 40
1.0
 40
1.0
 10
43.2677592826
 20
71.6562181132
 30
0.0
 10
43.2677592826
 20
71.6601424126
 30
0.0
 10
43.2656247411
 20
71.6686003581
 30
0.0
 10
43.2570696574
 20
71.6796193366
 30
0.0
 10
43.2440535116
 20
71.6890650377
 30
0.0
 10
43.2335488847
 20
71.6938517608
 30
0.0
 10
43.2277592826
 20
71.6959990824
 30
0.0
  0
SPLINE
  5
3E6
100
AcDbEntity
  8
0
100
AcDbSpline
 62
7
  6
CONTINUOUS
 70
0
 71
3
 72
11
 73
7
 74
0
 42
0.0000001
 43
0.0000001
 44
0.0000000001
 40
0.0
 40
0.0
 40
0.0
 40
0.0
 40
0.2869353425
 40
0.5462696659
 40
0.780654575
 40
1.0
 40
1.0
 40
1.0
 40
1.0
 10
43.2277592826
 20
50.9593053971
 30
0.0
 10
43.2336542554
 20
50.962125892
 30
0.0
 10
43.2444396301
 20
50.9685223278
 30
0.0
 10
43.2574683244
 20
50.9808901152
 30
0.0
 10
43.2657969364
 20
50.9951280023
 30
0.0
 10
43.2677592826
 20
51.0055390526
 30
0.0
 10
43.2677592826
 20
51.0105346618
 30
0.0
  0
SPLINE
  5
3E7
100
AcDbEntity
  8
0
100
AcDbSpline
 62
7
  6
CONTINUOUS
 70
0
 71
3
 72
9
 73
5
 74
0
 42
0.0000001
 43
0.0000001
 44
0.0000000001
 40
0.0
 40
0.0
 40
0.0
 40
0.0
 40
0.5023170641
 40
1.0
 40
1.0
 40
1.0
 40
1.0
 10
45.3327592956
 20
65.485423752
 30
0.0
 10
45.5565512876
 20
65.4062904212
 30
0.0
 10
46.0089687684
 20
65.2678677478
 30
0.0
 10
46.469934049
 20
65.1621711015
 30
0.0
 10
46.7007438101
 20
65.1170383141
 30
0.0
  0
SPLINE
  5
3E8
100
AcDbEntity
  8
0
100
AcDbSpline
 62
7
  6
CONTINUOUS
 70
0
 71
3
 72
10
 73
6
 74
0
 42
0.0000001
 43
0.0000001
 44
0.0000000001
 40
0.0
 40
0.0
 40
0.0
 40
0.0
 40
0.5333524938
 40
0.7722579793
 40
1.0
 40
1.0
 40
1.0
 40
1.0
 10
43.2277592826
 20
51.6997063766
 30
0.0
 10
43.239115406
 20
51.7056907873
 30
0.0
 10
43.2544955203
 20
51.717734093
 30
0.0
 10
43.2658398651
 20
51.7393051759
 30
0.0
 10
43.2677592826
 20
51.7506149005
 30
0.0
 10
43.2677592826
 20
51.7560960812
 30
0.0
  0
SPLINE
  5
3E9
100
AcDbEntity
  8
0
100
AcDbSpline
 62
7
  6
CONTINUOUS
 70
0
 71
3
 72
11
 73
7
 74
0
 42
0.0000001
 43
0.0000001
 44
0.0000000001
 40
0.0
 40
0.0
 40
0.0
 40
0.0
 40
0.2097411366
 40
0.4397082917
 40
0.7022999348
 40
1.0
 40
1.0
 40
1.0
 40
1.0
 10
43.2677592826
 20
71.0632701188
 30
0.0
 10
43.2677592826
 20
71.0677450606
 30
0.0
 10
43.2657283482
 20
71.0772037364
 30
0.0
 10
43.2572920121
 20
71.0899007706
 30
0.0
 10
43.2442544772
 20
71.1008538911
 30
0.0
 10
43.2336021182
 20
71.1064582723
 30
0.0
 10
43.2277592826
 20
71.1089490579
 30
0.0
  0
SPLINE
  5
3EA
100
AcDbEntity
  8
0
100
AcDbSpline
 62
7
  6
CONTINUOUS
 70
0
 71
3
 72
10
 73
6
 74
0
 42
0.0000001
 43
0.0000001
 44
0.0000000001
 40
0.0
 40
0.0
 40
0.0
 40
0.0
 40
0.4244061733
 40
0.6965601056
 40
1.0
 40
1.0
 40
1.0
 40
1.0
 10
49.8227592826
 20
56.9658851901
 30
0.0
 10
49.8083801799
 20
56.9381617667
 30
0.0
 10
49.7656830637
 20
56.9035431977
 30
0.0
 10
49.698337332
 20
56.8748342137
 30
0.0
 10
49.6570923469
 20
56.8639379941
 30
0.0
 10
49.6351607314
 20
56.8597437913
 30
0.0
  0
SPLINE
  5
3EB
100
AcDbEntity
  8
0
100
AcDbSpline
 62
7
  6
CONTINUOUS
 70
0
 71
3
 72
10
 73
6
 74
0
 42
0.0000001
 43
0.0000001
 44
0.0000000001
 40
0.0
 40
0.0
 40
0.0
 40
0.0
 40
0.5243439718
 40
0.7662557644
 40
1.0
 40
1.0
 40
1.0
 40
1.0
 10
43.2277592826
 20
52.5086126114
 30
0.0
 10
43.2393033529
 20
52.5152098726
 30
0.0
 10
43.2547533665
 20
52.5285651694
 30
0.0
 10
43.2658704772
 20
52.5516689229
 30
0.0
 10
43.2677592826
 20
52.5638063529
 30
0.0
 10
43.2677592826
 20
52.5697335963
 30
0.0
  0
SPLINE
  5
3EC
100
AcDbEntity
  8
0
100
AcDbSpline
 62
7
  6
CONTINUOUS
 70
0
 71
3
 72
9
 73
5
 74
0
 42
0.0000001
 43
0.0000001
 44
0.0000000001
 40
0.0
 40
0.0
 40
0.0
 40
0.0
 40
0.4999300272
 40
1.0
 40
1.0
 40
1.0
 40
1.0
 10
49.6351607296
 20
72.7136297206
 30
0.0
 10
49.6649837582
 20
72.7022230053
 30
0.0
 10
49.7210872093
 20
72.6692951619
 30
0.0
 10
49.7647936053
 20
72.6211608712
 30
0.0
 10
49.7821753624
 20
72.5943658795
 30
0.0
  0
SPLINE
  5
3ED
100
AcDbEntity
  8
0
100
AcDbSpline
 62
7
  6
CONTINUOUS
 70
0
 71
3
 72
8
 73
4
 74
0
 42
0.0000001
 43
0.0000001
 44
0.0000000001
 40
0.0
 40
0.0
 40
0.0
 40
0.0
 40
1.0
 40
1.0
 40
1.0
 40
1.0
 10
49.7821753624
 20
72.5943658795
 30
0.0
 10
49.8005856918
 20
72.5659852835
 30
0.0
 10
49.8142672848
 20
72.5340926492
 30
0.0
 10
49.8227592826
 20
72.5013468948
 30
0.0
  0
SPLINE
  5
3EE
100
AcDbEntity
  8
0
100
AcDbSpline
 62
7
  6
CONTINUOUS
 70
0
 71
3
 72
11
 73
7
 74
0
 42
0.0000001
 43
0.0000001
 44
0.0000000001
 40
0.0
 40
0.0
 40
0.0
 40
0.0
 40
0.2193454763
 40
0.45373045
 40
0.7130647123
 40
1.0
 40
1.0
 40
1.0
 40
1.0
 10
43.2677592826
 20
70.3914589677
 30
0.0
 10
43.2677592826
 20
70.396454578
 30
0.0
 10
43.2657969335
 20
70.4068656306
 30
0.0
 10
43.2574683212
 20
70.4211035186
 30
0.0
 10
43.2444396273
 20
70.4334713049
 30
0.0
 10
43.2336542542
 20
70.439867738
 30
0.0
 10
43.2277592826
 20
70.4426882323
 30
0.0
  0
SPLINE
  5
3EF
100
AcDbEntity
  8
0
100
AcDbSpline
 62
7
  6
CONTINUOUS
 70
0
 71
3
 72
9
 73
5
 74
0
 42
0.0000001
 43
0.0000001
 44
0.0000000001
 40
0.0
 40
0.0
 40
0.0
 40
0.0
 40
0.5195617572
 40
1.0
 40
1.0
 40
1.0
 40
1.0
 10
43.2277592826
 20
53.3798678368
 30
0.0
 10
43.2394704135
 20
53.3870308771
 30
0.0
 10
43.2596923624
 20
53.4057456551
 30
0.0
 10
43.2677592826
 20
53.4325606072
 30
0.0
 10
43.2677592826
 20
53.4452549342
 30
0.0
  0
SPLINE
  5
3F0
100
AcDbEntity
  8
0
100
AcDbSpline
 62
7
  6
CONTINUOUS
 70
0
 71
3
 72
9
 73
5
 74
0
 42
0.0000001
 43
0.0000001
 44
0.0000000001
 40
0.0
 40
0.0
 40
0.0
 40
0.0
 40
0.5136952634
 40
1.0
 40
1.0
 40
1.0
 40
1.0
 10
43.2277592826
 20
54.3068412742
 30
0.0
 10
43.2396152171
 20
54.3145138155
 30
0.0
 10
43.2599512368
 20
54.3347167012
 30
0.0
 10
43.2677592826
 20
54.3626278358
 30
0.0
 10
43.2677592826
 20
54.375996849
 30
0.0
  0
SPLINE
  5
3F1
100
AcDbEntity
  8
0
100
AcDbSpline
 62
7
  6
CONTINUOUS
 70
0
 71
3
 72
10
 73
6
 74
0
 42
0.0000001
 43
0.0000001
 44
0.0000000001
 40
0.0
 40
0.0
 40
0.0
 40
0.0
 40
0.2277420729
 40
0.4666476231
 40
1.0
 40
1.0
 40
1.0
 40
1.0
 10
43.2677592826
 20
69.6458975483
 30
0.0
 10
43.2677592826
 20
69.6513787302
 30
0.0
 10
43.2658398623
 20
69.6626884572
 30
0.0
 10
43.254495518
 20
69.6842595401
 30
0.0
 10
43.2391154035
 20
69.6963028434
 30
0.0
 10
43.2277592826
 20
69.7022872528
 30
0.0
  0
SPLINE
  5
3F2
100
AcDbEntity
  8
0
100
AcDbSpline
 62
7
  6
CONTINUOUS
 70
0
 71
3
 72
9
 73
5
 74
0
 42
0.0000001
 43
0.0000001
 44
0.0000000001
 40
0.0
 40
0.0
 40
0.0
 40
0.0
 40
0.5091197344
 40
1.0
 40
1.0
 40
1.0
 40
1.0
 10
43.2277592826
 20
55.2824780962
 30
0.0
 10
43.2397372476
 20
55.2905958808
 30
0.0
 10
43.2601474246
 20
55.3120713506
 30
0.0
 10
43.2677592826
 20
55.3409245883
 30
0.0
 10
43.2677592826
 20
55.3548758327
 30
0.0
  0
SPLINE
  5
3F3
100
AcDbEntity
  8
0
100
AcDbSpline
 62
7
  6
CONTINUOUS
 70
0
 71
3
 72
10
 73
6
 74
0
 42
0.0000001
 43
0.0000001
 44
0.0000000001
 40
0.0
 40
0.0
 40
0.0
 40
0.0
 40
0.2337442885
 40
0.4756561459
 40
1.0
 40
1.0
 40
1.0
 40
1.0
 10
43.2677592826
 20
68.8322600332
 30
0.0
 10
43.2677592826
 20
68.8381872779
 30
0.0
 10
43.2658704743
 20
68.8503247105
 30
0.0
 10
43.2547533642
 20
68.8734284641
 30
0.0
 10
43.2393033503
 20
68.8867837583
 30
0.0
 10
43.2277592826
 20
68.893381018
 30
0.0
  0
SPLINE
  5
3F4
100
AcDbEntity
  8
0
100
AcDbSpline
 62
7
  6
CONTINUOUS
 70
0
 71
3
 72
9
 73
5
 74
0
 42
0.0000001
 43
0.0000001
 44
0.0000000001
 40
0.0
 40
0.0
 40
0.0
 40
0.0
 40
0.5056251062
 40
1.0
 40
1.0
 40
1.0
 40
1.0
 10
43.2277592826
 20
56.2993531175
 30
0.0
 10
43.2398365114
 20
56.3078451894
 30
0.0
 10
43.2602934559
 20
56.3303710093
 30
0.0
 10
43.2677592826
 20
56.3600065572
 30
0.0
 10
43.2677592826
 20
56.3744420251
 30
0.0
  0
SPLINE
  5
3F5
100
AcDbEntity
  8
0
100
AcDbSpline
 62
7
  6
CONTINUOUS
 70
0
 71
3
 72
12
 73
8
 74
0
 42
0.0000001
 43
0.0000001
 44
0.0000000001
 40
0.0
 40
0.0
 40
0.0
 40
0.0
 40
0.0293347099
 40
0.0835720495
 40
0.2803355087
 40
0.5910961233
 40
1.0
 40
1.0
 40
1.0
 40
1.0
 10
43.2677592826
 20
73.3028596773
 30
0.0
 10
43.2677592826
 20
73.303261781
 30
0.0
 10
43.26681787
 20
73.3042119622
 30
0.0
 10
43.2633148668
 20
73.3055368752
 30
0.0
 10
43.2556349078
 20
73.3070844755
 30
0.0
 10
43.2432136499
 20
73.3085067447
 30
0.0
 10
43.2333540287
 20
73.3092409062
 30
0.0
 10
43.2277592826
 20
73.3095801841
 30
0.0
  0
SPLINE
  5
3F6
100
AcDbEntity
  8
0
100
AcDbSpline
 62
7
  6
CONTINUOUS
 70
0
 71
3
 72
9
 73
5
 74
0
 42
0.0000001
 43
0.0000001
 44
0.0000000001
 40
0.0
 40
0.0
 40
0.0
 40
0.0
 40
0.5030562571
 40
1.0
 40
1.0
 40
1.0
 40
1.0
 10
43.2277592826
 20
57.349727305
 30
0.0
 10
43.239913288
 20
57.358517287
 30
0.0
 10
43.2603984188
 20
57.3818664474
 30
0.0
 10
43.2677592826
 20
57.4121187123
 30
0.0
 10
43.2677592826
 20
57.4269359119
 30
0.0
  0
SPLINE
  5
3F7
100
AcDbEntity
  8
0
100
AcDbSpline
 62
7
  6
CONTINUOUS
 70
0
 71
3
 72
9
 73
5
 74
0
 42
0.0000001
 43
0.0000001
 44
0.0000000001
 40
0.0
 40
0.0
 40
0.0
 40
0.0
 40
0.480438362
 40
1.0
 40
1.0
 40
1.0
 40
1.0
 10
43.2677592826
 20
67.9567386953
 30
0.0
 10
43.2677592826
 20
67.9694330254
 30
0.0
 10
43.2596923601
 20
67.9962479777
 30
0.0
 10
43.2394704108
 20
68.014962754
 30
0.0
 10
43.2277592826
 20
68.0221257927
 30
0.0
  0
SPLINE
  5
3F8
100
AcDbEntity
  8
0
100
AcDbSpline
 62
7
  6
CONTINUOUS
 70
0
 71
3
 72
9
 73
5
 74
0
 42
0.0000001
 43
0.0000001
 44
0.0000000001
 40
0.0
 40
0.0
 40
0.0
 40
0.0
 40
0.5013023724
 40
1.0
 40
1.0
 40
1.0
 40
1.0
 10
43.2277592826
 20
58.4256066771
 30
0.0
 10
43.239967952
 20
58.434614017
 30
0.0
 10
43.2604687061
 20
58.4585561246
 30
0.0
 10
43.2677592826
 20
58.4892544025
 30
0.0
 10
43.2677592826
 20
58.5043473791
 30
0.0
  0
SPLINE
  5
3F9
100
AcDbEntity
  8
0
100
AcDbSpline
 62
7
  6
CONTINUOUS
 70
0
 71
3
 72
9
 73
5
 74
0
 42
0.0000001
 43
0.0000001
 44
0.0000000001
 40
0.0
 40
0.0
 40
0.0
 40
0.0
 40
0.6069219988
 40
1.0
 40
1.0
 40
1.0
 40
1.0
 10
43.2277592826
 20
48.0924134453
 30
0.0
 10
43.2349313752
 20
48.092848377
 30
0.0
 10
43.2467153697
 20
48.0937995615
 30
0.0
 10
43.2585115479
 20
48.0953224011
 30
0.0
 10
43.2630093193
 20
48.0965165637
 30
0.0
  0
SPLINE
  5
3FA
100
AcDbEntity
  8
0
100
AcDbSpline
 62
7
  6
CONTINUOUS
 70
0
 71
3
 72
12
 73
8
 74
0
 42
0.0000001
 43
0.0000001
 44
0.0000000001
 40
0.0
 40
0.0
 40
0.0
 40
0.0
 40
0.1132746885
 40
0.2009043683
 40
0.313077925
 40
0.6111140019
 40
1.0
 40
1.0
 40
1.0
 40
1.0
 10
43.2677592826
 20
73.1588148228
 30
0.0
 10
43.2677592826
 20
73.1602657735
 30
0.0
 10
43.265761152
 20
73.1625400695
 30
0.0
 10
43.2623665602
 20
73.1644836226
 30
0.0
 10
43.2564345337
 20
73.1669832915
 30
0.0
 10
43.2465203225
 20
73.1695487387
 30
0.0
 10
43.2378388411
 20
73.1710532511
 30
0.0
 10
43.2329085483
 20
73.1717642298
 30
0.0
  0
LINE
  5
3FB
100
AcDbEntity
  8
0
100
AcDbLine
 62
7
  6
CONTINUOUS
 10
42.8327592826
 20
59.1260617211
 11
43.2277592826
 21
59.5188031466
  0
SPLINE
  5
3FC
100
AcDbEntity
  8
0
100
AcDbSpline
 62
7
  6
CONTINUOUS
 70
0
 71
3
 72
9
 73
5
 74
0
 42
0.0000001
 43
0.0000001
 44
0.0000000001
 40
0.0
 40
0.0
 40
0.0
 40
0.0
 40
0.4863048563
 40
1.0
 40
1.0
 40
1.0
 40
1.0
 10
43.2677592826
 20
67.0259967805
 30
0.0
 10
43.2677592826
 20
67.039365797
 30
0.0
 10
43.2599512346
 20
67.0672769318
 30
0.0
 10
43.2396152144
 20
67.0874798157
 30
0.0
 10
43.2277592826
 20
67.0951523552
 30
0.0
  0
SPLINE
  5
3FD
100
AcDbEntity
  8
0
100
AcDbSpline
 62
7
  6
CONTINUOUS
 70
0
 71
3
 72
9
 73
5
 74
0
 42
0.0000001
 43
0.0000001
 44
0.0000000001
 40
0.0
 40
0.0
 40
0.0
 40
0.0
 40
0.5997926671
 40
1.0
 40
1.0
 40
1.0
 40
1.0
 10
43.2277592826
 20
48.2295360251
 30
0.0
 10
43.2349686567
 20
48.2304412742
 30
0.0
 10
43.246884067
 20
48.2323844703
 30
0.0
 10
43.2587371731
 20
48.2356349088
 30
0.0
 10
43.2630093193
 20
48.2379269787
 30
0.0
  0
SPLINE
  5
3FE
100
AcDbEntity
  8
0
100
AcDbSpline
 62
7
  6
CONTINUOUS
 70
0
 71
3
 72
9
 73
5
 74
0
 42
0.0000001
 43
0.0000001
 44
0.0000000001
 40
0.0
 40
0.0
 40
0.0
 40
0.0
 40
0.3365327932
 40
1.0
 40
1.0
 40
1.0
 40
1.0
 10
43.2630093193
 20
48.2379269787
 30
0.0
 10
43.2637234201
 20
48.2383101044
 30
0.0
 10
43.2657288138
 20
48.2394896942
 30
0.0
 10
43.2677592826
 20
48.2415811483
 30
0.0
 10
43.2677592826
 20
48.2431788066
 30
0.0
  0
SPLINE
  5
3FF
100
AcDbEntity
  8
0
100
AcDbSpline
 62
7
  6
CONTINUOUS
 70
0
 71
3
 72
9
 73
5
 74
0
 42
0.0000001
 43
0.0000001
 44
0.0000000001
 40
0.0
 40
0.0
 40
0.0
 40
0.0
 40
0.4908803856
 40
1.0
 40
1.0
 40
1.0
 40
1.0
 10
43.2677592826
 20
66.0471177968
 30
0.0
 10
43.2677592826
 20
66.0610690445
 30
0.0
 10
43.2601474225
 20
66.0899222825
 30
0.0
 10
43.2397372448
 20
66.1113977505
 30
0.0
 10
43.2277592826
 20
66.1195155332
 30
0.0
  0
SPLINE
  5
400
100
AcDbEntity
  8
0
100
AcDbSpline
 62
7
  6
CONTINUOUS
 70
0
 71
3
 72
10
 73
6
 74
0
 42
0.0000001
 43
0.0000001
 44
0.0000000001
 40
0.0
 40
0.0
 40
0.0
 40
0.0
 40
0.3034398829
 40
0.5755938175
 40
1.0
 40
1.0
 40
1.0
 40
1.0
 10
49.6351607296
 20
64.5422499185
 30
0.0
 10
49.6570923428
 20
64.5380557173
 30
0.0
 10
49.6983373236
 20
64.527159497
 30
0.0
 10
49.7656830551
 20
64.4984505291
 30
0.0
 10
49.8083801775
 20
64.4638319707
 30
0.0
 10
49.8227592826
 20
64.4361085505
 30
0.0
  0
SPLINE
  5
401
100
AcDbEntity
  8
0
100
AcDbSpline
 62
7
  6
CONTINUOUS
 70
0
 71
3
 72
10
 73
6
 74
0
 42
0.0000001
 43
0.0000001
 44
0.0000000001
 40
0.0
 40
0.0
 40
0.0
 40
0.0
 40
0.6361886155
 40
0.8506876388
 40
1.0
 40
1.0
 40
1.0
 40
1.0
 10
43.2277592826
 20
48.4615739519
 30
0.0
 10
43.2370490951
 20
48.4633346804
 30
0.0
 10
43.2495459519
 20
48.4663415122
 30
0.0
 10
43.2626835503
 20
48.4733316379
 30
0.0
 10
43.2665515894
 20
48.4775302468
 30
0.0
 10
43.267315483
 20
48.4796137425
 30
0.0
  0
SPLINE
  5
402
100
AcDbEntity
  8
0
100
AcDbSpline
 62
7
  6
CONTINUOUS
 70
0
 71
3
 72
8
 73
4
 74
0
 42
0.0000001
 43
0.0000001
 44
0.0000000001
 40
0.0
 40
0.0
 40
0.0
 40
0.0
 40
1.0
 40
1.0
 40
1.0
 40
1.0
 10
43.267315483
 20
48.4796137425
 30
0.0
 10
43.267597957
 20
48.4803841814
 30
0.0
 10
43.2677592826
 20
48.4812145885
 30
0.0
 10
43.2677592826
 20
48.4820351784
 30
0.0
  0
SPLINE
  5
403
100
AcDbEntity
  8
0
100
AcDbSpline
 62
7
  6
CONTINUOUS
 70
0
 71
3
 72
10
 73
6
 74
0
 42
0.0000001
 43
0.0000001
 44
0.0000000001
 40
0.0
 40
0.0
 40
0.0
 40
0.0
 40
0.3486975478
 40
0.635248136
 40
1.0
 40
1.0
 40
1.0
 40
1.0
 10
43.2677592826
 20
72.9199584511
 30
0.0
 10
43.2677592826
 20
72.9240910246
 30
0.0
 10
43.2607692237
 20
72.9301496416
 30
0.0
 10
43.2503277076
 20
72.934656962
 30
0.0
 10
43.2428094979
 20
72.9369620649
 30
0.0
 10
43.238620326
 20
72.9380287369
 30
0.0
  0
LINE
  5
404
100
AcDbEntity
  8
0
100
AcDbLine
 62
7
  6
CONTINUOUS
 10
43.238620326
 20
72.9380287369
 11
43.2277592826
 21
72.9404196775
  0
LINE
  5
405
100
AcDbEntity
  8
0
100
AcDbLine
 62
7
  6
CONTINUOUS
 10
43.2277592826
 20
61.8831904828
 11
42.8327592826
 21
62.2759319084
  0
SPLINE
  5
406
100
AcDbEntity
  8
0
100
AcDbSpline
 62
7
  6
CONTINUOUS
 70
0
 71
3
 72
9
 73
5
 74
0
 42
0.0000001
 43
0.0000001
 44
0.0000000001
 40
0.0
 40
0.0
 40
0.0
 40
0.0
 40
0.4943750141
 40
1.0
 40
1.0
 40
1.0
 40
1.0
 10
43.2677592826
 20
65.0275516044
 30
0.0
 10
43.2677592826
 20
65.0419870757
 30
0.0
 10
43.2602934539
 20
65.071622624
 30
0.0
 10
43.2398365085
 20
65.094148442
 30
0.0
 10
43.2277592826
 20
65.102640512
 30
0.0
  0
SPLINE
  5
407
100
AcDbEntity
  8
0
100
AcDbSpline
 62
7
  6
CONTINUOUS
 70
0
 71
3
 72
9
 73
5
 74
0
 42
0.0000001
 43
0.0000001
 44
0.0000000001
 40
0.0
 40
0.0
 40
0.0
 40
0.0
 40
0.4986977483
 40
1.0
 40
1.0
 40
1.0
 40
1.0
 10
43.2677592826
 20
62.8976462503
 30
0.0
 10
43.2677592826
 20
62.9127392307
 30
0.0
 10
43.2604687041
 20
62.9434375089
 30
0.0
 10
43.2399679491
 20
62.9673796147
 30
0.0
 10
43.2277592826
 20
62.9763869523
 30
0.0
  0
SPLINE
  5
408
100
AcDbEntity
  8
0
100
AcDbSpline
 62
7
  6
CONTINUOUS
 70
0
 71
3
 72
11
 73
7
 74
0
 42
0.0000001
 43
0.0000001
 44
0.0000000001
 40
0.0
 40
0.0
 40
0.0
 40
0.0
 40
0.345465477
 40
0.6254888173
 40
0.8374897056
 40
1.0
 40
1.0
 40
1.0
 40
1.0
 10
43.2277592826
 20
48.7867612771
 30
0.0
 10
43.2334482745
 20
48.7881952359
 30
0.0
 10
43.2436436862
 20
48.7913162038
 30
0.0
 10
43.2564777015
 20
48.7975929542
 30
0.0
 10
43.2652029425
 20
48.8048000048
 30
0.0
 10
43.2677592826
 20
48.8111253657
 30
0.0
 10
43.2677592826
 20
48.8138852262
 30
0.0
  0
SPLINE
  5
409
100
AcDbEntity
  8
0
100
AcDbSpline
 62
7
  6
CONTINUOUS
 70
0
 71
3
 72
9
 73
5
 74
0
 42
0.0000001
 43
0.0000001
 44
0.0000000001
 40
0.0
 40
0.0
 40
0.0
 40
0.0
 40
0.4969438634
 40
1.0
 40
1.0
 40
1.0
 40
1.0
 10
43.2677592826
 20
63.9750577175
 30
0.0
 10
43.2677592826
 20
63.9898749208
 30
0.0
 10
43.2603984167
 20
64.020127186
 30
0.0
 10
43.2399132851
 20
64.0434763445
 30
0.0
 10
43.2277592826
 20
64.0522663244
 30
0.0
  0
LINE
  5
40A
100
AcDbEntity
  8
0
100
AcDbLine
 62
7
  6
CONTINUOUS
 10
23.5427601646
 20
74.8360715722
 11
12.3764798193
 21
74.5425081762
  0
SPLINE
  5
40B
100
AcDbEntity
  8
0
100
AcDbSpline
 62
7
  6
CONTINUOUS
 70
0
 71
3
 72
19
 73
15
 74
0
 42
0.0000001
 43
0.0000001
 44
0.0000000001
 40
0.0
 40
0.0
 40
0.0
 40
0.0
 40
0.2499831321
 40
0.4999632341
 40
0.624970259
 40
0.7499769099
 40
0.8124823638
 40
0.8749877957
 40
0.9062408032
 40
0.9374938424
 40
0.9531203348
 40
0.9687469462
 40
0.9843734644
 40
1.0
 40
1.0
 40
1.0
 40
1.0
 10
11.861843563
 20
73.9856580779
 30
0.0
 10
11.5629008133
 20
72.8994993194
 30
0.0
 10
11.0382451055
 20
70.7063331226
 30
0.0
 10
10.5684429193
 20
67.9271170851
 30
0.0
 10
10.305658794
 20
65.6889195886
 30
0.0
 10
10.1886396821
 20
64.2851203269
 30
0.0
 10
10.1234845595
 20
63.1602632462
 30
0.0
 10
10.0946134903
 20
62.4566144153
 30
0.0
 10
10.0787042603
 20
61.8934712196
 30
0.0
 10
10.0716490551
 20
61.541433234
 30
0.0
 10
10.0679826073
 20
61.2597726483
 30
0.0
 10
10.0659859698
 20
61.048520198
 30
0.0
 10
10.0645907968
 20
60.8372577638
 30
0.0
 10
10.0657097583
 20
60.6964175759
 30
0.0
 10
10.0658178655
 20
60.6259968147
 30
0.0
  0
SPLINE
  5
40C
100
AcDbEntity
  8
0
100
AcDbSpline
 62
7
  6
CONTINUOUS
 70
0
 71
3
 72
29
 73
25
 74
0
 42
0.0000001
 43
0.0000001
 44
0.0000000001
 40
0.0
 40
0.0
 40
0.0
 40
0.0
 40
0.0063847053
 40
0.0135567725
 40
0.020957227
 40
0.0284950204
 40
0.0437440274
 40
0.0591367235
 40
0.0746033899
 40
0.0901205163
 40
0.1212482111
 40
0.1524542434
 40
0.183710278
 40
0.214999731
 40
0.2463142719
 40
0.3089952638
 40
0.3717253561
 40
0.434488491
 40
0.4972751613
 40
0.5600803223
 40
0.6229001165
 40
0.748572031
 40
0.8742745939
 40
1.0
 40
1.0
 40
1.0
 40
1.0
 10
25.2988350028
 20
46.7424174826
 30
0.0
 10
25.2775707173
 20
46.7476519045
 30
0.0
 10
25.231429808
 20
46.7543160301
 30
0.0
 10
25.1601025716
 20
46.7628600117
 30
0.0
 10
25.084613797
 20
46.7702984474
 30
0.0
 10
24.9814866752
 20
46.7794853389
 30
0.0
 10
24.8509409039
 20
46.7898717683
 30
0.0
 10
24.6931905432
 20
46.8010818287
 30
0.0
 10
24.5344762379
 20
46.8116917794
 30
0.0
 10
24.3218570079
 20
46.825044798
 30
0.0
 10
24.0552938266
 20
46.8407185955
 30
0.0
 10
23.7347762618
 20
46.8584266501
 30
0.0
 10
23.4136576422
 20
46.8752882843
 30
0.0
 10
23.092137984
 20
46.891598056
 30
0.0
 10
22.66293445
 20
46.912625764
 30
0.0
 10
22.1259749962
 20
46.9379798553
 30
0.0
 10
21.4812087754
 20
46.9671091271
 30
0.0
 10
20.8360397591
 20
46.9953355098
 30
0.0
 10
20.1905850433
 20
47.0229141459
 30
0.0
 10
19.5449077157
 20
47.0498269217
 30
0.0
 10
18.683693242
 20
47.0849321728
 30
0.0
 10
17.606874811
 20
47.1275956508
 30
0.0
 10
16.3144189422
 20
47.1776476219
 30
0.0
 10
15.4526541157
 20
47.2101991327
 30
0.0
 10
15.0217249635
 20
47.2262718942
 30
0.0
  0
SPLINE
  5
40D
100
AcDbEntity
  8
0
100
AcDbSpline
 62
7
  6
CONTINUOUS
 70
0
 71
3
 72
9
 73
5
 74
0
 42
0.0000001
 43
0.0000001
 44
0.0000000001
 40
0.0
 40
0.0
 40
0.0
 40
0.0
 40
0.4999721663
 40
1.0
 40
1.0
 40
1.0
 40
1.0
 10
15.0170285995
 20
47.226359404
 30
0.0
 10
14.576914437
 20
47.242773903
 30
0.0
 10
13.6966311093
 20
47.2754475775
 30
0.0
 10
12.816310326
 20
47.3070951091
 30
0.0
 10
12.3761248928
 20
47.3229030882
 30
0.0
  0
SPLINE
  5
40E
100
AcDbEntity
  8
0
100
AcDbSpline
 62
7
  6
CONTINUOUS
 70
0
 71
3
 72
9
 73
5
 74
0
 42
0.0000001
 43
0.0000001
 44
0.0000000001
 40
0.0
 40
0.0
 40
0.0
 40
0.0
 40
0.2579530613
 40
1.0
 40
1.0
 40
1.0
 40
1.0
 10
11.8619429818
 20
48.0147094552
 30
0.0
 10
11.8697957177
 20
47.9796985547
 30
0.0
 10
11.9027336319
 20
47.8445360138
 30
0.0
 10
11.9448037554
 20
47.7116647543
 30
0.0
 10
11.9801124268
 20
47.6146745603
 30
0.0
  0
SPLINE
  5
40F
100
AcDbEntity
  8
0
100
AcDbSpline
 62
7
  6
CONTINUOUS
 70
0
 71
3
 72
11
 73
7
 74
0
 42
0.0000001
 43
0.0000001
 44
0.0000000001
 40
0.0
 40
0.0
 40
0.0
 40
0.0
 40
0.2414771121
 40
0.4839854621
 40
0.7346105229
 40
1.0
 40
1.0
 40
1.0
 40
1.0
 10
11.9801124268
 20
47.6146745603
 30
0.0
 10
11.9993774598
 20
47.5781990831
 30
0.0
 10
12.0444872853
 20
47.5082681858
 30
0.0
 10
12.1324257421
 20
47.4174742078
 30
0.0
 10
12.2431267156
 20
47.347297918
 30
0.0
 10
12.3308584157
 20
47.3254005938
 30
0.0
 10
12.3761248928
 20
47.3229030882
 30
0.0
  0
SPLINE
  5
410
100
AcDbEntity
  8
0
100
AcDbSpline
 62
7
  6
CONTINUOUS
 70
0
 71
3
 72
11
 73
7
 74
0
 42
0.0000001
 43
0.0000001
 44
0.0000000001
 40
0.0
 40
0.0
 40
0.0
 40
0.0
 40
0.2507030565
 40
0.5013232401
 40
0.7512646628
 40
1.0
 40
1.0
 40
1.0
 40
1.0
 10
10.2717177837
 20
57.3767208587
 30
0.0
 10
10.1822772756
 20
58.6588874026
 30
0.0
 10
10.1070022299
 20
61.231215888
 30
0.0
 10
10.3050747901
 20
65.0816688542
 30
0.0
 10
10.811205454
 20
68.8936661545
 30
0.0
 10
11.3523375284
 20
71.3957208694
 30
0.0
 10
11.6727803516
 20
72.6299968265
 30
0.0
  0
SPLINE
  5
411
100
AcDbEntity
  8
0
100
AcDbSpline
 62
7
  6
CONTINUOUS
 70
0
 71
3
 72
9
 73
5
 74
0
 42
0.0000001
 43
0.0000001
 44
0.0000000001
 40
0.0
 40
0.0
 40
0.0
 40
0.0
 40
0.5097883477
 40
1.0
 40
1.0
 40
1.0
 40
1.0
 10
38.378932055
 20
67.7559697727
 30
0.0
 10
38.4122360678
 20
67.7559697727
 30
0.0
 10
38.4778369154
 20
67.7644544256
 30
0.0
 10
38.5392510799
 20
67.7885361271
 30
0.0
 10
38.567599366
 20
67.8034351453
 30
0.0
  0
SPLINE
  5
412
100
AcDbEntity
  8
0
100
AcDbSpline
 62
7
  6
CONTINUOUS
 70
0
 71
3
 72
14
 73
10
 74
0
 42
0.0000001
 43
0.0000001
 44
0.0000000001
 40
0.0
 40
0.0
 40
0.0
 40
0.0
 40
0.017235137
 40
0.0645351594
 40
0.1427452239
 40
0.2519956353
 40
0.392330389
 40
0.5637696576
 40
1.0
 40
1.0
 40
1.0
 40
1.0
 10
25.27118984
 20
74.9364627016
 30
0.0
 10
25.2710183018
 20
74.9364582542
 30
0.0
 10
25.2709540976
 20
74.9355303383
 30
0.0
 10
25.2707246614
 20
74.9343917885
 30
0.0
 10
25.2706165693
 20
74.9319047441
 30
0.0
 10
25.2704650039
 20
74.9287116383
 30
0.0
 10
25.2703584495
 20
74.9244950036
 30
0.0
 10
25.270221154
 20
74.9170616723
 30
0.0
 10
25.2701748338
 20
74.911005842
 30
0.0
 10
25.2701527844
 20
74.906662717
 30
0.0
  0
SPLINE
  5
413
100
AcDbEntity
  8
0
100
AcDbSpline
 62
7
  6
CONTINUOUS
 70
0
 71
3
 72
9
 73
5
 74
0
 42
0.0000001
 43
0.0000001
 44
0.0000000001
 40
0.0
 40
0.0
 40
0.0
 40
0.0
 40
0.3758355772
 40
1.0
 40
1.0
 40
1.0
 40
1.0
 10
25.2701527844
 20
74.906662717
 30
0.0
 10
25.2700016708
 20
74.8768975262
 30
0.0
 10
25.2702445251
 20
74.7976980094
 30
0.0
 10
25.2686468177
 20
74.7185038189
 30
0.0
 10
25.2671404585
 20
74.6690939554
 30
0.0
  0
SPLINE
  5
414
100
AcDbEntity
  8
0
100
AcDbSpline
 62
7
  6
CONTINUOUS
 70
0
 71
3
 72
14
 73
10
 74
0
 42
0.0000001
 43
0.0000001
 44
0.0000000001
 40
0.0
 40
0.0
 40
0.0
 40
0.0
 40
0.2558205713
 40
0.3829435853
 40
0.5092493497
 40
0.6344039623
 40
0.7580010746
 40
0.8797467821
 40
1.0
 40
1.0
 40
1.0
 40
1.0
 10
38.567599366
 20
53.5342607328
 30
0.0
 10
38.7413200016
 20
53.6314052165
 30
0.0
 10
38.9976076998
 20
53.7840159255
 30
0.0
 10
39.3241376614
 20
54.0086842691
 30
0.0
 10
39.5570777153
 20
54.1893117275
 30
0.0
 10
39.7733795942
 20
54.3857608073
 30
0.0
 10
39.964747925
 20
54.6024734751
 30
0.0
 10
40.1172194534
 20
54.8445350343
 30
0.0
 10
40.1775895282
 20
55.0260282716
 30
0.0
 10
40.1927592821
 20
55.1183515507
 30
0.0
  0
SPLINE
  5
415
100
AcDbEntity
  8
0
100
AcDbSpline
 62
7
  6
CONTINUOUS
 70
0
 71
3
 72
14
 73
10
 74
0
 42
0.0000001
 43
0.0000001
 44
0.0000000001
 40
0.0
 40
0.0
 40
0.0
 40
0.0
 40
0.1172448972
 40
0.2381013167
 40
0.3617581239
 40
0.487373641
 40
0.6143366259
 40
0.7422478652
 40
1.0
 40
1.0
 40
1.0
 40
1.0
 10
40.1927592821
 20
55.4099465705
 30
0.0
 10
40.177374477
 20
55.5052669051
 30
0.0
 10
40.116024053
 20
55.6943880624
 30
0.0
 10
39.9640713185
 20
55.9521632156
 30
0.0
 10
39.7730651949
 20
56.1906092177
 30
0.0
 10
39.5569156353
 20
56.4130182511
 30
0.0
 10
39.3240247042
 20
56.6228912494
 30
0.0
 10
38.9973479599
 20
56.8904497551
 30
0.0
 10
38.7411730427
 20
57.0785651147
 30
0.0
 10
38.5675991499
 20
57.2007473392
 30
0.0
  0
SPLINE
  5
416
100
AcDbEntity
  8
0
100
AcDbSpline
 62
7
  6
CONTINUOUS
 70
0
 71
3
 72
9
 73
5
 74
0
 42
0.0000001
 43
0.0000001
 44
0.0000000001
 40
0.0
 40
0.0
 40
0.0
 40
0.0
 40
0.5100661261
 40
1.0
 40
1.0
 40
1.0
 40
1.0
 10
38.378932055
 20
53.4873525468
 30
0.0
 10
38.4122278583
 20
53.4873525468
 30
0.0
 10
38.4777719061
 20
53.4956666731
 30
0.0
 10
38.5392480169
 20
53.519461235
 30
0.0
 10
38.567599366
 20
53.5342607328
 30
0.0
  0
SPLINE
  5
417
100
AcDbEntity
  8
0
100
AcDbSpline
 62
7
  6
CONTINUOUS
 70
0
 71
3
 72
9
 73
5
 74
0
 42
0.0000001
 43
0.0000001
 44
0.0000000001
 40
0.0
 40
0.0
 40
0.0
 40
0.0
 40
0.4979351395
 40
1.0
 40
1.0
 40
1.0
 40
1.0
 10
38.5675991499
 20
57.2007473392
 30
0.0
 10
38.5398717675
 20
57.2189669464
 30
0.0
 10
38.4794101812
 20
57.2490052827
 30
0.0
 10
38.4123849517
 20
57.2600021922
 30
0.0
 10
38.378932055
 20
57.2600021922
 30
0.0
  0
LINE
  5
418
100
AcDbEntity
  8
0
100
AcDbLine
 62
7
  6
CONTINUOUS
 10
38.378932055
 20
57.2600021922
 11
38.3684097585
 21
57.2598770443
  0
LINE
  5
419
100
AcDbEntity
  8
0
100
AcDbLine
 62
7
  6
CONTINUOUS
 10
38.3684097585
 20
53.4874512722
 11
38.378932055
 21
53.4873525468
  0
LINE
  5
41A
100
AcDbEntity
  8
0
100
AcDbLine
 62
7
  6
CONTINUOUS
 10
38.3684097585
 20
67.7560701703
 11
38.378932055
 21
67.7559697727
  0
SPLINE
  5
41B
100
AcDbEntity
  8
0
100
AcDbSpline
 62
7
  6
CONTINUOUS
 70
0
 71
3
 72
14
 73
10
 74
0
 42
0.0000001
 43
0.0000001
 44
0.0000000001
 40
0.0
 40
0.0
 40
0.0
 40
0.0
 40
0.1064915768
 40
0.2186962517
 40
0.337432303
 40
0.4620553778
 40
0.5915694662
 40
0.724898697
 40
1.0
 40
1.0
 40
1.0
 40
1.0
 10
40.1927592821
 20
69.3732354148
 30
0.0
 10
40.1821276368
 20
69.4187287482
 30
0.0
 10
40.1454704058
 20
69.5089483807
 30
0.0
 10
40.0586072282
 20
69.6299149712
 30
0.0
 10
39.9470483367
 20
69.7397089837
 30
0.0
 10
39.8176827156
 20
69.8402374163
 30
0.0
 10
39.6748776827
 20
69.9327319651
 30
0.0
 10
39.4690170905
 20
70.0483482366
 30
0.0
 10
39.3065398397
 20
70.1245061619
 30
0.0
 10
39.1957780412
 20
70.1724430451
 30
0.0
  0
SPLINE
  5
41C
100
AcDbEntity
  8
0
100
AcDbSpline
 62
7
  6
CONTINUOUS
 70
0
 71
3
 72
9
 73
5
 74
0
 42
0.0000001
 43
0.0000001
 44
0.0000000001
 40
0.0
 40
0.0
 40
0.0
 40
0.0
 40
0.4993556105
 40
1.0
 40
1.0
 40
1.0
 40
1.0
 10
25.8027589908
 20
72.4652882518
 30
0.0
 10
25.6348619953
 20
71.9106534175
 30
0.0
 10
25.3833988841
 20
70.7726127272
 30
0.0
 10
25.3024555418
 20
69.6105091887
 30
0.0
 10
25.3024446546
 20
69.0295231247
 30
0.0
  0
SPLINE
  5
41D
100
AcDbEntity
  8
0
100
AcDbSpline
 62
7
  6
CONTINUOUS
 70
0
 71
3
 72
12
 73
8
 74
0
 42
0.0000001
 43
0.0000001
 44
0.0000000001
 40
0.0
 40
0.0
 40
0.0
 40
0.0
 40
0.3517850826
 40
0.6400350246
 40
0.8578361571
 40
0.9386785493
 40
1.0
 40
1.0
 40
1.0
 40
1.0
 10
26.3544881257
 20
47.2262718942
 30
0.0
 10
26.3668931808
 20
47.1688356996
 30
0.0
 10
26.3890302241
 20
47.0642328801
 30
0.0
 10
26.4149543524
 20
46.9232993614
 30
0.0
 10
26.4304276683
 20
46.8264710628
 30
0.0
 10
26.4384283923
 20
46.7668921254
 30
0.0
 10
26.4403424585
 20
46.7431729063
 30
0.0
 10
26.4403571952
 20
46.7329300666
 30
0.0
  0
SPLINE
  5
41E
100
AcDbEntity
  8
0
100
AcDbSpline
 62
7
  6
CONTINUOUS
 70
0
 71
3
 72
11
 73
7
 74
0
 42
0.0000001
 43
0.0000001
 44
0.0000000001
 40
0.0
 40
0.0
 40
0.0
 40
0.0
 40
0.1418746319
 40
0.3593978898
 40
0.6480055855
 40
1.0
 40
1.0
 40
1.0
 40
1.0
 10
26.4403571952
 20
46.7329300666
 30
0.0
 10
26.4403375876
 20
46.7565809771
 30
0.0
 10
26.4366312071
 20
46.8164880691
 30
0.0
 10
26.4208564771
 20
46.923417434
 30
0.0
 10
26.3948919663
 20
47.0640951858
 30
0.0
 10
26.3740311689
 20
47.1688350359
 30
0.0
 10
26.3620239114
 20
47.2262718942
 30
0.0
  0
SPLINE
  5
41F
100
AcDbEntity
  8
0
100
AcDbSpline
 62
7
  6
CONTINUOUS
 70
0
 71
3
 72
11
 73
7
 74
0
 42
0.0000001
 43
0.0000001
 44
0.0000000001
 40
0.0
 40
0.0
 40
0.0
 40
0.0
 40
0.2742019746
 40
0.5392909308
 40
0.7846903423
 40
1.0
 40
1.0
 40
1.0
 40
1.0
 10
26.0307952364
 20
48.5455395447
 30
0.0
 10
26.0629574563
 20
48.4256107231
 30
0.0
 10
26.1225716082
 20
48.188780273
 30
0.0
 10
26.2107132588
 20
47.8445550382
 30
0.0
 10
26.2876474318
 20
47.525013016
 30
0.0
 10
26.3339050441
 20
47.3215728721
 30
0.0
 10
26.3544881257
 20
47.2262718942
 30
0.0
  0
SPLINE
  5
420
100
AcDbEntity
  8
0
100
AcDbSpline
 62
7
  6
CONTINUOUS
 70
0
 71
3
 72
9
 73
5
 74
0
 42
0.0000001
 43
0.0000001
 44
0.0000000001
 40
0.0
 40
0.0
 40
0.0
 40
0.0
 40
0.2228611436
 40
1.0
 40
1.0
 40
1.0
 40
1.0
 10
26.3620238952
 20
47.2262718942
 30
0.0
 10
26.3517306969
 20
47.2755095303
 30
0.0
 10
26.3041842233
 20
47.496159847
 30
0.0
 10
26.2515982854
 20
47.7157003281
 30
0.0
 10
26.2091490374
 20
47.8858945951
 30
0.0
  0
SPLINE
  5
421
100
AcDbEntity
  8
0
100
AcDbSpline
 62
7
  6
CONTINUOUS
 70
0
 71
3
 72
9
 73
5
 74
0
 42
0.0000001
 43
0.0000001
 44
0.0000000001
 40
0.0
 40
0.0
 40
0.0
 40
0.0
 40
0.4928780692
 40
1.0
 40
1.0
 40
1.0
 40
1.0
 10
26.2091490374
 20
47.8858945951
 30
0.0
 10
26.1819790289
 20
47.994828908
 30
0.0
 10
26.12496401
 20
48.2153922058
 30
0.0
 10
26.0623487371
 20
48.4344164394
 30
0.0
 10
26.0307952364
 20
48.5455395447
 30
0.0
  0
SPLINE
  5
422
100
AcDbEntity
  8
0
100
AcDbSpline
 62
7
  6
CONTINUOUS
 70
0
 71
3
 72
14
 73
10
 74
0
 42
0.0000001
 43
0.0000001
 44
0.0000000001
 40
0.0
 40
0.0
 40
0.0
 40
0.0
 40
0.2742966879
 40
0.4083841747
 40
0.5394874414
 40
0.6663685657
 40
0.7871264519
 40
0.8990936983
 40
1.0
 40
1.0
 40
1.0
 40
1.0
 10
38.567599366
 20
67.8034351453
 30
0.0
 10
38.7398861032
 20
67.9004361379
 30
0.0
 10
38.9944472825
 20
68.0484980468
 30
0.0
 10
39.3222362936
 20
68.2578320051
 30
0.0
 10
39.5544443316
 20
68.4191009807
 30
0.0
 10
39.7696261675
 20
68.5874193836
 30
0.0
 10
39.9594544436
 20
68.7647725065
 30
0.0
 10
40.1111636776
 20
68.9525805324
 30
0.0
 10
40.1768193067
 20
69.0949727021
 30
0.0
 10
40.1927592821
 20
69.1659391898
 30
0.0
  0
SPLINE
  5
423
100
AcDbEntity
  8
0
100
AcDbSpline
 62
7
  6
CONTINUOUS
 70
0
 71
3
 72
9
 73
5
 74
0
 42
0.0000001
 43
0.0000001
 44
0.0000000001
 40
0.0
 40
0.0
 40
0.0
 40
0.0
 40
0.5072637243
 40
1.0
 40
1.0
 40
1.0
 40
1.0
 10
26.0307952426
 20
72.8571551164
 30
0.0
 10
26.0627338469
 20
72.9696494672
 30
0.0
 10
26.125737007
 20
73.1914120647
 30
0.0
 10
26.1839350856
 20
73.41450185
 30
0.0
 10
26.211421049
 20
73.5247176189
 30
0.0
  0
SPLINE
  5
424
100
AcDbEntity
  8
0
100
AcDbSpline
 62
7
  6
CONTINUOUS
 70
0
 71
3
 72
15
 73
11
 74
0
 42
0.0000001
 43
0.0000001
 44
0.0000000001
 40
0.0
 40
0.0
 40
0.0
 40
0.0
 40
0.1827845667
 40
0.3543675159
 40
0.5118204647
 40
0.6523936731
 40
0.7735671266
 40
0.8730425874
 40
0.9488857243
 40
1.0
 40
1.0
 40
1.0
 40
1.0
 10
26.211421049
 20
73.5247176189
 30
0.0
 10
26.228645474
 20
73.5937857177
 30
0.0
 10
26.2612828028
 20
73.7278779658
 30
0.0
 10
26.3067964947
 20
73.9219379623
 30
0.0
 10
26.3464601016
 20
74.1004743756
 30
0.0
 10
26.3796225077
 20
74.2603304813
 30
0.0
 10
26.4064452996
 20
74.398421418
 30
0.0
 10
26.4263689335
 20
74.5121846897
 30
0.0
 10
26.4372037979
 20
74.5997346476
 30
0.0
 10
26.4401228148
 20
74.649158186
 30
0.0
 10
26.4401393291
 20
74.6690640738
 30
0.0
  0
SPLINE
  5
425
100
AcDbEntity
  8
0
100
AcDbSpline
 62
7
  6
CONTINUOUS
 70
0
 71
3
 72
17
 73
13
 74
0
 42
0.0000001
 43
0.0000001
 44
0.0000000001
 40
0.0
 40
0.0
 40
0.0
 40
0.0
 40
0.0204738715
 40
0.0485027763
 40
0.0838143271
 40
0.1260645575
 40
0.2298961043
 40
0.3565208995
 40
0.5015815356
 40
0.6603720415
 40
0.8282002367
 40
1.0
 40
1.0
 40
1.0
 40
1.0
 10
26.4401393291
 20
74.6690640738
 30
0.0
 10
26.4401216073
 20
74.6563781387
 30
0.0
 10
26.4374282708
 20
74.6263721528
 30
0.0
 10
26.4301213701
 20
74.5749741218
 30
0.0
 10
26.4195236306
 20
74.5104010716
 30
0.0
 10
26.4002512433
 20
74.3996734072
 30
0.0
 10
26.3674096293
 20
74.2338940196
 30
0.0
 10
26.3170224422
 20
74.0067319074
 30
0.0
 10
26.2564232499
 20
73.7469694674
 30
0.0
 10
26.1859577101
 20
73.4633246599
 30
0.0
 10
26.1104338164
 20
73.1638776254
 30
0.0
 10
26.0583649706
 20
72.9599729345
 30
0.0
 10
26.0307952426
 20
72.8571551164
 30
0.0
  0
SPLINE
  5
426
100
AcDbEntity
  8
0
100
AcDbSpline
 62
7
  6
CONTINUOUS
 70
0
 71
3
 72
45
 73
41
 74
0
 42
0.0000001
 43
0.0000001
 44
0.0000000001
 40
0.0
 40
0.0
 40
0.0
 40
0.0
 40
0.1258777498
 40
0.2517378702
 40
0.3146592367
 40
0.3775732264
 40
0.440478174
 40
0.5033718088
 40
0.5662509189
 40
0.6291107629
 40
0.6605312977
 40
0.6919439159
 40
0.7233468711
 40
0.7547377824
 40
0.7861132798
 40
0.8174683879
 40
0.8487952976
 40
0.8644443794
 40
0.8800807508
 40
0.8957008541
 40
0.9112994073
 40
0.9268681126
 40
0.934637216
 40
0.9423928006
 40
0.9501310371
 40
0.9578462292
 40
0.9655293552
 40
0.97316496
 40
0.9769566087
 40
0.9807231326
 40
0.9844545767
 40
0.9881338682
 40
0.9917282207
 40
0.993473558
 40
0.99516292
 40
0.9967648071
 40
0.9982140665
 40
0.9993786618
 40
0.9997670128
 40
1.0
 40
1.0
 40
1.0
 40
1.0
 10
12.3763875879
 20
74.0809903025
 30
0.0
 10
12.9176294464
 20
74.1004414597
 30
0.0
 10
14.0000215435
 20
74.1397821687
 30
0.0
 10
15.3529144049
 20
74.1900711183
 30
0.0
 10
16.4350585223
 20
74.231171225
 30
0.0
 10
17.2465136616
 20
74.2624712264
 30
0.0
 10
18.0578283824
 20
74.294311642
 30
0.0
 10
18.8689683757
 20
74.3267719194
 30
0.0
 10
19.679884816
 20
74.3599576993
 30
0.0
 10
20.3554706448
 20
74.3883384262
 30
0.0
 10
20.8957672975
 20
74.4115822788
 30
0.0
 10
21.3008317636
 20
74.4293185188
 30
0.0
 10
21.7057532505
 20
74.4474032829
 30
0.0
 10
22.1104966041
 20
74.465892701
 30
0.0
 10
22.5150117614
 20
74.4848607284
 30
0.0
 10
22.9192236675
 20
74.5044085422
 30
0.0
 10
23.2558210556
 20
74.521305665
 30
0.0
 10
23.5248482122
 20
74.5352997694
 30
0.0
 10
23.7263726622
 20
74.5460705229
 30
0.0
 10
23.9276614878
 20
74.5571717575
 30
0.0
 10
24.1286361173
 20
74.5686759644
 30
0.0
 10
24.2958612485
 20
74.5786897552
 30
0.0
 10
24.4293804972
 20
74.5870375801
 30
0.0
 10
24.5292614802
 20
74.593490808
 30
0.0
 10
24.6288946287
 20
74.6001780458
 30
0.0
 10
24.7281957816
 20
74.6071506232
 30
0.0
 10
24.8270283532
 20
74.6144824531
 30
0.0
 10
24.9089933205
 20
74.6209962367
 30
0.0
 10
24.9741288191
 20
74.6265482061
 30
0.0
 10
25.0225069275
 20
74.6309062563
 30
0.0
 10
25.0703761184
 20
74.6355175891
 30
0.0
 10
25.1174680682
 20
74.6404568065
 30
0.0
 10
25.1560101396
 20
74.6449750008
 30
0.0
 10
25.1859900111
 20
74.6489627248
 30
0.0
 10
25.2074262818
 20
74.6521326792
 30
0.0
 10
25.2275419445
 20
74.6555523308
 30
0.0
 10
25.2452919772
 20
74.6592273508
 30
0.0
 10
25.2577828733
 20
74.6627595435
 30
0.0
 10
25.2647902808
 20
74.6658993245
 30
0.0
 10
25.266692449
 20
74.6681101798
 30
0.0
 10
25.2668849442
 20
74.6690939554
 30
0.0
  0
SPLINE
  5
427
100
AcDbEntity
  8
0
100
AcDbSpline
 62
7
  6
CONTINUOUS
 70
0
 71
3
 72
9
 73
5
 74
0
 42
0.0000001
 43
0.0000001
 44
0.0000000001
 40
0.0
 40
0.0
 40
0.0
 40
0.0
 40
0.5006452788
 40
1.0
 40
1.0
 40
1.0
 40
1.0
 10
25.3024447807
 20
52.3724704928
 30
0.0
 10
25.3024573355
 20
51.7916315461
 30
0.0
 10
25.3832712224
 20
50.6298115606
 30
0.0
 10
25.6347978362
 20
49.4920856739
 30
0.0
 10
25.8026511095
 20
48.9375930719
 30
0.0
  0
SPLINE
  5
428
100
AcDbEntity
  8
0
100
AcDbSpline
 62
7
  6
CONTINUOUS
 70
0
 71
3
 72
16
 73
12
 74
0
 42
0.0000001
 43
0.0000001
 44
0.0000000001
 40
0.0
 40
0.0
 40
0.0
 40
0.0
 40
0.0312517115
 40
0.0625031302
 40
0.0937551184
 40
0.1250067918
 40
0.1875099937
 40
0.2500133047
 40
0.3750192284
 40
0.5000251043
 40
1.0
 40
1.0
 40
1.0
 40
1.0
 10
10.0645299932
 20
60.7009968147
 30
0.0
 10
10.0645292413
 20
60.7533975862
 30
0.0
 10
10.0638579738
 20
60.8581975285
 30
0.0
 10
10.0643378161
 20
61.0154013759
 30
0.0
 10
10.0659457865
 20
61.1725956572
 30
0.0
 10
10.0681589938
 20
61.38218712
 30
0.0
 10
10.0723371671
 20
61.6441595478
 30
0.0
 10
10.0816505065
 20
62.0632616672
 30
0.0
 10
10.0982458591
 20
62.5870221753
 30
0.0
 10
10.1538695044
 20
63.8433197986
 30
0.0
 10
10.2331025091
 20
64.8888659619
 30
0.0
 10
10.3173967696
 20
65.7229415992
 30
0.0
  0
LINE
  5
429
100
AcDbEntity
  8
0
100
AcDbLine
 62
7
  6
CONTINUOUS
 10
12.4427592826
 20
74.5486721941
 11
23.5427604751
 21
74.84040183
  0
SPLINE
  5
42A
100
AcDbEntity
  8
0
100
AcDbSpline
 62
7
  6
CONTINUOUS
 70
0
 71
3
 72
11
 73
7
 74
0
 42
0.0000001
 43
0.0000001
 44
0.0000000001
 40
0.0
 40
0.0
 40
0.0
 40
0.0
 40
0.2648371243
 40
0.5155218855
 40
0.7582151344
 40
1.0
 40
1.0
 40
1.0
 40
1.0
 10
12.3763875879
 20
74.0809903025
 30
0.0
 10
12.3311841204
 20
74.0784944736
 30
0.0
 10
12.2434934069
 20
74.0566059269
 30
0.0
 10
12.1326543602
 20
73.9865711247
 30
0.0
 10
12.0445970703
 20
73.8956233763
 30
0.0
 10
11.9994086253
 20
73.8255762118
 30
0.0
 10
11.9801124268
 20
73.7890253737
 30
0.0
  0
SPLINE
  5
42B
100
AcDbEntity
  8
0
100
AcDbSpline
 62
7
  6
CONTINUOUS
 70
0
 71
3
 72
9
 73
5
 74
0
 42
0.0000001
 43
0.0000001
 44
0.0000000001
 40
0.0
 40
0.0
 40
0.0
 40
0.0
 40
0.2414725288
 40
1.0
 40
1.0
 40
1.0
 40
1.0
 10
11.9801124268
 20
73.7890253737
 30
0.0
 10
11.9686235909
 20
73.7574523024
 30
0.0
 10
11.9228597029
 20
73.6260553302
 30
0.0
 10
11.8850342418
 20
73.4918245616
 30
0.0
 10
11.8619429818
 20
73.3888403712
 30
0.0
  0
ELLIPSE
  5
42C
100
AcDbEntity
  8
0
100
AcDbEllipse
 62
7
  6
CONTINUOUS
 10
29.5457100103
 20
60.7017039215
 30
0.0
 11
38.2577504154
 21
-0.0
 31
0.0
 40
0.3740848006
 41
1.6848228413
 42
1.7283554879
  0
ELLIPSE
  5
42D
100
AcDbEntity
  8
0
100
AcDbEllipse
 62
7
  6
CONTINUOUS
 10
29.4117229322
 20
60.7017039215
 30
0.0
 11
38.2483910697
 21
-0.0
 31
0.0
 40
0.3740848316
 41
1.6826409494
 42
1.7248483129
  0
ENDSEC
  0
SECTION
  2
OBJECTS
  0
DICTIONARY
  5
C
100
AcDbDictionary
280
0
281
1
  3
ACAD_GROUP
350
D
  3
ACAD_MLINESTYLE
350
17
  3
ACAD_LAYOUT
350
1A
  3
ACAD_PLOTSETTINGS
350
19
  3
ACAD_PLOTSTYLENAME
350
E
  0
DICTIONARY
  5
D
102
{ACAD_REACTORS
330
C
102
}
100
AcDbDictionary
280
0
281
1
  0
ACDBDICTIONARYWDFLT
  5
E
102
{ACAD_REACTORS
330
C
102
}
100
AcDbDictionary
281
1
  3
Normal
350
F
100
AcDbDictionaryWithDefault
340
F
  0
DICTIONARY
  5
17
102
{ACAD_REACTORS
330
C
102
}
100
AcDbDictionary
280
0
281
1
  3
Standard
350
18
  0
DICTIONARY
  5
19
102
{ACAD_REACTORS
330
C
102
}
100
AcDbDictionary
281
1
  0
DICTIONARY
  5
1A
102
{ACAD_REACTORS
330
C
102
}
100
AcDbDictionary
281
1
  3
Model
350
42E
  3
Layout1
350
42F
  0
ACDBPLACEHOLDER
  5
F
102
{ACAD_REACTORS
330
E
102
}
  0
MLINESTYLE
  5
18
102
{ACAD_REACTORS
330
17
102
}
100
AcDbMlineStyle
  2
STANDARD
 70
0
  3

 62
256
 51
90.0
 52
90.0
 71
2
 49
0.5
 62
256
  6
BYLAYER
 49
-0.5
 62
256
  6
BYLAYER
  0
LAYOUT
  5
42E
102
{ACAD_REACTORS
330
1A
102
}
100
AcDbPlotSettings
  1

  2
none_device
  4

  6

 40
0.0
 41
0.0
 42
0.0
 43
0.0
 44
210.0
 45
297.0
 46
0.0
 47
0.0
 48
0.0
 49
0.0
140
0.0
141
0.0
142
1.0
143
1.0
 70
1024
 72
1
 73
0
 74
0
  7

 75
0
147
1.0
148
0.0
149
0.0
100
AcDbLayout
  1
Model
 70
0
 71
0
 10
0.0
 20
0.0
 11
210.0
 21
297.0
 12
0.0
 22
0.0
 32
0.0
 14
0.0
 24
0.0
 34
0.0
 15
0.0
 25
0.0
 35
0.0
146
0.0
 13
0.0
 23
0.0
 33
0.0
 16
1.0
 26
0.0
 36
0.0
 17
0.0
 27
1.0
 37
0.0
 76
0
330
210
345
0
346
0
  0
LAYOUT
  5
42F
102
{ACAD_REACTORS
330
1A
102
}
100
AcDbPlotSettings
  1

  2
none_device
  4

  6

 40
0.0
 41
0.0
 42
0.0
 43
0.0
 44
210.0
 45
297.0
 46
0.0
 47
0.0
 48
0.0
 49
0.0
140
0.0
141
0.0
142
1.0
143
1.0
 70
0
 72
1
 73
0
 74
0
  7

 75
0
147
1.0
148
0.0
149
0.0
100
AcDbLayout
  1
Layout1
 70
0
 71
1
 10
0.0
 20
0.0
 11
210.0
 21
297.0
 12
0.0
 22
0.0
 32
0.0
 14
0.0
 24
0.0
 34
0.0
 15
0.0
 25
0.0
 35
0.0
146
0.0
 13
0.0
 23
0.0
 33
0.0
 16
1.0
 26
0.0
 36
0.0
 17
0.0
 27
1.0
 37
0.0
 76
0
330
211
345
0
346
0
  0
ENDSEC
  0
EOF
