  0
SECTION
  2
HEADER
  9
$ACADVER
  1
AC1009
  9
$DWGCODEPAGE
  3
ansi_1250
  9
$INSBASE
 10
0.0
 20
0.0
 30
0.0
  9
$EXTMIN
 10
-9.405512
 20
-8.566929
 30
0.0
  9
$EXTMAX
 10
13.625513
 20
11.393701
 30
0.0
  9
$LIMMIN
 10
0.0
 20
0.0
  9
$LIMMAX
 10
0.0
 20
0.0
  9
$ORTHOMODE
 70
     0
  9
$REGENMODE
 70
     1
  9
$FILLMODE
 70
     1
  9
$QTEXTMODE
 70
     0
  9
$MIRRTEXT
 70
     1
  9
$DRAGMODE
 70
     2
  9
$LTSCALE
 40
1.0
  9
$OSMODE
 70
     0
  9
$ATTMODE
 70
     1
  9
$TEXTSIZE
 40
0.2
  9
$TRACEWID
 40
0.05
  9
$TEXTSTYLE
  7
STANDARD
  9
$CLAYER
  8
0
  9
$CELTYPE
  6
CONTINUOUS
  9
$CECOLOR
 62
   256
  9
$DIMSCALE
 40
1.0
  9
$DIMASZ
 40
0.18
  9
$DIMEXO
 40
0.0625
  9
$DIMDLI
 40
0.38
  9
$DIMRND
 40
0.0
  9
$DIMDLE
 40
0.0
  9
$DIMEXE
 40
0.18
  9
$DIMTP
 40
0.0
  9
$DIMTM
 40
0.0
  9
$DIMTXT
 40
0.18
  9
$DIMCEN
 40
0.09
  9
$DIMTSZ
 40
0.0
  9
$DIMTOL
 70
     0
  9
$DIMLIM
 70
     0
  9
$DIMTIH
 70
     1
  9
$DIMTOH
 70
     1
  9
$DIMSE1
 70
     0
  9
$DIMSE2
 70
     0
  9
$DIMTAD
 70
     0
  9
$DIMZIN
 70
     0
  9
$DIMBLK
  1

  9
$DIMASO
 70
     1
  9
$DIMSHO
 70
     1
  9
$DIMPOST
  1

  9
$DIMAPOST
  1

  9
$DIMALT
 70
     0
  9
$DIMALTD
 70
     2
  9
$DIMALTF
 40
25.4
  9
$DIMLFAC
 40
1.0
  9
$DIMTOFL
 70
     0
  9
$DIMTVP
 40
0.0
  9
$DIMTIX
 70
     0
  9
$DIMSOXD
 70
     0
  9
$DIMSAH
 70
     0
  9
$DIMBLK1
  1

  9
$DIMBLK2
  1

  9
$DIMSTYLE
  2
STANDARD
  9
$DIMCLRD
 70
     0
  9
$DIMCLRE
 70
     0
  9
$DIMCLRT
 70
     0
  9
$DIMTFAC
 40
1.0
  9
$DIMGAP
 40
0.09
  9
$LUNITS
 70
     2
  9
$LUPREC
 70
     4
  9
$AXISMODE
 70
     0
  9
$AXISUNIT
 10
0.0
 20
0.0
  9
$SKETCHINC
 40
0.1
  9
$FILLETRAD
 40
0.0
  9
$AUNITS
 70
     0
  9
$AUPREC
 70
     0
  9
$MENU
  1
acad
  9
$ELEVATION
 40
0.0
  9
$PELEVATION
 40
0.0
  9
$THICKNESS
 40
0.0
  9
$LIMCHECK
 70
     0
  9
$BLIPMODE
 70
     1
  9
$CHAMFERA
 40
0.0
  9
$CHAMFERB
 40
0.0
  9
$SKPOLY
 70
     0
  9
$TDCREATE
 40
0.000000000
  9
$TDUPDATE
 40
0.000000000
  9
$TDINDWG
 40
0.0000000000
  9
$TDUSRTIMER
 40
0.0000000000
  9
$USRTIMER
 70
     1
  9
$ANGBASE
 50
0.0
  9
$ANGDIR
 70
     0
  9
$PDMODE
 70
     0
  9
$PDSIZE
 40
0.0
  9
$PLINEWID
 40
0.0
  9
$COORDS
 70
     0
  9
$SPLFRAME
 70
     0
  9
$SPLINETYPE
 70
     6
  9
$SPLINESEGS
 70
     8
  9
$ATTDIA
 70
     0
  9
$ATTREQ
 70
     1
  9
$HANDLING
 70
     1
  9
$HANDSEED
  5
CCD
  9
$SURFTAB1
 70
     6
  9
$SURFTAB2
 70
     6
  9
$SURFTYPE
 70
     6
  9
$SURFU
 70
     6
  9
$SURFV
 70
     6
  9
$UCSNAME
  2

  9
$UCSORG
 10
0.0
 20
0.0
 30
0.0
  9
$UCSXDIR
 10
1.0
 20
0.0
 30
0.0
  9
$UCSYDIR
 10
0.0
 20
1.0
 30
0.0
  9
$PUCSNAME
  2

  9
$PUCSORG
 10
0.0
 20
0.0
 30
0.0
  9
$PUCSXDIR
 10
1.0
 20
0.0
 30
0.0
  9
$PUCSYDIR
 10
0.0
 20
1.0
 30
0.0
  9
$USERI1
 70
     0
  9
$USERI2
 70
     0
  9
$USERI3
 70
     0
  9
$USERI4
 70
     0
  9
$USERI5
 70
     0
  9
$USERR1
 40
0.0
  9
$USERR2
 40
0.0
  9
$USERR3
 40
0.0
  9
$USERR4
 40
0.0
  9
$USERR5
 40
0.0
  9
$WORLDVIEW
 70
     1
  9
$SHADEDGE
 70
     3
  9
$SHADEDIF
 70
    70
  9
$TILEMODE
 70
     1
  9
$MAXACTVP
 70
    16
  9
$PINSBASE
 10
0.0
 20
0.0
 30
0.0
  9
$PLIMCHECK
 70
     0
  9
$PEXTMIN
 10
1.000000E+20
 20
1.000000E+20
 30
1.000000E+20
  9
$PEXTMAX
 10
-1.000000E+20
 20
-1.000000E+20
 30
-1.000000E+20
  9
$PLIMMIN
 10
0.0
 20
0.0
  9
$PLIMMAX
 10
12.0
 20
9.0
  9
$UNITMODE
 70
     0
  9
$VISRETAIN
 70
     0
  9
$PLINEGEN
 70
     1
  9
$PSLTSCALE
 70
     0
  9
$TREEDEPTH
 70
  3020
  0
ENDSEC
  0
SECTION
  2
TABLES
  0
TABLE
  2
VPORT
 70
     1
  0
VPORT
  2
*ACTIVE
 70
     0
 10
0.0
 20
0.0
 11
1.0
 21
1.0
 12
6.591288
 22
4.579184
 13
0.0
 23
0.0
 14
1.0
 24
1.0
 15
0.0
 25
0.0
 16
0.0
 26
0.0
 36
1.0
 17
0.0
 27
0.0
 37
0.0
 40
9.158369
 41
0.688564
 42
50.0
 43
0.0
 44
0.0
 50
0.0
 51
0.0
 71
     0
 72
   100
 73
     1
 74
     1
 75
     0
 76
     0
 77
     0
 78
     0
  0
ENDTAB
  0
TABLE
  2
LTYPE
 70
     5
  0
LTYPE
  2
CONTINUOUS
 70
    64
  3
Solid line
 72
    65
 73
     0
 40
0.0
  0
LTYPE
  2
CENTER
 70
    64
  3
Center ____ _ ____ _ ____ _ ____ _ ____ _ ____
 72
    65
 73
     4
 40
50.8
 49
31.75
 49
-6.35
 49
6.35
 49
-6.35
  0
LTYPE
  2
HIDDEN
 70
    64
  3
Hidden __ __ __ __ __ __ __ __ __ __ __ __ __ __
 72
    65
 73
     2
 40
9.525
 49
6.35
 49
-3.175
  0
LTYPE
  2
CENTER2
 70
    64
  3
Center (.5x) ___ _ ___ _ ___ _ ___ _ ___ _ ___
 72
    65
 73
     4
 40
28.575
 49
19.05
 49
-3.175
 49
3.175
 49
-3.175
  0
LTYPE
  2
HIDDEN2
 70
    64
  3
Hidden (.5x) _ _ _ _ _ _ _ _ _ _ _ _ _ _ _ _ _
 72
    65
 73
     2
 40
4.7625
 49
3.175
 49
-1.5875
  0
ENDTAB
  0
TABLE
  2
LAYER
 70
     1
  0
LAYER
  2
0
 70
     0
 62
     7
  6
CONTINUOUS
  0
ENDTAB
  0
TABLE
  2
STYLE
 70
     1
  0
STYLE
  2
STANDARD
 70
     0
 40
0.0
 41
1.0
 50
0.0
 71
     0
 42
0.0
  3
txt
  4

  0
ENDTAB
  0
TABLE
  2
VIEW
 70
     0
  0
ENDTAB
  0
TABLE
  2
UCS
 70
     0
  0
ENDTAB
  0
TABLE
  2
APPID
 70
     1
  0
APPID
  2
ACAD
 70
     0
  0
ENDTAB
  0
TABLE
  2
DIMSTYLE
 70
     1
  0
DIMSTYLE
  2
STANDARD
 70
     0
  3

  4

  5

  6

  7

 40
1.0
 41
0.18
 42
0.0625
 43
0.38
 44
0.18
 45
0.0
 46
0.0
 47
0.0
 48
0.0
 71
     0
 72
     0
 73
     1
 74
     1
 75
     0
 76
     0
 77
     0
 78
     0
140
0.18
141
0.09
142
0.0
143
25.4
144
1.0
145
0.0
146
1.0
147
0.09
170
     0
171
     2
172
     0
173
     0
174
     0
175
     0
176
     0
177
     0
178
     0
  0
ENDTAB
  0
ENDSEC
  0
SECTION
  2
BLOCKS
  0
ENDSEC
  0
SECTION
  2
ENTITIES
  0
LINE
  8
0
  6
CONTINUOUS
 62
     7
  5
6F9
 10
4.992126
 20
-2.877953
 30
0.0
 11
4.992126
 21
-1.956693
 31
0.0
  0
LINE
  8
0
  6
CONTINUOUS
 62
     7
  5
6FA
 10
4.992126
 20
-2.937118
 30
0.0
 11
4.992126
 21
-2.877953
 31
0.0
  0
LINE
  8
0
  6
CONTINUOUS
 62
     7
  5
6FB
 10
4.992126
 20
5.704724
 30
0.0
 11
4.992126
 21
5.763889
 31
0.0
  0
LINE
  8
0
  6
CONTINUOUS
 62
     7
  5
6FC
 10
4.992126
 20
4.783465
 30
0.0
 11
4.992126
 21
5.704724
 31
0.0
  0
LINE
  8
0
  6
CONTINUOUS
 62
     7
  5
6FD
 10
0.838583
 20
-0.854331
 30
0.0
 11
0.838583
 21
-0.26378
 31
0.0
  0
LINE
  8
0
  6
CONTINUOUS
 62
     7
  5
6FE
 10
0.838583
 20
-2.366142
 30
0.0
 11
0.838583
 21
-0.854331
 31
0.0
  0
LINE
  8
0
  6
CONTINUOUS
 62
     7
  5
6FF
 10
0.838583
 20
-2.956693
 30
0.0
 11
0.838583
 21
-2.366142
 31
0.0
  0
LINE
  8
0
  6
CONTINUOUS
 62
     7
  5
700
 10
0.0
 20
-2.956693
 30
0.0
 11
0.838583
 21
-2.956693
 31
0.0
  0
LINE
  8
0
  6
CONTINUOUS
 62
     7
  5
701
 10
0.0
 20
-2.366142
 30
0.0
 11
0.838583
 21
-2.366142
 31
0.0
  0
LINE
  8
0
  6
CONTINUOUS
 62
     7
  5
702
 10
0.0
 20
-2.366142
 30
0.0
 11
0.0
 21
-2.956693
 31
0.0
  0
LINE
  8
0
  6
CONTINUOUS
 62
     7
  5
703
 10
0.0
 20
-0.854331
 30
0.0
 11
0.838583
 21
-0.854331
 31
0.0
  0
LINE
  8
0
  6
CONTINUOUS
 62
     7
  5
704
 10
0.0
 20
-0.854331
 30
0.0
 11
0.0
 21
-2.366142
 31
0.0
  0
LINE
  8
0
  6
CONTINUOUS
 62
     7
  5
705
 10
0.0
 20
-0.26378
 30
0.0
 11
0.838583
 21
-0.26378
 31
0.0
  0
LINE
  8
0
  6
CONTINUOUS
 62
     7
  5
706
 10
0.0
 20
-0.26378
 30
0.0
 11
0.0
 21
-0.854331
 31
0.0
  0
LINE
  8
0
  6
CONTINUOUS
 62
     7
  5
707
 10
0.759843
 20
3.090551
 30
0.0
 11
0.759843
 21
-0.26378
 31
0.0
  0
LINE
  8
0
  6
CONTINUOUS
 62
     7
  5
708
 10
0.0
 20
3.090551
 30
0.0
 11
0.838583
 21
3.090551
 31
0.0
  0
LINE
  8
0
  6
CONTINUOUS
 62
     7
  5
709
 10
0.838583
 20
3.681102
 30
0.0
 11
0.838583
 21
5.192913
 31
0.0
  0
LINE
  8
0
  6
CONTINUOUS
 62
     7
  5
70A
 10
0.0
 20
5.192913
 30
0.0
 11
0.838583
 21
5.192913
 31
0.0
  0
LINE
  8
0
  6
CONTINUOUS
 62
     7
  5
70B
 10
0.0
 20
5.192913
 30
0.0
 11
0.0
 21
3.681102
 31
0.0
  0
LINE
  8
0
  6
CONTINUOUS
 62
     7
  5
70C
 10
0.0
 20
3.681102
 30
0.0
 11
0.838583
 21
3.681102
 31
0.0
  0
LINE
  8
0
  6
CONTINUOUS
 62
     7
  5
70D
 10
0.838583
 20
5.192913
 30
0.0
 11
0.838583
 21
5.783465
 31
0.0
  0
LINE
  8
0
  6
CONTINUOUS
 62
     7
  5
70E
 10
0.0
 20
5.783465
 30
0.0
 11
0.838583
 21
5.783465
 31
0.0
  0
LINE
  8
0
  6
CONTINUOUS
 62
     7
  5
70F
 10
0.0
 20
5.783465
 30
0.0
 11
0.0
 21
5.192913
 31
0.0
  0
LINE
  8
0
  6
CONTINUOUS
 62
     7
  5
710
 10
0.838583
 20
3.090551
 30
0.0
 11
0.838583
 21
3.681102
 31
0.0
  0
LINE
  8
0
  6
CONTINUOUS
 62
     7
  5
711
 10
0.0
 20
3.681102
 30
0.0
 11
0.0
 21
3.090551
 31
0.0
  0
LINE
  8
0
  6
CONTINUOUS
 62
     7
  5
712
 10
2.749016
 20
5.783465
 30
0.0
 11
0.838583
 21
5.766792
 31
0.0
  0
LINE
  8
0
  6
CONTINUOUS
 62
     7
  5
713
 10
2.749016
 20
5.783465
 30
0.0
 11
2.749016
 21
5.704724
 31
0.0
  0
LINE
  8
0
  6
CONTINUOUS
 62
     7
  5
714
 10
2.749016
 20
5.704724
 30
0.0
 11
2.749016
 21
-2.877953
 31
0.0
  0
LINE
  8
0
  6
CONTINUOUS
 62
     7
  5
715
 10
2.749016
 20
-2.956693
 30
0.0
 11
0.838583
 21
-2.940021
 31
0.0
  0
LINE
  8
0
  6
CONTINUOUS
 62
     7
  5
716
 10
2.749016
 20
-2.877953
 30
0.0
 11
2.749016
 21
-2.956693
 31
0.0
  0
LINE
  8
0
  6
CONTINUOUS
 62
     7
  5
717
 10
2.749016
 20
5.783465
 30
0.0
 11
4.992126
 21
5.763889
 31
0.0
  0
LINE
  8
0
  6
CONTINUOUS
 62
     7
  5
718
 10
2.749016
 20
-2.956693
 30
0.0
 11
4.992126
 21
-2.937118
 31
0.0
  0
LINE
  8
0
  6
CONTINUOUS
 62
     7
  5
719
 10
4.992126
 20
-2.956693
 30
0.0
 11
4.992126
 21
-2.937118
 31
0.0
  0
LINE
  8
0
  6
CONTINUOUS
 62
     7
  5
71A
 10
4.992126
 20
5.763889
 30
0.0
 11
4.992126
 21
5.783465
 31
0.0
  0
LINE
  8
0
  6
CONTINUOUS
 62
     7
  5
71B
 10
4.992126
 20
-1.956693
 30
0.0
 11
4.992126
 21
4.783465
 31
0.0
  0
LINE
  8
0
  6
CONTINUOUS
 62
     7
  5
71C
 10
8.213092
 20
1.22697
 30
0.0
 11
8.216105
 21
1.228375
 31
0.0
  0
LINE
  8
0
  6
CONTINUOUS
 62
     7
  5
71D
 10
8.065951
 20
1.158357
 30
0.0
 11
8.213092
 21
1.22697
 31
0.0
  0
LINE
  8
0
  6
CONTINUOUS
 62
     7
  5
71E
 10
7.965221
 20
1.111385
 30
0.0
 11
8.065951
 21
1.158357
 31
0.0
  0
LINE
  8
0
  6
CONTINUOUS
 62
     7
  5
71F
 10
6.830709
 20
0.582354
 30
0.0
 11
7.965221
 21
1.111385
 31
0.0
  0
LINE
  8
0
  6
CONTINUOUS
 62
     7
  5
720
 10
7.792879
 20
-2.069787
 30
0.0
 11
7.795814
 21
-2.071347
 31
0.0
  0
LINE
  8
0
  6
CONTINUOUS
 62
     7
  5
721
 10
7.64953
 20
-1.993567
 30
0.0
 11
7.792879
 21
-2.069787
 31
0.0
  0
LINE
  8
0
  6
CONTINUOUS
 62
     7
  5
722
 10
7.551397
 20
-1.941388
 30
0.0
 11
7.64953
 21
-1.993567
 31
0.0
  0
LINE
  8
0
  6
CONTINUOUS
 62
     7
  5
723
 10
6.830709
 20
-1.558192
 30
0.0
 11
7.551397
 21
-1.941388
 31
0.0
  0
LINE
  8
0
  6
CONTINUOUS
 62
     7
  5
724
 10
7.902576
 20
-1.280916
 30
0.0
 11
6.830709
 21
-0.710994
 31
0.0
  0
LINE
  8
0
  6
CONTINUOUS
 62
     7
  5
725
 10
8.00071
 20
-1.333094
 30
0.0
 11
7.902576
 21
-1.280916
 31
0.0
  0
LINE
  8
0
  6
CONTINUOUS
 62
     7
  5
726
 10
8.144058
 20
-1.409314
 30
0.0
 11
8.00071
 21
-1.333094
 31
0.0
  0
LINE
  8
0
  6
CONTINUOUS
 62
     7
  5
727
 10
8.146994
 20
-1.410875
 30
0.0
 11
8.144058
 21
-1.409314
 31
0.0
  0
LINE
  8
0
  6
CONTINUOUS
 62
     7
  5
728
 10
7.814376
 20
1.996727
 30
0.0
 11
7.864292
 21
1.889683
 31
0.0
  0
LINE
  8
0
  6
CONTINUOUS
 62
     7
  5
729
 10
7.814376
 20
1.996727
 30
0.0
 11
7.100748
 21
1.663957
 31
0.0
  0
LINE
  8
0
  6
CONTINUOUS
 62
     7
  5
72A
 10
7.814376
 20
1.996727
 30
0.0
 11
9.990521
 21
3.01148
 31
0.0
  0
LINE
  8
0
  6
CONTINUOUS
 62
     7
  5
72B
 10
8.180424
 20
1.211736
 30
0.0
 11
8.230339
 21
1.104692
 31
0.0
  0
LINE
  8
0
  6
CONTINUOUS
 62
     7
  5
72C
 10
7.516711
 20
0.771922
 30
0.0
 11
8.230339
 21
1.104692
 31
0.0
  0
LINE
  8
0
  6
CONTINUOUS
 62
     7
  5
72D
 10
10.406484
 20
2.119445
 30
0.0
 11
8.230339
 21
1.104692
 31
0.0
  0
LINE
  8
0
  6
CONTINUOUS
 62
     7
  5
72E
 10
10.46893
 20
2.171844
 30
0.0
 11
10.467565
 21
2.169924
 31
0.0
  0
LINE
  8
0
  6
CONTINUOUS
 62
     7
  5
72F
 10
10.467565
 20
2.169924
 30
0.0
 11
10.466171
 21
2.168025
 31
0.0
  0
LINE
  8
0
  6
CONTINUOUS
 62
     7
  5
730
 10
10.466171
 20
2.168025
 30
0.0
 11
10.464748
 21
2.166147
 31
0.0
  0
LINE
  8
0
  6
CONTINUOUS
 62
     7
  5
731
 10
10.464748
 20
2.166147
 30
0.0
 11
10.463298
 21
2.164291
 31
0.0
  0
LINE
  8
0
  6
CONTINUOUS
 62
     7
  5
732
 10
10.463298
 20
2.164291
 30
0.0
 11
10.46182
 21
2.162456
 31
0.0
  0
LINE
  8
0
  6
CONTINUOUS
 62
     7
  5
733
 10
10.46182
 20
2.162456
 30
0.0
 11
10.460314
 21
2.160644
 31
0.0
  0
LINE
  8
0
  6
CONTINUOUS
 62
     7
  5
734
 10
10.460314
 20
2.160644
 30
0.0
 11
10.458782
 21
2.158854
 31
0.0
  0
LINE
  8
0
  6
CONTINUOUS
 62
     7
  5
735
 10
10.458782
 20
2.158854
 30
0.0
 11
10.457223
 21
2.157088
 31
0.0
  0
LINE
  8
0
  6
CONTINUOUS
 62
     7
  5
736
 10
10.457223
 20
2.157088
 30
0.0
 11
10.455638
 21
2.155345
 31
0.0
  0
LINE
  8
0
  6
CONTINUOUS
 62
     7
  5
737
 10
10.455638
 20
2.155345
 30
0.0
 11
10.454027
 21
2.153626
 31
0.0
  0
LINE
  8
0
  6
CONTINUOUS
 62
     7
  5
738
 10
10.454027
 20
2.153626
 30
0.0
 11
10.452391
 21
2.151931
 31
0.0
  0
LINE
  8
0
  6
CONTINUOUS
 62
     7
  5
739
 10
10.452391
 20
2.151931
 30
0.0
 11
10.450729
 21
2.150261
 31
0.0
  0
LINE
  8
0
  6
CONTINUOUS
 62
     7
  5
73A
 10
10.450729
 20
2.150261
 30
0.0
 11
10.449042
 21
2.148616
 31
0.0
  0
LINE
  8
0
  6
CONTINUOUS
 62
     7
  5
73B
 10
10.449042
 20
2.148616
 30
0.0
 11
10.447331
 21
2.146997
 31
0.0
  0
LINE
  8
0
  6
CONTINUOUS
 62
     7
  5
73C
 10
10.447331
 20
2.146997
 30
0.0
 11
10.445596
 21
2.145403
 31
0.0
  0
LINE
  8
0
  6
CONTINUOUS
 62
     7
  5
73D
 10
10.445596
 20
2.145403
 30
0.0
 11
10.443838
 21
2.143835
 31
0.0
  0
LINE
  8
0
  6
CONTINUOUS
 62
     7
  5
73E
 10
10.443838
 20
2.143835
 30
0.0
 11
10.442056
 21
2.142294
 31
0.0
  0
LINE
  8
0
  6
CONTINUOUS
 62
     7
  5
73F
 10
10.442056
 20
2.142294
 30
0.0
 11
10.440251
 21
2.14078
 31
0.0
  0
LINE
  8
0
  6
CONTINUOUS
 62
     7
  5
740
 10
10.440251
 20
2.14078
 30
0.0
 11
10.438424
 21
2.139293
 31
0.0
  0
LINE
  8
0
  6
CONTINUOUS
 62
     7
  5
741
 10
10.438424
 20
2.139293
 30
0.0
 11
10.436575
 21
2.137833
 31
0.0
  0
LINE
  8
0
  6
CONTINUOUS
 62
     7
  5
742
 10
10.436575
 20
2.137833
 30
0.0
 11
10.434704
 21
2.136401
 31
0.0
  0
LINE
  8
0
  6
CONTINUOUS
 62
     7
  5
743
 10
10.434704
 20
2.136401
 30
0.0
 11
10.432812
 21
2.134998
 31
0.0
  0
LINE
  8
0
  6
CONTINUOUS
 62
     7
  5
744
 10
10.432812
 20
2.134998
 30
0.0
 11
10.430899
 21
2.133622
 31
0.0
  0
LINE
  8
0
  6
CONTINUOUS
 62
     7
  5
745
 10
10.430899
 20
2.133622
 30
0.0
 11
10.428966
 21
2.132276
 31
0.0
  0
LINE
  8
0
  6
CONTINUOUS
 62
     7
  5
746
 10
10.428966
 20
2.132276
 30
0.0
 11
10.427013
 21
2.130958
 31
0.0
  0
LINE
  8
0
  6
CONTINUOUS
 62
     7
  5
747
 10
10.427013
 20
2.130958
 30
0.0
 11
10.42504
 21
2.12967
 31
0.0
  0
LINE
  8
0
  6
CONTINUOUS
 62
     7
  5
748
 10
10.42504
 20
2.12967
 30
0.0
 11
10.423049
 21
2.128412
 31
0.0
  0
LINE
  8
0
  6
CONTINUOUS
 62
     7
  5
749
 10
10.423049
 20
2.128412
 30
0.0
 11
10.421038
 21
2.127184
 31
0.0
  0
LINE
  8
0
  6
CONTINUOUS
 62
     7
  5
74A
 10
10.421038
 20
2.127184
 30
0.0
 11
10.41901
 21
2.125985
 31
0.0
  0
LINE
  8
0
  6
CONTINUOUS
 62
     7
  5
74B
 10
10.41901
 20
2.125985
 30
0.0
 11
10.416964
 21
2.124818
 31
0.0
  0
LINE
  8
0
  6
CONTINUOUS
 62
     7
  5
74C
 10
10.416964
 20
2.124818
 30
0.0
 11
10.414901
 21
2.123681
 31
0.0
  0
LINE
  8
0
  6
CONTINUOUS
 62
     7
  5
74D
 10
10.414901
 20
2.123681
 30
0.0
 11
10.412821
 21
2.122575
 31
0.0
  0
LINE
  8
0
  6
CONTINUOUS
 62
     7
  5
74E
 10
10.412821
 20
2.122575
 30
0.0
 11
10.410724
 21
2.1215
 31
0.0
  0
LINE
  8
0
  6
CONTINUOUS
 62
     7
  5
74F
 10
10.410724
 20
2.1215
 30
0.0
 11
10.408612
 21
2.120457
 31
0.0
  0
LINE
  8
0
  6
CONTINUOUS
 62
     7
  5
750
 10
10.408612
 20
2.120457
 30
0.0
 11
10.406484
 21
2.119445
 31
0.0
  0
LINE
  8
0
  6
CONTINUOUS
 62
     7
  5
751
 10
10.732239
 20
2.547888
 30
0.0
 11
10.46893
 21
2.171844
 31
0.0
  0
LINE
  8
0
  6
CONTINUOUS
 62
     7
  5
752
 10
10.747851
 20
2.560987
 30
0.0
 11
10.747319
 21
2.560735
 31
0.0
  0
LINE
  8
0
  6
CONTINUOUS
 62
     7
  5
753
 10
10.747319
 20
2.560735
 30
0.0
 11
10.746791
 21
2.560474
 31
0.0
  0
LINE
  8
0
  6
CONTINUOUS
 62
     7
  5
754
 10
10.746791
 20
2.560474
 30
0.0
 11
10.746267
 21
2.560205
 31
0.0
  0
LINE
  8
0
  6
CONTINUOUS
 62
     7
  5
755
 10
10.746267
 20
2.560205
 30
0.0
 11
10.745747
 21
2.559929
 31
0.0
  0
LINE
  8
0
  6
CONTINUOUS
 62
     7
  5
756
 10
10.745747
 20
2.559929
 30
0.0
 11
10.745231
 21
2.559644
 31
0.0
  0
LINE
  8
0
  6
CONTINUOUS
 62
     7
  5
757
 10
10.745231
 20
2.559644
 30
0.0
 11
10.744719
 21
2.559352
 31
0.0
  0
LINE
  8
0
  6
CONTINUOUS
 62
     7
  5
758
 10
10.744719
 20
2.559352
 30
0.0
 11
10.744212
 21
2.559053
 31
0.0
  0
LINE
  8
0
  6
CONTINUOUS
 62
     7
  5
759
 10
10.744212
 20
2.559053
 30
0.0
 11
10.74371
 21
2.558746
 31
0.0
  0
LINE
  8
0
  6
CONTINUOUS
 62
     7
  5
75A
 10
10.74371
 20
2.558746
 30
0.0
 11
10.743212
 21
2.558431
 31
0.0
  0
LINE
  8
0
  6
CONTINUOUS
 62
     7
  5
75B
 10
10.743212
 20
2.558431
 30
0.0
 11
10.742719
 21
2.558109
 31
0.0
  0
LINE
  8
0
  6
CONTINUOUS
 62
     7
  5
75C
 10
10.742719
 20
2.558109
 30
0.0
 11
10.74223
 21
2.55778
 31
0.0
  0
LINE
  8
0
  6
CONTINUOUS
 62
     7
  5
75D
 10
10.74223
 20
2.55778
 30
0.0
 11
10.741747
 21
2.557443
 31
0.0
  0
LINE
  8
0
  6
CONTINUOUS
 62
     7
  5
75E
 10
10.741747
 20
2.557443
 30
0.0
 11
10.741269
 21
2.557099
 31
0.0
  0
LINE
  8
0
  6
CONTINUOUS
 62
     7
  5
75F
 10
10.741269
 20
2.557099
 30
0.0
 11
10.740796
 21
2.556748
 31
0.0
  0
LINE
  8
0
  6
CONTINUOUS
 62
     7
  5
760
 10
10.740796
 20
2.556748
 30
0.0
 11
10.740328
 21
2.55639
 31
0.0
  0
LINE
  8
0
  6
CONTINUOUS
 62
     7
  5
761
 10
10.740328
 20
2.55639
 30
0.0
 11
10.739866
 21
2.556025
 31
0.0
  0
LINE
  8
0
  6
CONTINUOUS
 62
     7
  5
762
 10
10.739866
 20
2.556025
 30
0.0
 11
10.739409
 21
2.555654
 31
0.0
  0
LINE
  8
0
  6
CONTINUOUS
 62
     7
  5
763
 10
10.739409
 20
2.555654
 30
0.0
 11
10.738958
 21
2.555275
 31
0.0
  0
LINE
  8
0
  6
CONTINUOUS
 62
     7
  5
764
 10
10.738958
 20
2.555275
 30
0.0
 11
10.738512
 21
2.55489
 31
0.0
  0
LINE
  8
0
  6
CONTINUOUS
 62
     7
  5
765
 10
10.738512
 20
2.55489
 30
0.0
 11
10.738073
 21
2.554498
 31
0.0
  0
LINE
  8
0
  6
CONTINUOUS
 62
     7
  5
766
 10
10.738073
 20
2.554498
 30
0.0
 11
10.737639
 21
2.554099
 31
0.0
  0
LINE
  8
0
  6
CONTINUOUS
 62
     7
  5
767
 10
10.737639
 20
2.554099
 30
0.0
 11
10.737211
 21
2.553695
 31
0.0
  0
LINE
  8
0
  6
CONTINUOUS
 62
     7
  5
768
 10
10.737211
 20
2.553695
 30
0.0
 11
10.73679
 21
2.553283
 31
0.0
  0
LINE
  8
0
  6
CONTINUOUS
 62
     7
  5
769
 10
10.73679
 20
2.553283
 30
0.0
 11
10.736374
 21
2.552866
 31
0.0
  0
LINE
  8
0
  6
CONTINUOUS
 62
     7
  5
76A
 10
10.736374
 20
2.552866
 30
0.0
 11
10.735965
 21
2.552442
 31
0.0
  0
LINE
  8
0
  6
CONTINUOUS
 62
     7
  5
76B
 10
10.735965
 20
2.552442
 30
0.0
 11
10.735562
 21
2.552012
 31
0.0
  0
LINE
  8
0
  6
CONTINUOUS
 62
     7
  5
76C
 10
10.735562
 20
2.552012
 30
0.0
 11
10.735166
 21
2.551577
 31
0.0
  0
LINE
  8
0
  6
CONTINUOUS
 62
     7
  5
76D
 10
10.735166
 20
2.551577
 30
0.0
 11
10.734776
 21
2.551135
 31
0.0
  0
LINE
  8
0
  6
CONTINUOUS
 62
     7
  5
76E
 10
10.734776
 20
2.551135
 30
0.0
 11
10.734393
 21
2.550688
 31
0.0
  0
LINE
  8
0
  6
CONTINUOUS
 62
     7
  5
76F
 10
10.734393
 20
2.550688
 30
0.0
 11
10.734017
 21
2.550235
 31
0.0
  0
LINE
  8
0
  6
CONTINUOUS
 62
     7
  5
770
 10
10.734017
 20
2.550235
 30
0.0
 11
10.733648
 21
2.549776
 31
0.0
  0
LINE
  8
0
  6
CONTINUOUS
 62
     7
  5
771
 10
10.733648
 20
2.549776
 30
0.0
 11
10.733285
 21
2.549312
 31
0.0
  0
LINE
  8
0
  6
CONTINUOUS
 62
     7
  5
772
 10
10.733285
 20
2.549312
 30
0.0
 11
10.732929
 21
2.548842
 31
0.0
  0
LINE
  8
0
  6
CONTINUOUS
 62
     7
  5
773
 10
10.732929
 20
2.548842
 30
0.0
 11
10.732581
 21
2.548368
 31
0.0
  0
LINE
  8
0
  6
CONTINUOUS
 62
     7
  5
774
 10
10.732581
 20
2.548368
 30
0.0
 11
10.732239
 21
2.547888
 31
0.0
  0
LINE
  8
0
  6
CONTINUOUS
 62
     7
  5
775
 10
12.656866
 20
3.451176
 30
0.0
 11
10.747851
 21
2.560987
 31
0.0
  0
LINE
  8
0
  6
CONTINUOUS
 62
     7
  5
776
 10
12.57229
 20
3.542058
 30
0.0
 11
12.574427
 21
3.539218
 31
0.0
  0
LINE
  8
0
  6
CONTINUOUS
 62
     7
  5
777
 10
12.574427
 20
3.539218
 30
0.0
 11
12.576581
 21
3.536391
 31
0.0
  0
LINE
  8
0
  6
CONTINUOUS
 62
     7
  5
778
 10
12.576581
 20
3.536391
 30
0.0
 11
12.578752
 21
3.533578
 31
0.0
  0
LINE
  8
0
  6
CONTINUOUS
 62
     7
  5
779
 10
12.578752
 20
3.533578
 30
0.0
 11
12.580941
 21
3.530778
 31
0.0
  0
LINE
  8
0
  6
CONTINUOUS
 62
     7
  5
77A
 10
12.580941
 20
3.530778
 30
0.0
 11
12.583147
 21
3.527991
 31
0.0
  0
LINE
  8
0
  6
CONTINUOUS
 62
     7
  5
77B
 10
12.583147
 20
3.527991
 30
0.0
 11
12.58537
 21
3.525218
 31
0.0
  0
LINE
  8
0
  6
CONTINUOUS
 62
     7
  5
77C
 10
12.58537
 20
3.525218
 30
0.0
 11
12.58761
 21
3.522459
 31
0.0
  0
LINE
  8
0
  6
CONTINUOUS
 62
     7
  5
77D
 10
12.58761
 20
3.522459
 30
0.0
 11
12.589866
 21
3.519714
 31
0.0
  0
LINE
  8
0
  6
CONTINUOUS
 62
     7
  5
77E
 10
12.589866
 20
3.519714
 30
0.0
 11
12.59214
 21
3.516982
 31
0.0
  0
LINE
  8
0
  6
CONTINUOUS
 62
     7
  5
77F
 10
12.59214
 20
3.516982
 30
0.0
 11
12.59443
 21
3.514265
 31
0.0
  0
LINE
  8
0
  6
CONTINUOUS
 62
     7
  5
780
 10
12.59443
 20
3.514265
 30
0.0
 11
12.596737
 21
3.511561
 31
0.0
  0
LINE
  8
0
  6
CONTINUOUS
 62
     7
  5
781
 10
12.596737
 20
3.511561
 30
0.0
 11
12.599061
 21
3.508872
 31
0.0
  0
LINE
  8
0
  6
CONTINUOUS
 62
     7
  5
782
 10
12.599061
 20
3.508872
 30
0.0
 11
12.601401
 21
3.506198
 31
0.0
  0
LINE
  8
0
  6
CONTINUOUS
 62
     7
  5
783
 10
12.601401
 20
3.506198
 30
0.0
 11
12.603757
 21
3.503537
 31
0.0
  0
LINE
  8
0
  6
CONTINUOUS
 62
     7
  5
784
 10
12.603757
 20
3.503537
 30
0.0
 11
12.60613
 21
3.500891
 31
0.0
  0
LINE
  8
0
  6
CONTINUOUS
 62
     7
  5
785
 10
12.60613
 20
3.500891
 30
0.0
 11
12.608519
 21
3.49826
 31
0.0
  0
LINE
  8
0
  6
CONTINUOUS
 62
     7
  5
786
 10
12.608519
 20
3.49826
 30
0.0
 11
12.610924
 21
3.495644
 31
0.0
  0
LINE
  8
0
  6
CONTINUOUS
 62
     7
  5
787
 10
12.610924
 20
3.495644
 30
0.0
 11
12.613345
 21
3.493042
 31
0.0
  0
LINE
  8
0
  6
CONTINUOUS
 62
     7
  5
788
 10
12.613345
 20
3.493042
 30
0.0
 11
12.615782
 21
3.490456
 31
0.0
  0
LINE
  8
0
  6
CONTINUOUS
 62
     7
  5
789
 10
12.615782
 20
3.490456
 30
0.0
 11
12.618235
 21
3.487884
 31
0.0
  0
LINE
  8
0
  6
CONTINUOUS
 62
     7
  5
78A
 10
12.618235
 20
3.487884
 30
0.0
 11
12.620704
 21
3.485327
 31
0.0
  0
LINE
  8
0
  6
CONTINUOUS
 62
     7
  5
78B
 10
12.620704
 20
3.485327
 30
0.0
 11
12.623188
 21
3.482786
 31
0.0
  0
LINE
  8
0
  6
CONTINUOUS
 62
     7
  5
78C
 10
12.623188
 20
3.482786
 30
0.0
 11
12.625688
 21
3.48026
 31
0.0
  0
LINE
  8
0
  6
CONTINUOUS
 62
     7
  5
78D
 10
12.625688
 20
3.48026
 30
0.0
 11
12.628203
 21
3.477749
 31
0.0
  0
LINE
  8
0
  6
CONTINUOUS
 62
     7
  5
78E
 10
12.628203
 20
3.477749
 30
0.0
 11
12.630734
 21
3.475254
 31
0.0
  0
LINE
  8
0
  6
CONTINUOUS
 62
     7
  5
78F
 10
12.630734
 20
3.475254
 30
0.0
 11
12.63328
 21
3.472775
 31
0.0
  0
LINE
  8
0
  6
CONTINUOUS
 62
     7
  5
790
 10
12.63328
 20
3.472775
 30
0.0
 11
12.635841
 21
3.470311
 31
0.0
  0
LINE
  8
0
  6
CONTINUOUS
 62
     7
  5
791
 10
12.635841
 20
3.470311
 30
0.0
 11
12.638418
 21
3.467863
 31
0.0
  0
LINE
  8
0
  6
CONTINUOUS
 62
     7
  5
792
 10
12.638418
 20
3.467863
 30
0.0
 11
12.641009
 21
3.46543
 31
0.0
  0
LINE
  8
0
  6
CONTINUOUS
 62
     7
  5
793
 10
12.641009
 20
3.46543
 30
0.0
 11
12.643615
 21
3.463014
 31
0.0
  0
LINE
  8
0
  6
CONTINUOUS
 62
     7
  5
794
 10
12.643615
 20
3.463014
 30
0.0
 11
12.646236
 21
3.460614
 31
0.0
  0
LINE
  8
0
  6
CONTINUOUS
 62
     7
  5
795
 10
12.646236
 20
3.460614
 30
0.0
 11
12.648872
 21
3.45823
 31
0.0
  0
LINE
  8
0
  6
CONTINUOUS
 62
     7
  5
796
 10
12.648872
 20
3.45823
 30
0.0
 11
12.651522
 21
3.455862
 31
0.0
  0
LINE
  8
0
  6
CONTINUOUS
 62
     7
  5
797
 10
12.651522
 20
3.455862
 30
0.0
 11
12.654187
 21
3.453511
 31
0.0
  0
LINE
  8
0
  6
CONTINUOUS
 62
     7
  5
798
 10
12.654187
 20
3.453511
 30
0.0
 11
12.656866
 21
3.451176
 31
0.0
  0
LINE
  8
0
  6
CONTINUOUS
 62
     7
  5
799
 10
10.697935
 20
2.668032
 30
0.0
 11
12.57229
 21
3.542058
 31
0.0
  0
LINE
  8
0
  6
CONTINUOUS
 62
     7
  5
79A
 10
10.635489
 20
2.615633
 30
0.0
 11
10.636855
 21
2.617553
 31
0.0
  0
LINE
  8
0
  6
CONTINUOUS
 62
     7
  5
79B
 10
10.636855
 20
2.617553
 30
0.0
 11
10.638249
 21
2.619452
 31
0.0
  0
LINE
  8
0
  6
CONTINUOUS
 62
     7
  5
79C
 10
10.638249
 20
2.619452
 30
0.0
 11
10.639672
 21
2.62133
 31
0.0
  0
LINE
  8
0
  6
CONTINUOUS
 62
     7
  5
79D
 10
10.639672
 20
2.62133
 30
0.0
 11
10.641122
 21
2.623186
 31
0.0
  0
LINE
  8
0
  6
CONTINUOUS
 62
     7
  5
79E
 10
10.641122
 20
2.623186
 30
0.0
 11
10.6426
 21
2.625021
 31
0.0
  0
LINE
  8
0
  6
CONTINUOUS
 62
     7
  5
79F
 10
10.6426
 20
2.625021
 30
0.0
 11
10.644105
 21
2.626833
 31
0.0
  0
LINE
  8
0
  6
CONTINUOUS
 62
     7
  5
7A0
 10
10.644105
 20
2.626833
 30
0.0
 11
10.645638
 21
2.628622
 31
0.0
  0
LINE
  8
0
  6
CONTINUOUS
 62
     7
  5
7A1
 10
10.645638
 20
2.628622
 30
0.0
 11
10.647196
 21
2.630389
 31
0.0
  0
LINE
  8
0
  6
CONTINUOUS
 62
     7
  5
7A2
 10
10.647196
 20
2.630389
 30
0.0
 11
10.648781
 21
2.632132
 31
0.0
  0
LINE
  8
0
  6
CONTINUOUS
 62
     7
  5
7A3
 10
10.648781
 20
2.632132
 30
0.0
 11
10.650392
 21
2.633851
 31
0.0
  0
LINE
  8
0
  6
CONTINUOUS
 62
     7
  5
7A4
 10
10.650392
 20
2.633851
 30
0.0
 11
10.652029
 21
2.635545
 31
0.0
  0
LINE
  8
0
  6
CONTINUOUS
 62
     7
  5
7A5
 10
10.652029
 20
2.635545
 30
0.0
 11
10.653691
 21
2.637215
 31
0.0
  0
LINE
  8
0
  6
CONTINUOUS
 62
     7
  5
7A6
 10
10.653691
 20
2.637215
 30
0.0
 11
10.655377
 21
2.63886
 31
0.0
  0
LINE
  8
0
  6
CONTINUOUS
 62
     7
  5
7A7
 10
10.655377
 20
2.63886
 30
0.0
 11
10.657088
 21
2.64048
 31
0.0
  0
LINE
  8
0
  6
CONTINUOUS
 62
     7
  5
7A8
 10
10.657088
 20
2.64048
 30
0.0
 11
10.658823
 21
2.642074
 31
0.0
  0
LINE
  8
0
  6
CONTINUOUS
 62
     7
  5
7A9
 10
10.658823
 20
2.642074
 30
0.0
 11
10.660582
 21
2.643641
 31
0.0
  0
LINE
  8
0
  6
CONTINUOUS
 62
     7
  5
7AA
 10
10.660582
 20
2.643641
 30
0.0
 11
10.662364
 21
2.645182
 31
0.0
  0
LINE
  8
0
  6
CONTINUOUS
 62
     7
  5
7AB
 10
10.662364
 20
2.645182
 30
0.0
 11
10.664168
 21
2.646697
 31
0.0
  0
LINE
  8
0
  6
CONTINUOUS
 62
     7
  5
7AC
 10
10.664168
 20
2.646697
 30
0.0
 11
10.665995
 21
2.648184
 31
0.0
  0
LINE
  8
0
  6
CONTINUOUS
 62
     7
  5
7AD
 10
10.665995
 20
2.648184
 30
0.0
 11
10.667845
 21
2.649644
 31
0.0
  0
LINE
  8
0
  6
CONTINUOUS
 62
     7
  5
7AE
 10
10.667845
 20
2.649644
 30
0.0
 11
10.669715
 21
2.651075
 31
0.0
  0
LINE
  8
0
  6
CONTINUOUS
 62
     7
  5
7AF
 10
10.669715
 20
2.651075
 30
0.0
 11
10.671607
 21
2.652479
 31
0.0
  0
LINE
  8
0
  6
CONTINUOUS
 62
     7
  5
7B0
 10
10.671607
 20
2.652479
 30
0.0
 11
10.67352
 21
2.653854
 31
0.0
  0
LINE
  8
0
  6
CONTINUOUS
 62
     7
  5
7B1
 10
10.67352
 20
2.653854
 30
0.0
 11
10.675453
 21
2.655201
 31
0.0
  0
LINE
  8
0
  6
CONTINUOUS
 62
     7
  5
7B2
 10
10.675453
 20
2.655201
 30
0.0
 11
10.677407
 21
2.656518
 31
0.0
  0
LINE
  8
0
  6
CONTINUOUS
 62
     7
  5
7B3
 10
10.677407
 20
2.656518
 30
0.0
 11
10.679379
 21
2.657806
 31
0.0
  0
LINE
  8
0
  6
CONTINUOUS
 62
     7
  5
7B4
 10
10.679379
 20
2.657806
 30
0.0
 11
10.681371
 21
2.659065
 31
0.0
  0
LINE
  8
0
  6
CONTINUOUS
 62
     7
  5
7B5
 10
10.681371
 20
2.659065
 30
0.0
 11
10.683381
 21
2.660293
 31
0.0
  0
LINE
  8
0
  6
CONTINUOUS
 62
     7
  5
7B6
 10
10.683381
 20
2.660293
 30
0.0
 11
10.685409
 21
2.661491
 31
0.0
  0
LINE
  8
0
  6
CONTINUOUS
 62
     7
  5
7B7
 10
10.685409
 20
2.661491
 30
0.0
 11
10.687456
 21
2.662659
 31
0.0
  0
LINE
  8
0
  6
CONTINUOUS
 62
     7
  5
7B8
 10
10.687456
 20
2.662659
 30
0.0
 11
10.689519
 21
2.663796
 31
0.0
  0
LINE
  8
0
  6
CONTINUOUS
 62
     7
  5
7B9
 10
10.689519
 20
2.663796
 30
0.0
 11
10.691599
 21
2.664902
 31
0.0
  0
LINE
  8
0
  6
CONTINUOUS
 62
     7
  5
7BA
 10
10.691599
 20
2.664902
 30
0.0
 11
10.693695
 21
2.665977
 31
0.0
  0
LINE
  8
0
  6
CONTINUOUS
 62
     7
  5
7BB
 10
10.693695
 20
2.665977
 30
0.0
 11
10.695808
 21
2.66702
 31
0.0
  0
LINE
  8
0
  6
CONTINUOUS
 62
     7
  5
7BC
 10
10.695808
 20
2.66702
 30
0.0
 11
10.697935
 21
2.668032
 31
0.0
  0
LINE
  8
0
  6
CONTINUOUS
 62
     7
  5
7BD
 10
10.37218
 20
2.239589
 30
0.0
 11
10.635489
 21
2.615633
 31
0.0
  0
LINE
  8
0
  6
CONTINUOUS
 62
     7
  5
7BE
 10
10.356569
 20
2.226489
 30
0.0
 11
10.357101
 21
2.226742
 31
0.0
  0
LINE
  8
0
  6
CONTINUOUS
 62
     7
  5
7BF
 10
10.357101
 20
2.226742
 30
0.0
 11
10.357629
 21
2.227003
 31
0.0
  0
LINE
  8
0
  6
CONTINUOUS
 62
     7
  5
7C0
 10
10.357629
 20
2.227003
 30
0.0
 11
10.358153
 21
2.227272
 31
0.0
  0
LINE
  8
0
  6
CONTINUOUS
 62
     7
  5
7C1
 10
10.358153
 20
2.227272
 30
0.0
 11
10.358673
 21
2.227548
 31
0.0
  0
LINE
  8
0
  6
CONTINUOUS
 62
     7
  5
7C2
 10
10.358673
 20
2.227548
 30
0.0
 11
10.359189
 21
2.227832
 31
0.0
  0
LINE
  8
0
  6
CONTINUOUS
 62
     7
  5
7C3
 10
10.359189
 20
2.227832
 30
0.0
 11
10.3597
 21
2.228124
 31
0.0
  0
LINE
  8
0
  6
CONTINUOUS
 62
     7
  5
7C4
 10
10.3597
 20
2.228124
 30
0.0
 11
10.360207
 21
2.228424
 31
0.0
  0
LINE
  8
0
  6
CONTINUOUS
 62
     7
  5
7C5
 10
10.360207
 20
2.228424
 30
0.0
 11
10.36071
 21
2.228731
 31
0.0
  0
LINE
  8
0
  6
CONTINUOUS
 62
     7
  5
7C6
 10
10.36071
 20
2.228731
 30
0.0
 11
10.361208
 21
2.229046
 31
0.0
  0
LINE
  8
0
  6
CONTINUOUS
 62
     7
  5
7C7
 10
10.361208
 20
2.229046
 30
0.0
 11
10.361701
 21
2.229368
 31
0.0
  0
LINE
  8
0
  6
CONTINUOUS
 62
     7
  5
7C8
 10
10.361701
 20
2.229368
 30
0.0
 11
10.362189
 21
2.229697
 31
0.0
  0
LINE
  8
0
  6
CONTINUOUS
 62
     7
  5
7C9
 10
10.362189
 20
2.229697
 30
0.0
 11
10.362672
 21
2.230034
 31
0.0
  0
LINE
  8
0
  6
CONTINUOUS
 62
     7
  5
7CA
 10
10.362672
 20
2.230034
 30
0.0
 11
10.363151
 21
2.230377
 31
0.0
  0
LINE
  8
0
  6
CONTINUOUS
 62
     7
  5
7CB
 10
10.363151
 20
2.230377
 30
0.0
 11
10.363624
 21
2.230728
 31
0.0
  0
LINE
  8
0
  6
CONTINUOUS
 62
     7
  5
7CC
 10
10.363624
 20
2.230728
 30
0.0
 11
10.364091
 21
2.231086
 31
0.0
  0
LINE
  8
0
  6
CONTINUOUS
 62
     7
  5
7CD
 10
10.364091
 20
2.231086
 30
0.0
 11
10.364554
 21
2.231451
 31
0.0
  0
LINE
  8
0
  6
CONTINUOUS
 62
     7
  5
7CE
 10
10.364554
 20
2.231451
 30
0.0
 11
10.36501
 21
2.231823
 31
0.0
  0
LINE
  8
0
  6
CONTINUOUS
 62
     7
  5
7CF
 10
10.36501
 20
2.231823
 30
0.0
 11
10.365462
 21
2.232202
 31
0.0
  0
LINE
  8
0
  6
CONTINUOUS
 62
     7
  5
7D0
 10
10.365462
 20
2.232202
 30
0.0
 11
10.365907
 21
2.232587
 31
0.0
  0
LINE
  8
0
  6
CONTINUOUS
 62
     7
  5
7D1
 10
10.365907
 20
2.232587
 30
0.0
 11
10.366347
 21
2.232979
 31
0.0
  0
LINE
  8
0
  6
CONTINUOUS
 62
     7
  5
7D2
 10
10.366347
 20
2.232979
 30
0.0
 11
10.36678
 21
2.233377
 31
0.0
  0
LINE
  8
0
  6
CONTINUOUS
 62
     7
  5
7D3
 10
10.36678
 20
2.233377
 30
0.0
 11
10.367208
 21
2.233782
 31
0.0
  0
LINE
  8
0
  6
CONTINUOUS
 62
     7
  5
7D4
 10
10.367208
 20
2.233782
 30
0.0
 11
10.36763
 21
2.234193
 31
0.0
  0
LINE
  8
0
  6
CONTINUOUS
 62
     7
  5
7D5
 10
10.36763
 20
2.234193
 30
0.0
 11
10.368045
 21
2.234611
 31
0.0
  0
LINE
  8
0
  6
CONTINUOUS
 62
     7
  5
7D6
 10
10.368045
 20
2.234611
 30
0.0
 11
10.368454
 21
2.235034
 31
0.0
  0
LINE
  8
0
  6
CONTINUOUS
 62
     7
  5
7D7
 10
10.368454
 20
2.235034
 30
0.0
 11
10.368857
 21
2.235464
 31
0.0
  0
LINE
  8
0
  6
CONTINUOUS
 62
     7
  5
7D8
 10
10.368857
 20
2.235464
 30
0.0
 11
10.369253
 21
2.2359
 31
0.0
  0
LINE
  8
0
  6
CONTINUOUS
 62
     7
  5
7D9
 10
10.369253
 20
2.2359
 30
0.0
 11
10.369643
 21
2.236342
 31
0.0
  0
LINE
  8
0
  6
CONTINUOUS
 62
     7
  5
7DA
 10
10.369643
 20
2.236342
 30
0.0
 11
10.370026
 21
2.236789
 31
0.0
  0
LINE
  8
0
  6
CONTINUOUS
 62
     7
  5
7DB
 10
10.370026
 20
2.236789
 30
0.0
 11
10.370402
 21
2.237242
 31
0.0
  0
LINE
  8
0
  6
CONTINUOUS
 62
     7
  5
7DC
 10
10.370402
 20
2.237242
 30
0.0
 11
10.370772
 21
2.237701
 31
0.0
  0
LINE
  8
0
  6
CONTINUOUS
 62
     7
  5
7DD
 10
10.370772
 20
2.237701
 30
0.0
 11
10.371135
 21
2.238165
 31
0.0
  0
LINE
  8
0
  6
CONTINUOUS
 62
     7
  5
7DE
 10
10.371135
 20
2.238165
 30
0.0
 11
10.37149
 21
2.238634
 31
0.0
  0
LINE
  8
0
  6
CONTINUOUS
 62
     7
  5
7DF
 10
10.37149
 20
2.238634
 30
0.0
 11
10.371839
 21
2.239109
 31
0.0
  0
LINE
  8
0
  6
CONTINUOUS
 62
     7
  5
7E0
 10
10.371839
 20
2.239109
 30
0.0
 11
10.37218
 21
2.239589
 31
0.0
  0
LINE
  8
0
  6
CONTINUOUS
 62
     7
  5
7E1
 10
8.216105
 20
1.228375
 30
0.0
 11
10.356569
 21
2.226489
 31
0.0
  0
LINE
  8
0
  6
CONTINUOUS
 62
     7
  5
7E2
 10
10.040437
 20
2.904436
 30
0.0
 11
7.899973
 21
1.906321
 31
0.0
  0
LINE
  8
0
  6
CONTINUOUS
 62
     7
  5
7E3
 10
10.060507
 20
2.907975
 30
0.0
 11
10.05992
 21
2.908022
 31
0.0
  0
LINE
  8
0
  6
CONTINUOUS
 62
     7
  5
7E4
 10
10.05992
 20
2.908022
 30
0.0
 11
10.059332
 21
2.90806
 31
0.0
  0
LINE
  8
0
  6
CONTINUOUS
 62
     7
  5
7E5
 10
10.059332
 20
2.90806
 30
0.0
 11
10.058744
 21
2.908089
 31
0.0
  0
LINE
  8
0
  6
CONTINUOUS
 62
     7
  5
7E6
 10
10.058744
 20
2.908089
 30
0.0
 11
10.058155
 21
2.90811
 31
0.0
  0
LINE
  8
0
  6
CONTINUOUS
 62
     7
  5
7E7
 10
10.058155
 20
2.90811
 30
0.0
 11
10.057566
 21
2.908122
 31
0.0
  0
LINE
  8
0
  6
CONTINUOUS
 62
     7
  5
7E8
 10
10.057566
 20
2.908122
 30
0.0
 11
10.056977
 21
2.908125
 31
0.0
  0
LINE
  8
0
  6
CONTINUOUS
 62
     7
  5
7E9
 10
10.056977
 20
2.908125
 30
0.0
 11
10.056388
 21
2.908119
 31
0.0
  0
LINE
  8
0
  6
CONTINUOUS
 62
     7
  5
7EA
 10
10.056388
 20
2.908119
 30
0.0
 11
10.055799
 21
2.908104
 31
0.0
  0
LINE
  8
0
  6
CONTINUOUS
 62
     7
  5
7EB
 10
10.055799
 20
2.908104
 30
0.0
 11
10.055211
 21
2.908081
 31
0.0
  0
LINE
  8
0
  6
CONTINUOUS
 62
     7
  5
7EC
 10
10.055211
 20
2.908081
 30
0.0
 11
10.054623
 21
2.908048
 31
0.0
  0
LINE
  8
0
  6
CONTINUOUS
 62
     7
  5
7ED
 10
10.054623
 20
2.908048
 30
0.0
 11
10.054035
 21
2.908007
 31
0.0
  0
LINE
  8
0
  6
CONTINUOUS
 62
     7
  5
7EE
 10
10.054035
 20
2.908007
 30
0.0
 11
10.053448
 21
2.907957
 31
0.0
  0
LINE
  8
0
  6
CONTINUOUS
 62
     7
  5
7EF
 10
10.053448
 20
2.907957
 30
0.0
 11
10.052862
 21
2.907899
 31
0.0
  0
LINE
  8
0
  6
CONTINUOUS
 62
     7
  5
7F0
 10
10.052862
 20
2.907899
 30
0.0
 11
10.052277
 21
2.907831
 31
0.0
  0
LINE
  8
0
  6
CONTINUOUS
 62
     7
  5
7F1
 10
10.052277
 20
2.907831
 30
0.0
 11
10.051693
 21
2.907755
 31
0.0
  0
LINE
  8
0
  6
CONTINUOUS
 62
     7
  5
7F2
 10
10.051693
 20
2.907755
 30
0.0
 11
10.051111
 21
2.90767
 31
0.0
  0
LINE
  8
0
  6
CONTINUOUS
 62
     7
  5
7F3
 10
10.051111
 20
2.90767
 30
0.0
 11
10.050529
 21
2.907577
 31
0.0
  0
LINE
  8
0
  6
CONTINUOUS
 62
     7
  5
7F4
 10
10.050529
 20
2.907577
 30
0.0
 11
10.049949
 21
2.907474
 31
0.0
  0
LINE
  8
0
  6
CONTINUOUS
 62
     7
  5
7F5
 10
10.049949
 20
2.907474
 30
0.0
 11
10.049371
 21
2.907363
 31
0.0
  0
LINE
  8
0
  6
CONTINUOUS
 62
     7
  5
7F6
 10
10.049371
 20
2.907363
 30
0.0
 11
10.048794
 21
2.907244
 31
0.0
  0
LINE
  8
0
  6
CONTINUOUS
 62
     7
  5
7F7
 10
10.048794
 20
2.907244
 30
0.0
 11
10.048219
 21
2.907116
 31
0.0
  0
LINE
  8
0
  6
CONTINUOUS
 62
     7
  5
7F8
 10
10.048219
 20
2.907116
 30
0.0
 11
10.047646
 21
2.906979
 31
0.0
  0
LINE
  8
0
  6
CONTINUOUS
 62
     7
  5
7F9
 10
10.047646
 20
2.906979
 30
0.0
 11
10.047075
 21
2.906834
 31
0.0
  0
LINE
  8
0
  6
CONTINUOUS
 62
     7
  5
7FA
 10
10.047075
 20
2.906834
 30
0.0
 11
10.046507
 21
2.90668
 31
0.0
  0
LINE
  8
0
  6
CONTINUOUS
 62
     7
  5
7FB
 10
10.046507
 20
2.90668
 30
0.0
 11
10.045941
 21
2.906517
 31
0.0
  0
LINE
  8
0
  6
CONTINUOUS
 62
     7
  5
7FC
 10
10.045941
 20
2.906517
 30
0.0
 11
10.045377
 21
2.906347
 31
0.0
  0
LINE
  8
0
  6
CONTINUOUS
 62
     7
  5
7FD
 10
10.045377
 20
2.906347
 30
0.0
 11
10.044816
 21
2.906167
 31
0.0
  0
LINE
  8
0
  6
CONTINUOUS
 62
     7
  5
7FE
 10
10.044816
 20
2.906167
 30
0.0
 11
10.044258
 21
2.90598
 31
0.0
  0
LINE
  8
0
  6
CONTINUOUS
 62
     7
  5
7FF
 10
10.044258
 20
2.90598
 30
0.0
 11
10.043702
 21
2.905784
 31
0.0
  0
LINE
  8
0
  6
CONTINUOUS
 62
     7
  5
800
 10
10.043702
 20
2.905784
 30
0.0
 11
10.04315
 21
2.90558
 31
0.0
  0
LINE
  8
0
  6
CONTINUOUS
 62
     7
  5
801
 10
10.04315
 20
2.90558
 30
0.0
 11
10.042601
 21
2.905367
 31
0.0
  0
LINE
  8
0
  6
CONTINUOUS
 62
     7
  5
802
 10
10.042601
 20
2.905367
 30
0.0
 11
10.042054
 21
2.905147
 31
0.0
  0
LINE
  8
0
  6
CONTINUOUS
 62
     7
  5
803
 10
10.042054
 20
2.905147
 30
0.0
 11
10.041512
 21
2.904918
 31
0.0
  0
LINE
  8
0
  6
CONTINUOUS
 62
     7
  5
804
 10
10.041512
 20
2.904918
 30
0.0
 11
10.040972
 21
2.904681
 31
0.0
  0
LINE
  8
0
  6
CONTINUOUS
 62
     7
  5
805
 10
10.040972
 20
2.904681
 30
0.0
 11
10.040437
 21
2.904436
 31
0.0
  0
LINE
  8
0
  6
CONTINUOUS
 62
     7
  5
806
 10
10.517825
 20
2.867965
 30
0.0
 11
10.060507
 21
2.907975
 31
0.0
  0
LINE
  8
0
  6
CONTINUOUS
 62
     7
  5
807
 10
10.598104
 20
2.88212
 30
0.0
 11
10.595962
 21
2.88114
 31
0.0
  0
LINE
  8
0
  6
CONTINUOUS
 62
     7
  5
808
 10
10.595962
 20
2.88114
 30
0.0
 11
10.593805
 21
2.880193
 31
0.0
  0
LINE
  8
0
  6
CONTINUOUS
 62
     7
  5
809
 10
10.593805
 20
2.880193
 30
0.0
 11
10.591634
 21
2.879278
 31
0.0
  0
LINE
  8
0
  6
CONTINUOUS
 62
     7
  5
80A
 10
10.591634
 20
2.879278
 30
0.0
 11
10.58945
 21
2.878395
 31
0.0
  0
LINE
  8
0
  6
CONTINUOUS
 62
     7
  5
80B
 10
10.58945
 20
2.878395
 30
0.0
 11
10.587252
 21
2.877546
 31
0.0
  0
LINE
  8
0
  6
CONTINUOUS
 62
     7
  5
80C
 10
10.587252
 20
2.877546
 30
0.0
 11
10.585043
 21
2.876729
 31
0.0
  0
LINE
  8
0
  6
CONTINUOUS
 62
     7
  5
80D
 10
10.585043
 20
2.876729
 30
0.0
 11
10.582821
 21
2.875945
 31
0.0
  0
LINE
  8
0
  6
CONTINUOUS
 62
     7
  5
80E
 10
10.582821
 20
2.875945
 30
0.0
 11
10.580588
 21
2.875195
 31
0.0
  0
LINE
  8
0
  6
CONTINUOUS
 62
     7
  5
80F
 10
10.580588
 20
2.875195
 30
0.0
 11
10.578343
 21
2.874478
 31
0.0
  0
LINE
  8
0
  6
CONTINUOUS
 62
     7
  5
810
 10
10.578343
 20
2.874478
 30
0.0
 11
10.576089
 21
2.873795
 31
0.0
  0
LINE
  8
0
  6
CONTINUOUS
 62
     7
  5
811
 10
10.576089
 20
2.873795
 30
0.0
 11
10.573824
 21
2.873146
 31
0.0
  0
LINE
  8
0
  6
CONTINUOUS
 62
     7
  5
812
 10
10.573824
 20
2.873146
 30
0.0
 11
10.57155
 21
2.87253
 31
0.0
  0
LINE
  8
0
  6
CONTINUOUS
 62
     7
  5
813
 10
10.57155
 20
2.87253
 30
0.0
 11
10.569267
 21
2.871949
 31
0.0
  0
LINE
  8
0
  6
CONTINUOUS
 62
     7
  5
814
 10
10.569267
 20
2.871949
 30
0.0
 11
10.566976
 21
2.871402
 31
0.0
  0
LINE
  8
0
  6
CONTINUOUS
 62
     7
  5
815
 10
10.566976
 20
2.871402
 30
0.0
 11
10.564676
 21
2.870889
 31
0.0
  0
LINE
  8
0
  6
CONTINUOUS
 62
     7
  5
816
 10
10.564676
 20
2.870889
 30
0.0
 11
10.562369
 21
2.870411
 31
0.0
  0
LINE
  8
0
  6
CONTINUOUS
 62
     7
  5
817
 10
10.562369
 20
2.870411
 30
0.0
 11
10.560056
 21
2.869967
 31
0.0
  0
LINE
  8
0
  6
CONTINUOUS
 62
     7
  5
818
 10
10.560056
 20
2.869967
 30
0.0
 11
10.557736
 21
2.869558
 31
0.0
  0
LINE
  8
0
  6
CONTINUOUS
 62
     7
  5
819
 10
10.557736
 20
2.869558
 30
0.0
 11
10.55541
 21
2.869183
 31
0.0
  0
LINE
  8
0
  6
CONTINUOUS
 62
     7
  5
81A
 10
10.55541
 20
2.869183
 30
0.0
 11
10.553078
 21
2.868844
 31
0.0
  0
LINE
  8
0
  6
CONTINUOUS
 62
     7
  5
81B
 10
10.553078
 20
2.868844
 30
0.0
 11
10.550742
 21
2.868539
 31
0.0
  0
LINE
  8
0
  6
CONTINUOUS
 62
     7
  5
81C
 10
10.550742
 20
2.868539
 30
0.0
 11
10.548402
 21
2.86827
 31
0.0
  0
LINE
  8
0
  6
CONTINUOUS
 62
     7
  5
81D
 10
10.548402
 20
2.86827
 30
0.0
 11
10.546058
 21
2.868035
 31
0.0
  0
LINE
  8
0
  6
CONTINUOUS
 62
     7
  5
81E
 10
10.546058
 20
2.868035
 30
0.0
 11
10.54371
 21
2.867836
 31
0.0
  0
LINE
  8
0
  6
CONTINUOUS
 62
     7
  5
81F
 10
10.54371
 20
2.867836
 30
0.0
 11
10.54136
 21
2.867671
 31
0.0
  0
LINE
  8
0
  6
CONTINUOUS
 62
     7
  5
820
 10
10.54136
 20
2.867671
 30
0.0
 11
10.539008
 21
2.867542
 31
0.0
  0
LINE
  8
0
  6
CONTINUOUS
 62
     7
  5
821
 10
10.539008
 20
2.867542
 30
0.0
 11
10.536654
 21
2.867448
 31
0.0
  0
LINE
  8
0
  6
CONTINUOUS
 62
     7
  5
822
 10
10.536654
 20
2.867448
 30
0.0
 11
10.534299
 21
2.867389
 31
0.0
  0
LINE
  8
0
  6
CONTINUOUS
 62
     7
  5
823
 10
10.534299
 20
2.867389
 30
0.0
 11
10.531943
 21
2.867366
 31
0.0
  0
LINE
  8
0
  6
CONTINUOUS
 62
     7
  5
824
 10
10.531943
 20
2.867366
 30
0.0
 11
10.529587
 21
2.867378
 31
0.0
  0
LINE
  8
0
  6
CONTINUOUS
 62
     7
  5
825
 10
10.529587
 20
2.867378
 30
0.0
 11
10.527232
 21
2.867425
 31
0.0
  0
LINE
  8
0
  6
CONTINUOUS
 62
     7
  5
826
 10
10.527232
 20
2.867425
 30
0.0
 11
10.524877
 21
2.867507
 31
0.0
  0
LINE
  8
0
  6
CONTINUOUS
 62
     7
  5
827
 10
10.524877
 20
2.867507
 30
0.0
 11
10.522524
 21
2.867624
 31
0.0
  0
LINE
  8
0
  6
CONTINUOUS
 62
     7
  5
828
 10
10.522524
 20
2.867624
 30
0.0
 11
10.520173
 21
2.867777
 31
0.0
  0
LINE
  8
0
  6
CONTINUOUS
 62
     7
  5
829
 10
10.520173
 20
2.867777
 30
0.0
 11
10.517825
 21
2.867965
 31
0.0
  0
LINE
  8
0
  6
CONTINUOUS
 62
     7
  5
82A
 10
12.472459
 20
3.756146
 30
0.0
 11
10.598104
 21
2.88212
 31
0.0
  0
LINE
  8
0
  6
CONTINUOUS
 62
     7
  5
82B
 10
12.457204
 20
3.879353
 30
0.0
 11
12.45727
 21
3.875799
 31
0.0
  0
LINE
  8
0
  6
CONTINUOUS
 62
     7
  5
82C
 10
12.45727
 20
3.875799
 30
0.0
 11
12.457359
 21
3.872247
 31
0.0
  0
LINE
  8
0
  6
CONTINUOUS
 62
     7
  5
82D
 10
12.457359
 20
3.872247
 30
0.0
 11
12.457469
 21
3.868694
 31
0.0
  0
LINE
  8
0
  6
CONTINUOUS
 62
     7
  5
82E
 10
12.457469
 20
3.868694
 30
0.0
 11
12.457601
 21
3.865143
 31
0.0
  0
LINE
  8
0
  6
CONTINUOUS
 62
     7
  5
82F
 10
12.457601
 20
3.865143
 30
0.0
 11
12.457755
 21
3.861592
 31
0.0
  0
LINE
  8
0
  6
CONTINUOUS
 62
     7
  5
830
 10
12.457755
 20
3.861592
 30
0.0
 11
12.457931
 21
3.858043
 31
0.0
  0
LINE
  8
0
  6
CONTINUOUS
 62
     7
  5
831
 10
12.457931
 20
3.858043
 30
0.0
 11
12.458128
 21
3.854494
 31
0.0
  0
LINE
  8
0
  6
CONTINUOUS
 62
     7
  5
832
 10
12.458128
 20
3.854494
 30
0.0
 11
12.458348
 21
3.850947
 31
0.0
  0
LINE
  8
0
  6
CONTINUOUS
 62
     7
  5
833
 10
12.458348
 20
3.850947
 30
0.0
 11
12.458589
 21
3.847401
 31
0.0
  0
LINE
  8
0
  6
CONTINUOUS
 62
     7
  5
834
 10
12.458589
 20
3.847401
 30
0.0
 11
12.458852
 21
3.843857
 31
0.0
  0
LINE
  8
0
  6
CONTINUOUS
 62
     7
  5
835
 10
12.458852
 20
3.843857
 30
0.0
 11
12.459136
 21
3.840315
 31
0.0
  0
LINE
  8
0
  6
CONTINUOUS
 62
     7
  5
836
 10
12.459136
 20
3.840315
 30
0.0
 11
12.459443
 21
3.836774
 31
0.0
  0
LINE
  8
0
  6
CONTINUOUS
 62
     7
  5
837
 10
12.459443
 20
3.836774
 30
0.0
 11
12.459771
 21
3.833235
 31
0.0
  0
LINE
  8
0
  6
CONTINUOUS
 62
     7
  5
838
 10
12.459771
 20
3.833235
 30
0.0
 11
12.460121
 21
3.829699
 31
0.0
  0
LINE
  8
0
  6
CONTINUOUS
 62
     7
  5
839
 10
12.460121
 20
3.829699
 30
0.0
 11
12.460492
 21
3.826164
 31
0.0
  0
LINE
  8
0
  6
CONTINUOUS
 62
     7
  5
83A
 10
12.460492
 20
3.826164
 30
0.0
 11
12.460886
 21
3.822632
 31
0.0
  0
LINE
  8
0
  6
CONTINUOUS
 62
     7
  5
83B
 10
12.460886
 20
3.822632
 30
0.0
 11
12.461301
 21
3.819103
 31
0.0
  0
LINE
  8
0
  6
CONTINUOUS
 62
     7
  5
83C
 10
12.461301
 20
3.819103
 30
0.0
 11
12.461738
 21
3.815576
 31
0.0
  0
LINE
  8
0
  6
CONTINUOUS
 62
     7
  5
83D
 10
12.461738
 20
3.815576
 30
0.0
 11
12.462196
 21
3.812052
 31
0.0
  0
LINE
  8
0
  6
CONTINUOUS
 62
     7
  5
83E
 10
12.462196
 20
3.812052
 30
0.0
 11
12.462676
 21
3.80853
 31
0.0
  0
LINE
  8
0
  6
CONTINUOUS
 62
     7
  5
83F
 10
12.462676
 20
3.80853
 30
0.0
 11
12.463178
 21
3.805012
 31
0.0
  0
LINE
  8
0
  6
CONTINUOUS
 62
     7
  5
840
 10
12.463178
 20
3.805012
 30
0.0
 11
12.463701
 21
3.801497
 31
0.0
  0
LINE
  8
0
  6
CONTINUOUS
 62
     7
  5
841
 10
12.463701
 20
3.801497
 30
0.0
 11
12.464246
 21
3.797985
 31
0.0
  0
LINE
  8
0
  6
CONTINUOUS
 62
     7
  5
842
 10
12.464246
 20
3.797985
 30
0.0
 11
12.464812
 21
3.794476
 31
0.0
  0
LINE
  8
0
  6
CONTINUOUS
 62
     7
  5
843
 10
12.464812
 20
3.794476
 30
0.0
 11
12.4654
 21
3.790971
 31
0.0
  0
LINE
  8
0
  6
CONTINUOUS
 62
     7
  5
844
 10
12.4654
 20
3.790971
 30
0.0
 11
12.466009
 21
3.78747
 31
0.0
  0
LINE
  8
0
  6
CONTINUOUS
 62
     7
  5
845
 10
12.466009
 20
3.78747
 30
0.0
 11
12.46664
 21
3.783973
 31
0.0
  0
LINE
  8
0
  6
CONTINUOUS
 62
     7
  5
846
 10
12.46664
 20
3.783973
 30
0.0
 11
12.467293
 21
3.780479
 31
0.0
  0
LINE
  8
0
  6
CONTINUOUS
 62
     7
  5
847
 10
12.467293
 20
3.780479
 30
0.0
 11
12.467967
 21
3.77699
 31
0.0
  0
LINE
  8
0
  6
CONTINUOUS
 62
     7
  5
848
 10
12.467967
 20
3.77699
 30
0.0
 11
12.468662
 21
3.773504
 31
0.0
  0
LINE
  8
0
  6
CONTINUOUS
 62
     7
  5
849
 10
12.468662
 20
3.773504
 30
0.0
 11
12.469379
 21
3.770024
 31
0.0
  0
LINE
  8
0
  6
CONTINUOUS
 62
     7
  5
84A
 10
12.469379
 20
3.770024
 30
0.0
 11
12.470117
 21
3.766547
 31
0.0
  0
LINE
  8
0
  6
CONTINUOUS
 62
     7
  5
84B
 10
12.470117
 20
3.766547
 30
0.0
 11
12.470876
 21
3.763075
 31
0.0
  0
LINE
  8
0
  6
CONTINUOUS
 62
     7
  5
84C
 10
12.470876
 20
3.763075
 30
0.0
 11
12.471657
 21
3.759608
 31
0.0
  0
LINE
  8
0
  6
CONTINUOUS
 62
     7
  5
84D
 10
12.471657
 20
3.759608
 30
0.0
 11
12.472459
 21
3.756146
 31
0.0
  0
LINE
  8
0
  6
CONTINUOUS
 62
     7
  5
84E
 10
10.548189
 20
2.989164
 30
0.0
 11
12.457204
 21
3.879353
 31
0.0
  0
LINE
  8
0
  6
CONTINUOUS
 62
     7
  5
84F
 10
10.528119
 20
2.985625
 30
0.0
 11
10.528706
 21
2.985579
 31
0.0
  0
LINE
  8
0
  6
CONTINUOUS
 62
     7
  5
850
 10
10.528706
 20
2.985579
 30
0.0
 11
10.529294
 21
2.98554
 31
0.0
  0
LINE
  8
0
  6
CONTINUOUS
 62
     7
  5
851
 10
10.529294
 20
2.98554
 30
0.0
 11
10.529882
 21
2.985511
 31
0.0
  0
LINE
  8
0
  6
CONTINUOUS
 62
     7
  5
852
 10
10.529882
 20
2.985511
 30
0.0
 11
10.530471
 21
2.98549
 31
0.0
  0
LINE
  8
0
  6
CONTINUOUS
 62
     7
  5
853
 10
10.530471
 20
2.98549
 30
0.0
 11
10.531059
 21
2.985479
 31
0.0
  0
LINE
  8
0
  6
CONTINUOUS
 62
     7
  5
854
 10
10.531059
 20
2.985479
 30
0.0
 11
10.531648
 21
2.985476
 31
0.0
  0
LINE
  8
0
  6
CONTINUOUS
 62
     7
  5
855
 10
10.531648
 20
2.985476
 30
0.0
 11
10.532237
 21
2.985482
 31
0.0
  0
LINE
  8
0
  6
CONTINUOUS
 62
     7
  5
856
 10
10.532237
 20
2.985482
 30
0.0
 11
10.532826
 21
2.985496
 31
0.0
  0
LINE
  8
0
  6
CONTINUOUS
 62
     7
  5
857
 10
10.532826
 20
2.985496
 30
0.0
 11
10.533415
 21
2.98552
 31
0.0
  0
LINE
  8
0
  6
CONTINUOUS
 62
     7
  5
858
 10
10.533415
 20
2.98552
 30
0.0
 11
10.534003
 21
2.985552
 31
0.0
  0
LINE
  8
0
  6
CONTINUOUS
 62
     7
  5
859
 10
10.534003
 20
2.985552
 30
0.0
 11
10.53459
 21
2.985593
 31
0.0
  0
LINE
  8
0
  6
CONTINUOUS
 62
     7
  5
85A
 10
10.53459
 20
2.985593
 30
0.0
 11
10.535177
 21
2.985643
 31
0.0
  0
LINE
  8
0
  6
CONTINUOUS
 62
     7
  5
85B
 10
10.535177
 20
2.985643
 30
0.0
 11
10.535763
 21
2.985702
 31
0.0
  0
LINE
  8
0
  6
CONTINUOUS
 62
     7
  5
85C
 10
10.535763
 20
2.985702
 30
0.0
 11
10.536348
 21
2.985769
 31
0.0
  0
LINE
  8
0
  6
CONTINUOUS
 62
     7
  5
85D
 10
10.536348
 20
2.985769
 30
0.0
 11
10.536932
 21
2.985845
 31
0.0
  0
LINE
  8
0
  6
CONTINUOUS
 62
     7
  5
85E
 10
10.536932
 20
2.985845
 30
0.0
 11
10.537515
 21
2.98593
 31
0.0
  0
LINE
  8
0
  6
CONTINUOUS
 62
     7
  5
85F
 10
10.537515
 20
2.98593
 30
0.0
 11
10.538097
 21
2.986024
 31
0.0
  0
LINE
  8
0
  6
CONTINUOUS
 62
     7
  5
860
 10
10.538097
 20
2.986024
 30
0.0
 11
10.538677
 21
2.986126
 31
0.0
  0
LINE
  8
0
  6
CONTINUOUS
 62
     7
  5
861
 10
10.538677
 20
2.986126
 30
0.0
 11
10.539255
 21
2.986237
 31
0.0
  0
LINE
  8
0
  6
CONTINUOUS
 62
     7
  5
862
 10
10.539255
 20
2.986237
 30
0.0
 11
10.539832
 21
2.986357
 31
0.0
  0
LINE
  8
0
  6
CONTINUOUS
 62
     7
  5
863
 10
10.539832
 20
2.986357
 30
0.0
 11
10.540407
 21
2.986485
 31
0.0
  0
LINE
  8
0
  6
CONTINUOUS
 62
     7
  5
864
 10
10.540407
 20
2.986485
 30
0.0
 11
10.540979
 21
2.986622
 31
0.0
  0
LINE
  8
0
  6
CONTINUOUS
 62
     7
  5
865
 10
10.540979
 20
2.986622
 30
0.0
 11
10.54155
 21
2.986767
 31
0.0
  0
LINE
  8
0
  6
CONTINUOUS
 62
     7
  5
866
 10
10.54155
 20
2.986767
 30
0.0
 11
10.542119
 21
2.986921
 31
0.0
  0
LINE
  8
0
  6
CONTINUOUS
 62
     7
  5
867
 10
10.542119
 20
2.986921
 30
0.0
 11
10.542685
 21
2.987083
 31
0.0
  0
LINE
  8
0
  6
CONTINUOUS
 62
     7
  5
868
 10
10.542685
 20
2.987083
 30
0.0
 11
10.543249
 21
2.987254
 31
0.0
  0
LINE
  8
0
  6
CONTINUOUS
 62
     7
  5
869
 10
10.543249
 20
2.987254
 30
0.0
 11
10.54381
 21
2.987433
 31
0.0
  0
LINE
  8
0
  6
CONTINUOUS
 62
     7
  5
86A
 10
10.54381
 20
2.987433
 30
0.0
 11
10.544368
 21
2.987621
 31
0.0
  0
LINE
  8
0
  6
CONTINUOUS
 62
     7
  5
86B
 10
10.544368
 20
2.987621
 30
0.0
 11
10.544923
 21
2.987817
 31
0.0
  0
LINE
  8
0
  6
CONTINUOUS
 62
     7
  5
86C
 10
10.544923
 20
2.987817
 30
0.0
 11
10.545476
 21
2.988021
 31
0.0
  0
LINE
  8
0
  6
CONTINUOUS
 62
     7
  5
86D
 10
10.545476
 20
2.988021
 30
0.0
 11
10.546025
 21
2.988233
 31
0.0
  0
LINE
  8
0
  6
CONTINUOUS
 62
     7
  5
86E
 10
10.546025
 20
2.988233
 30
0.0
 11
10.546571
 21
2.988454
 31
0.0
  0
LINE
  8
0
  6
CONTINUOUS
 62
     7
  5
86F
 10
10.546571
 20
2.988454
 30
0.0
 11
10.547114
 21
2.988683
 31
0.0
  0
LINE
  8
0
  6
CONTINUOUS
 62
     7
  5
870
 10
10.547114
 20
2.988683
 30
0.0
 11
10.547653
 21
2.988919
 31
0.0
  0
LINE
  8
0
  6
CONTINUOUS
 62
     7
  5
871
 10
10.547653
 20
2.988919
 30
0.0
 11
10.548189
 21
2.989164
 31
0.0
  0
LINE
  8
0
  6
CONTINUOUS
 62
     7
  5
872
 10
10.070801
 20
3.025636
 30
0.0
 11
10.528119
 21
2.985625
 31
0.0
  0
LINE
  8
0
  6
CONTINUOUS
 62
     7
  5
873
 10
9.990521
 20
3.01148
 30
0.0
 11
9.992664
 21
3.01246
 31
0.0
  0
LINE
  8
0
  6
CONTINUOUS
 62
     7
  5
874
 10
9.992664
 20
3.01246
 30
0.0
 11
9.994821
 21
3.013407
 31
0.0
  0
LINE
  8
0
  6
CONTINUOUS
 62
     7
  5
875
 10
9.994821
 20
3.013407
 30
0.0
 11
9.996992
 21
3.014322
 31
0.0
  0
LINE
  8
0
  6
CONTINUOUS
 62
     7
  5
876
 10
9.996992
 20
3.014322
 30
0.0
 11
9.999176
 21
3.015205
 31
0.0
  0
LINE
  8
0
  6
CONTINUOUS
 62
     7
  5
877
 10
9.999176
 20
3.015205
 30
0.0
 11
10.001373
 21
3.016055
 31
0.0
  0
LINE
  8
0
  6
CONTINUOUS
 62
     7
  5
878
 10
10.001373
 20
3.016055
 30
0.0
 11
10.003583
 21
3.016872
 31
0.0
  0
LINE
  8
0
  6
CONTINUOUS
 62
     7
  5
879
 10
10.003583
 20
3.016872
 30
0.0
 11
10.005805
 21
3.017655
 31
0.0
  0
LINE
  8
0
  6
CONTINUOUS
 62
     7
  5
87A
 10
10.005805
 20
3.017655
 30
0.0
 11
10.008038
 21
3.018405
 31
0.0
  0
LINE
  8
0
  6
CONTINUOUS
 62
     7
  5
87B
 10
10.008038
 20
3.018405
 30
0.0
 11
10.010282
 21
3.019122
 31
0.0
  0
LINE
  8
0
  6
CONTINUOUS
 62
     7
  5
87C
 10
10.010282
 20
3.019122
 30
0.0
 11
10.012537
 21
3.019805
 31
0.0
  0
LINE
  8
0
  6
CONTINUOUS
 62
     7
  5
87D
 10
10.012537
 20
3.019805
 30
0.0
 11
10.014801
 21
3.020455
 31
0.0
  0
LINE
  8
0
  6
CONTINUOUS
 62
     7
  5
87E
 10
10.014801
 20
3.020455
 30
0.0
 11
10.017075
 21
3.02107
 31
0.0
  0
LINE
  8
0
  6
CONTINUOUS
 62
     7
  5
87F
 10
10.017075
 20
3.02107
 30
0.0
 11
10.019359
 21
3.021652
 31
0.0
  0
LINE
  8
0
  6
CONTINUOUS
 62
     7
  5
880
 10
10.019359
 20
3.021652
 30
0.0
 11
10.02165
 21
3.022199
 31
0.0
  0
LINE
  8
0
  6
CONTINUOUS
 62
     7
  5
881
 10
10.02165
 20
3.022199
 30
0.0
 11
10.023949
 21
3.022711
 31
0.0
  0
LINE
  8
0
  6
CONTINUOUS
 62
     7
  5
882
 10
10.023949
 20
3.022711
 30
0.0
 11
10.026256
 21
3.02319
 31
0.0
  0
LINE
  8
0
  6
CONTINUOUS
 62
     7
  5
883
 10
10.026256
 20
3.02319
 30
0.0
 11
10.02857
 21
3.023634
 31
0.0
  0
LINE
  8
0
  6
CONTINUOUS
 62
     7
  5
884
 10
10.02857
 20
3.023634
 30
0.0
 11
10.03089
 21
3.024043
 31
0.0
  0
LINE
  8
0
  6
CONTINUOUS
 62
     7
  5
885
 10
10.03089
 20
3.024043
 30
0.0
 11
10.033216
 21
3.024417
 31
0.0
  0
LINE
  8
0
  6
CONTINUOUS
 62
     7
  5
886
 10
10.033216
 20
3.024417
 30
0.0
 11
10.035547
 21
3.024756
 31
0.0
  0
LINE
  8
0
  6
CONTINUOUS
 62
     7
  5
887
 10
10.035547
 20
3.024756
 30
0.0
 11
10.037883
 21
3.025061
 31
0.0
  0
LINE
  8
0
  6
CONTINUOUS
 62
     7
  5
888
 10
10.037883
 20
3.025061
 30
0.0
 11
10.040224
 21
3.025331
 31
0.0
  0
LINE
  8
0
  6
CONTINUOUS
 62
     7
  5
889
 10
10.040224
 20
3.025331
 30
0.0
 11
10.042568
 21
3.025565
 31
0.0
  0
LINE
  8
0
  6
CONTINUOUS
 62
     7
  5
88A
 10
10.042568
 20
3.025565
 30
0.0
 11
10.044915
 21
3.025765
 31
0.0
  0
LINE
  8
0
  6
CONTINUOUS
 62
     7
  5
88B
 10
10.044915
 20
3.025765
 30
0.0
 11
10.047265
 21
3.025929
 31
0.0
  0
LINE
  8
0
  6
CONTINUOUS
 62
     7
  5
88C
 10
10.047265
 20
3.025929
 30
0.0
 11
10.049618
 21
3.026058
 31
0.0
  0
LINE
  8
0
  6
CONTINUOUS
 62
     7
  5
88D
 10
10.049618
 20
3.026058
 30
0.0
 11
10.051972
 21
3.026152
 31
0.0
  0
LINE
  8
0
  6
CONTINUOUS
 62
     7
  5
88E
 10
10.051972
 20
3.026152
 30
0.0
 11
10.054327
 21
3.026211
 31
0.0
  0
LINE
  8
0
  6
CONTINUOUS
 62
     7
  5
88F
 10
10.054327
 20
3.026211
 30
0.0
 11
10.056683
 21
3.026234
 31
0.0
  0
LINE
  8
0
  6
CONTINUOUS
 62
     7
  5
890
 10
10.056683
 20
3.026234
 30
0.0
 11
10.059039
 21
3.026223
 31
0.0
  0
LINE
  8
0
  6
CONTINUOUS
 62
     7
  5
891
 10
10.059039
 20
3.026223
 30
0.0
 11
10.061394
 21
3.026176
 31
0.0
  0
LINE
  8
0
  6
CONTINUOUS
 62
     7
  5
892
 10
10.061394
 20
3.026176
 30
0.0
 11
10.063748
 21
3.026093
 31
0.0
  0
LINE
  8
0
  6
CONTINUOUS
 62
     7
  5
893
 10
10.063748
 20
3.026093
 30
0.0
 11
10.066101
 21
3.025976
 31
0.0
  0
LINE
  8
0
  6
CONTINUOUS
 62
     7
  5
894
 10
10.066101
 20
3.025976
 30
0.0
 11
10.068452
 21
3.025823
 31
0.0
  0
LINE
  8
0
  6
CONTINUOUS
 62
     7
  5
895
 10
10.068452
 20
3.025823
 30
0.0
 11
10.070801
 21
3.025636
 31
0.0
  0
LINE
  8
0
  6
CONTINUOUS
 62
     7
  5
896
 10
7.649089
 20
1.789332
 30
0.0
 11
6.830709
 21
1.407715
 31
0.0
  0
LINE
  8
0
  6
CONTINUOUS
 62
     7
  5
897
 10
7.749819
 20
1.836303
 30
0.0
 11
7.649089
 21
1.789332
 31
0.0
  0
LINE
  8
0
  6
CONTINUOUS
 62
     7
  5
898
 10
7.89696
 20
1.904916
 30
0.0
 11
7.749819
 21
1.836303
 31
0.0
  0
LINE
  8
0
  6
CONTINUOUS
 62
     7
  5
899
 10
7.899973
 20
1.906321
 30
0.0
 11
8.216105
 21
1.228375
 31
0.0
  0
LINE
  8
0
  6
CONTINUOUS
 62
     7
  5
89A
 10
7.899973
 20
1.906321
 30
0.0
 11
7.89696
 21
1.904916
 31
0.0
  0
LINE
  8
0
  6
CONTINUOUS
 62
     7
  5
89B
 10
8.167682
 20
-1.288106
 30
0.0
 11
8.112232
 21
-1.392392
 31
0.0
  0
LINE
  8
0
  6
CONTINUOUS
 62
     7
  5
89C
 10
8.167682
 20
-1.288106
 30
0.0
 11
7.472447
 21
-0.918444
 31
0.0
  0
LINE
  8
0
  6
CONTINUOUS
 62
     7
  5
89D
 10
8.167682
 20
-1.288106
 30
0.0
 11
10.287736
 21
-2.41536
 31
0.0
  0
LINE
  8
0
  6
CONTINUOUS
 62
     7
  5
89E
 10
7.761053
 20
-2.052864
 30
0.0
 11
7.705603
 21
-2.157149
 31
0.0
  0
LINE
  8
0
  6
CONTINUOUS
 62
     7
  5
89F
 10
7.010369
 20
-1.787487
 30
0.0
 11
7.705603
 21
-2.157149
 31
0.0
  0
LINE
  8
0
  6
CONTINUOUS
 62
     7
  5
8A0
 10
9.825658
 20
-3.284402
 30
0.0
 11
7.705603
 21
-2.157149
 31
0.0
  0
LINE
  8
0
  6
CONTINUOUS
 62
     7
  5
8A1
 10
9.905086
 20
-3.30274
 30
0.0
 11
9.902731
 21
-3.302805
 31
0.0
  0
LINE
  8
0
  6
CONTINUOUS
 62
     7
  5
8A2
 10
9.902731
 20
-3.302805
 30
0.0
 11
9.900376
 21
-3.302834
 31
0.0
  0
LINE
  8
0
  6
CONTINUOUS
 62
     7
  5
8A3
 10
9.900376
 20
-3.302834
 30
0.0
 11
9.89802
 21
-3.302828
 31
0.0
  0
LINE
  8
0
  6
CONTINUOUS
 62
     7
  5
8A4
 10
9.89802
 20
-3.302828
 30
0.0
 11
9.895664
 21
-3.302787
 31
0.0
  0
LINE
  8
0
  6
CONTINUOUS
 62
     7
  5
8A5
 10
9.895664
 20
-3.302787
 30
0.0
 11
9.89331
 21
-3.302711
 31
0.0
  0
LINE
  8
0
  6
CONTINUOUS
 62
     7
  5
8A6
 10
9.89331
 20
-3.302711
 30
0.0
 11
9.890956
 21
-3.302599
 31
0.0
  0
LINE
  8
0
  6
CONTINUOUS
 62
     7
  5
8A7
 10
9.890956
 20
-3.302599
 30
0.0
 11
9.888605
 21
-3.302452
 31
0.0
  0
LINE
  8
0
  6
CONTINUOUS
 62
     7
  5
8A8
 10
9.888605
 20
-3.302452
 30
0.0
 11
9.886256
 21
-3.30227
 31
0.0
  0
LINE
  8
0
  6
CONTINUOUS
 62
     7
  5
8A9
 10
9.886256
 20
-3.30227
 30
0.0
 11
9.88391
 21
-3.302053
 31
0.0
  0
LINE
  8
0
  6
CONTINUOUS
 62
     7
  5
8AA
 10
9.88391
 20
-3.302053
 30
0.0
 11
9.881568
 21
-3.301801
 31
0.0
  0
LINE
  8
0
  6
CONTINUOUS
 62
     7
  5
8AB
 10
9.881568
 20
-3.301801
 30
0.0
 11
9.87923
 21
-3.301514
 31
0.0
  0
LINE
  8
0
  6
CONTINUOUS
 62
     7
  5
8AC
 10
9.87923
 20
-3.301514
 30
0.0
 11
9.876896
 21
-3.301192
 31
0.0
  0
LINE
  8
0
  6
CONTINUOUS
 62
     7
  5
8AD
 10
9.876896
 20
-3.301192
 30
0.0
 11
9.874567
 21
-3.300835
 31
0.0
  0
LINE
  8
0
  6
CONTINUOUS
 62
     7
  5
8AE
 10
9.874567
 20
-3.300835
 30
0.0
 11
9.872244
 21
-3.300443
 31
0.0
  0
LINE
  8
0
  6
CONTINUOUS
 62
     7
  5
8AF
 10
9.872244
 20
-3.300443
 30
0.0
 11
9.869927
 21
-3.300017
 31
0.0
  0
LINE
  8
0
  6
CONTINUOUS
 62
     7
  5
8B0
 10
9.869927
 20
-3.300017
 30
0.0
 11
9.867617
 21
-3.299556
 31
0.0
  0
LINE
  8
0
  6
CONTINUOUS
 62
     7
  5
8B1
 10
9.867617
 20
-3.299556
 30
0.0
 11
9.865314
 21
-3.29906
 31
0.0
  0
LINE
  8
0
  6
CONTINUOUS
 62
     7
  5
8B2
 10
9.865314
 20
-3.29906
 30
0.0
 11
9.863018
 21
-3.29853
 31
0.0
  0
LINE
  8
0
  6
CONTINUOUS
 62
     7
  5
8B3
 10
9.863018
 20
-3.29853
 30
0.0
 11
9.860731
 21
-3.297966
 31
0.0
  0
LINE
  8
0
  6
CONTINUOUS
 62
     7
  5
8B4
 10
9.860731
 20
-3.297966
 30
0.0
 11
9.858452
 21
-3.297368
 31
0.0
  0
LINE
  8
0
  6
CONTINUOUS
 62
     7
  5
8B5
 10
9.858452
 20
-3.297368
 30
0.0
 11
9.856183
 21
-3.296735
 31
0.0
  0
LINE
  8
0
  6
CONTINUOUS
 62
     7
  5
8B6
 10
9.856183
 20
-3.296735
 30
0.0
 11
9.853923
 21
-3.296069
 31
0.0
  0
LINE
  8
0
  6
CONTINUOUS
 62
     7
  5
8B7
 10
9.853923
 20
-3.296069
 30
0.0
 11
9.851674
 21
-3.295369
 31
0.0
  0
LINE
  8
0
  6
CONTINUOUS
 62
     7
  5
8B8
 10
9.851674
 20
-3.295369
 30
0.0
 11
9.849435
 21
-3.294635
 31
0.0
  0
LINE
  8
0
  6
CONTINUOUS
 62
     7
  5
8B9
 10
9.849435
 20
-3.294635
 30
0.0
 11
9.847207
 21
-3.293868
 31
0.0
  0
LINE
  8
0
  6
CONTINUOUS
 62
     7
  5
8BA
 10
9.847207
 20
-3.293868
 30
0.0
 11
9.844992
 21
-3.293068
 31
0.0
  0
LINE
  8
0
  6
CONTINUOUS
 62
     7
  5
8BB
 10
9.844992
 20
-3.293068
 30
0.0
 11
9.842788
 21
-3.292235
 31
0.0
  0
LINE
  8
0
  6
CONTINUOUS
 62
     7
  5
8BC
 10
9.842788
 20
-3.292235
 30
0.0
 11
9.840597
 21
-3.291369
 31
0.0
  0
LINE
  8
0
  6
CONTINUOUS
 62
     7
  5
8BD
 10
9.840597
 20
-3.291369
 30
0.0
 11
9.83842
 21
-3.29047
 31
0.0
  0
LINE
  8
0
  6
CONTINUOUS
 62
     7
  5
8BE
 10
9.83842
 20
-3.29047
 30
0.0
 11
9.836256
 21
-3.289539
 31
0.0
  0
LINE
  8
0
  6
CONTINUOUS
 62
     7
  5
8BF
 10
9.836256
 20
-3.289539
 30
0.0
 11
9.834106
 21
-3.288575
 31
0.0
  0
LINE
  8
0
  6
CONTINUOUS
 62
     7
  5
8C0
 10
9.834106
 20
-3.288575
 30
0.0
 11
9.831971
 21
-3.287579
 31
0.0
  0
LINE
  8
0
  6
CONTINUOUS
 62
     7
  5
8C1
 10
9.831971
 20
-3.287579
 30
0.0
 11
9.829851
 21
-3.286552
 31
0.0
  0
LINE
  8
0
  6
CONTINUOUS
 62
     7
  5
8C2
 10
9.829851
 20
-3.286552
 30
0.0
 11
9.827746
 21
-3.285493
 31
0.0
  0
LINE
  8
0
  6
CONTINUOUS
 62
     7
  5
8C3
 10
9.827746
 20
-3.285493
 30
0.0
 11
9.825658
 21
-3.284402
 31
0.0
  0
LINE
  8
0
  6
CONTINUOUS
 62
     7
  5
8C4
 10
10.363872
 20
-3.286719
 30
0.0
 11
9.905086
 21
-3.30274
 31
0.0
  0
LINE
  8
0
  6
CONTINUOUS
 62
     7
  5
8C5
 10
10.383729
 20
-3.291303
 30
0.0
 11
10.383207
 21
-3.291031
 31
0.0
  0
LINE
  8
0
  6
CONTINUOUS
 62
     7
  5
8C6
 10
10.383207
 20
-3.291031
 30
0.0
 11
10.382681
 21
-3.290766
 31
0.0
  0
LINE
  8
0
  6
CONTINUOUS
 62
     7
  5
8C7
 10
10.382681
 20
-3.290766
 30
0.0
 11
10.382151
 21
-3.290509
 31
0.0
  0
LINE
  8
0
  6
CONTINUOUS
 62
     7
  5
8C8
 10
10.382151
 20
-3.290509
 30
0.0
 11
10.381617
 21
-3.29026
 31
0.0
  0
LINE
  8
0
  6
CONTINUOUS
 62
     7
  5
8C9
 10
10.381617
 20
-3.29026
 30
0.0
 11
10.381079
 21
-3.290019
 31
0.0
  0
LINE
  8
0
  6
CONTINUOUS
 62
     7
  5
8CA
 10
10.381079
 20
-3.290019
 30
0.0
 11
10.380538
 21
-3.289786
 31
0.0
  0
LINE
  8
0
  6
CONTINUOUS
 62
     7
  5
8CB
 10
10.380538
 20
-3.289786
 30
0.0
 11
10.379994
 21
-3.289562
 31
0.0
  0
LINE
  8
0
  6
CONTINUOUS
 62
     7
  5
8CC
 10
10.379994
 20
-3.289562
 30
0.0
 11
10.379446
 21
-3.289345
 31
0.0
  0
LINE
  8
0
  6
CONTINUOUS
 62
     7
  5
8CD
 10
10.379446
 20
-3.289345
 30
0.0
 11
10.378895
 21
-3.289137
 31
0.0
  0
LINE
  8
0
  6
CONTINUOUS
 62
     7
  5
8CE
 10
10.378895
 20
-3.289137
 30
0.0
 11
10.378342
 21
-3.288937
 31
0.0
  0
LINE
  8
0
  6
CONTINUOUS
 62
     7
  5
8CF
 10
10.378342
 20
-3.288937
 30
0.0
 11
10.377785
 21
-3.288745
 31
0.0
  0
LINE
  8
0
  6
CONTINUOUS
 62
     7
  5
8D0
 10
10.377785
 20
-3.288745
 30
0.0
 11
10.377225
 21
-3.288562
 31
0.0
  0
LINE
  8
0
  6
CONTINUOUS
 62
     7
  5
8D1
 10
10.377225
 20
-3.288562
 30
0.0
 11
10.376663
 21
-3.288387
 31
0.0
  0
LINE
  8
0
  6
CONTINUOUS
 62
     7
  5
8D2
 10
10.376663
 20
-3.288387
 30
0.0
 11
10.376098
 21
-3.28822
 31
0.0
  0
LINE
  8
0
  6
CONTINUOUS
 62
     7
  5
8D3
 10
10.376098
 20
-3.28822
 30
0.0
 11
10.37553
 21
-3.288062
 31
0.0
  0
LINE
  8
0
  6
CONTINUOUS
 62
     7
  5
8D4
 10
10.37553
 20
-3.288062
 30
0.0
 11
10.374961
 21
-3.287912
 31
0.0
  0
LINE
  8
0
  6
CONTINUOUS
 62
     7
  5
8D5
 10
10.374961
 20
-3.287912
 30
0.0
 11
10.374389
 21
-3.287771
 31
0.0
  0
LINE
  8
0
  6
CONTINUOUS
 62
     7
  5
8D6
 10
10.374389
 20
-3.287771
 30
0.0
 11
10.373815
 21
-3.287639
 31
0.0
  0
LINE
  8
0
  6
CONTINUOUS
 62
     7
  5
8D7
 10
10.373815
 20
-3.287639
 30
0.0
 11
10.373239
 21
-3.287515
 31
0.0
  0
LINE
  8
0
  6
CONTINUOUS
 62
     7
  5
8D8
 10
10.373239
 20
-3.287515
 30
0.0
 11
10.372662
 21
-3.2874
 31
0.0
  0
LINE
  8
0
  6
CONTINUOUS
 62
     7
  5
8D9
 10
10.372662
 20
-3.2874
 30
0.0
 11
10.372082
 21
-3.287293
 31
0.0
  0
LINE
  8
0
  6
CONTINUOUS
 62
     7
  5
8DA
 10
10.372082
 20
-3.287293
 30
0.0
 11
10.371502
 21
-3.287195
 31
0.0
  0
LINE
  8
0
  6
CONTINUOUS
 62
     7
  5
8DB
 10
10.371502
 20
-3.287195
 30
0.0
 11
10.370919
 21
-3.287106
 31
0.0
  0
LINE
  8
0
  6
CONTINUOUS
 62
     7
  5
8DC
 10
10.370919
 20
-3.287106
 30
0.0
 11
10.370336
 21
-3.287025
 31
0.0
  0
LINE
  8
0
  6
CONTINUOUS
 62
     7
  5
8DD
 10
10.370336
 20
-3.287025
 30
0.0
 11
10.369751
 21
-3.286953
 31
0.0
  0
LINE
  8
0
  6
CONTINUOUS
 62
     7
  5
8DE
 10
10.369751
 20
-3.286953
 30
0.0
 11
10.369166
 21
-3.28689
 31
0.0
  0
LINE
  8
0
  6
CONTINUOUS
 62
     7
  5
8DF
 10
10.369166
 20
-3.28689
 30
0.0
 11
10.368579
 21
-3.286836
 31
0.0
  0
LINE
  8
0
  6
CONTINUOUS
 62
     7
  5
8E0
 10
10.368579
 20
-3.286836
 30
0.0
 11
10.367992
 21
-3.286791
 31
0.0
  0
LINE
  8
0
  6
CONTINUOUS
 62
     7
  5
8E1
 10
10.367992
 20
-3.286791
 30
0.0
 11
10.367404
 21
-3.286754
 31
0.0
  0
LINE
  8
0
  6
CONTINUOUS
 62
     7
  5
8E2
 10
10.367404
 20
-3.286754
 30
0.0
 11
10.366816
 21
-3.286726
 31
0.0
  0
LINE
  8
0
  6
CONTINUOUS
 62
     7
  5
8E3
 10
10.366816
 20
-3.286726
 30
0.0
 11
10.366227
 21
-3.286707
 31
0.0
  0
LINE
  8
0
  6
CONTINUOUS
 62
     7
  5
8E4
 10
10.366227
 20
-3.286707
 30
0.0
 11
10.365638
 21
-3.286697
 31
0.0
  0
LINE
  8
0
  6
CONTINUOUS
 62
     7
  5
8E5
 10
10.365638
 20
-3.286697
 30
0.0
 11
10.365049
 21
-3.286695
 31
0.0
  0
LINE
  8
0
  6
CONTINUOUS
 62
     7
  5
8E6
 10
10.365049
 20
-3.286695
 30
0.0
 11
10.364461
 21
-3.286703
 31
0.0
  0
LINE
  8
0
  6
CONTINUOUS
 62
     7
  5
8E7
 10
10.364461
 20
-3.286703
 30
0.0
 11
10.363872
 21
-3.286719
 31
0.0
  0
LINE
  8
0
  6
CONTINUOUS
 62
     7
  5
8E8
 10
12.243539
 20
-4.280182
 30
0.0
 11
10.383729
 21
-3.291303
 31
0.0
  0
LINE
  8
0
  6
CONTINUOUS
 62
     7
  5
8E9
 10
12.265221
 20
-4.157942
 30
0.0
 11
12.264239
 21
-4.161358
 31
0.0
  0
LINE
  8
0
  6
CONTINUOUS
 62
     7
  5
8EA
 10
12.264239
 20
-4.161358
 30
0.0
 11
12.263278
 21
-4.164779
 31
0.0
  0
LINE
  8
0
  6
CONTINUOUS
 62
     7
  5
8EB
 10
12.263278
 20
-4.164779
 30
0.0
 11
12.262338
 21
-4.168207
 31
0.0
  0
LINE
  8
0
  6
CONTINUOUS
 62
     7
  5
8EC
 10
12.262338
 20
-4.168207
 30
0.0
 11
12.261419
 21
-4.17164
 31
0.0
  0
LINE
  8
0
  6
CONTINUOUS
 62
     7
  5
8ED
 10
12.261419
 20
-4.17164
 30
0.0
 11
12.260521
 21
-4.175078
 31
0.0
  0
LINE
  8
0
  6
CONTINUOUS
 62
     7
  5
8EE
 10
12.260521
 20
-4.175078
 30
0.0
 11
12.259644
 21
-4.178522
 31
0.0
  0
LINE
  8
0
  6
CONTINUOUS
 62
     7
  5
8EF
 10
12.259644
 20
-4.178522
 30
0.0
 11
12.258789
 21
-4.181972
 31
0.0
  0
LINE
  8
0
  6
CONTINUOUS
 62
     7
  5
8F0
 10
12.258789
 20
-4.181972
 30
0.0
 11
12.257954
 21
-4.185426
 31
0.0
  0
LINE
  8
0
  6
CONTINUOUS
 62
     7
  5
8F1
 10
12.257954
 20
-4.185426
 30
0.0
 11
12.257141
 21
-4.188886
 31
0.0
  0
LINE
  8
0
  6
CONTINUOUS
 62
     7
  5
8F2
 10
12.257141
 20
-4.188886
 30
0.0
 11
12.256349
 21
-4.19235
 31
0.0
  0
LINE
  8
0
  6
CONTINUOUS
 62
     7
  5
8F3
 10
12.256349
 20
-4.19235
 30
0.0
 11
12.255579
 21
-4.19582
 31
0.0
  0
LINE
  8
0
  6
CONTINUOUS
 62
     7
  5
8F4
 10
12.255579
 20
-4.19582
 30
0.0
 11
12.25483
 21
-4.199294
 31
0.0
  0
LINE
  8
0
  6
CONTINUOUS
 62
     7
  5
8F5
 10
12.25483
 20
-4.199294
 30
0.0
 11
12.254102
 21
-4.202772
 31
0.0
  0
LINE
  8
0
  6
CONTINUOUS
 62
     7
  5
8F6
 10
12.254102
 20
-4.202772
 30
0.0
 11
12.253395
 21
-4.206255
 31
0.0
  0
LINE
  8
0
  6
CONTINUOUS
 62
     7
  5
8F7
 10
12.253395
 20
-4.206255
 30
0.0
 11
12.25271
 21
-4.209743
 31
0.0
  0
LINE
  8
0
  6
CONTINUOUS
 62
     7
  5
8F8
 10
12.25271
 20
-4.209743
 30
0.0
 11
12.252046
 21
-4.213234
 31
0.0
  0
LINE
  8
0
  6
CONTINUOUS
 62
     7
  5
8F9
 10
12.252046
 20
-4.213234
 30
0.0
 11
12.251404
 21
-4.216729
 31
0.0
  0
LINE
  8
0
  6
CONTINUOUS
 62
     7
  5
8FA
 10
12.251404
 20
-4.216729
 30
0.0
 11
12.250784
 21
-4.220229
 31
0.0
  0
LINE
  8
0
  6
CONTINUOUS
 62
     7
  5
8FB
 10
12.250784
 20
-4.220229
 30
0.0
 11
12.250184
 21
-4.223732
 31
0.0
  0
LINE
  8
0
  6
CONTINUOUS
 62
     7
  5
8FC
 10
12.250184
 20
-4.223732
 30
0.0
 11
12.249607
 21
-4.227238
 31
0.0
  0
LINE
  8
0
  6
CONTINUOUS
 62
     7
  5
8FD
 10
12.249607
 20
-4.227238
 30
0.0
 11
12.249051
 21
-4.230749
 31
0.0
  0
LINE
  8
0
  6
CONTINUOUS
 62
     7
  5
8FE
 10
12.249051
 20
-4.230749
 30
0.0
 11
12.248516
 21
-4.234262
 31
0.0
  0
LINE
  8
0
  6
CONTINUOUS
 62
     7
  5
8FF
 10
12.248516
 20
-4.234262
 30
0.0
 11
12.248003
 21
-4.237779
 31
0.0
  0
LINE
  8
0
  6
CONTINUOUS
 62
     7
  5
900
 10
12.248003
 20
-4.237779
 30
0.0
 11
12.247512
 21
-4.241298
 31
0.0
  0
LINE
  8
0
  6
CONTINUOUS
 62
     7
  5
901
 10
12.247512
 20
-4.241298
 30
0.0
 11
12.247042
 21
-4.244821
 31
0.0
  0
LINE
  8
0
  6
CONTINUOUS
 62
     7
  5
902
 10
12.247042
 20
-4.244821
 30
0.0
 11
12.246594
 21
-4.248347
 31
0.0
  0
LINE
  8
0
  6
CONTINUOUS
 62
     7
  5
903
 10
12.246594
 20
-4.248347
 30
0.0
 11
12.246168
 21
-4.251875
 31
0.0
  0
LINE
  8
0
  6
CONTINUOUS
 62
     7
  5
904
 10
12.246168
 20
-4.251875
 30
0.0
 11
12.245763
 21
-4.255406
 31
0.0
  0
LINE
  8
0
  6
CONTINUOUS
 62
     7
  5
905
 10
12.245763
 20
-4.255406
 30
0.0
 11
12.24538
 21
-4.258939
 31
0.0
  0
LINE
  8
0
  6
CONTINUOUS
 62
     7
  5
906
 10
12.24538
 20
-4.258939
 30
0.0
 11
12.245019
 21
-4.262474
 31
0.0
  0
LINE
  8
0
  6
CONTINUOUS
 62
     7
  5
907
 10
12.245019
 20
-4.262474
 30
0.0
 11
12.244679
 21
-4.266012
 31
0.0
  0
LINE
  8
0
  6
CONTINUOUS
 62
     7
  5
908
 10
12.244679
 20
-4.266012
 30
0.0
 11
12.244362
 21
-4.269552
 31
0.0
  0
LINE
  8
0
  6
CONTINUOUS
 62
     7
  5
909
 10
12.244362
 20
-4.269552
 30
0.0
 11
12.244066
 21
-4.273093
 31
0.0
  0
LINE
  8
0
  6
CONTINUOUS
 62
     7
  5
90A
 10
12.244066
 20
-4.273093
 30
0.0
 11
12.243791
 21
-4.276637
 31
0.0
  0
LINE
  8
0
  6
CONTINUOUS
 62
     7
  5
90B
 10
12.243791
 20
-4.276637
 30
0.0
 11
12.243539
 21
-4.280182
 31
0.0
  0
LINE
  8
0
  6
CONTINUOUS
 62
     7
  5
90C
 10
10.439178
 20
-3.187018
 30
0.0
 11
12.265221
 21
-4.157942
 31
0.0
  0
LINE
  8
0
  6
CONTINUOUS
 62
     7
  5
90D
 10
10.35975
 20
-3.168681
 30
0.0
 11
10.362105
 21
-3.168616
 31
0.0
  0
LINE
  8
0
  6
CONTINUOUS
 62
     7
  5
90E
 10
10.362105
 20
-3.168616
 30
0.0
 11
10.36446
 21
-3.168587
 31
0.0
  0
LINE
  8
0
  6
CONTINUOUS
 62
     7
  5
90F
 10
10.36446
 20
-3.168587
 30
0.0
 11
10.366816
 21
-3.168592
 31
0.0
  0
LINE
  8
0
  6
CONTINUOUS
 62
     7
  5
910
 10
10.366816
 20
-3.168592
 30
0.0
 11
10.369172
 21
-3.168634
 31
0.0
  0
LINE
  8
0
  6
CONTINUOUS
 62
     7
  5
911
 10
10.369172
 20
-3.168634
 30
0.0
 11
10.371527
 21
-3.16871
 31
0.0
  0
LINE
  8
0
  6
CONTINUOUS
 62
     7
  5
912
 10
10.371527
 20
-3.16871
 30
0.0
 11
10.37388
 21
-3.168821
 31
0.0
  0
LINE
  8
0
  6
CONTINUOUS
 62
     7
  5
913
 10
10.37388
 20
-3.168821
 30
0.0
 11
10.376231
 21
-3.168968
 31
0.0
  0
LINE
  8
0
  6
CONTINUOUS
 62
     7
  5
914
 10
10.376231
 20
-3.168968
 30
0.0
 11
10.37858
 21
-3.16915
 31
0.0
  0
LINE
  8
0
  6
CONTINUOUS
 62
     7
  5
915
 10
10.37858
 20
-3.16915
 30
0.0
 11
10.380926
 21
-3.169367
 31
0.0
  0
LINE
  8
0
  6
CONTINUOUS
 62
     7
  5
916
 10
10.380926
 20
-3.169367
 30
0.0
 11
10.383268
 21
-3.169619
 31
0.0
  0
LINE
  8
0
  6
CONTINUOUS
 62
     7
  5
917
 10
10.383268
 20
-3.169619
 30
0.0
 11
10.385606
 21
-3.169906
 31
0.0
  0
LINE
  8
0
  6
CONTINUOUS
 62
     7
  5
918
 10
10.385606
 20
-3.169906
 30
0.0
 11
10.38794
 21
-3.170228
 31
0.0
  0
LINE
  8
0
  6
CONTINUOUS
 62
     7
  5
919
 10
10.38794
 20
-3.170228
 30
0.0
 11
10.390269
 21
-3.170585
 31
0.0
  0
LINE
  8
0
  6
CONTINUOUS
 62
     7
  5
91A
 10
10.390269
 20
-3.170585
 30
0.0
 11
10.392592
 21
-3.170977
 31
0.0
  0
LINE
  8
0
  6
CONTINUOUS
 62
     7
  5
91B
 10
10.392592
 20
-3.170977
 30
0.0
 11
10.394909
 21
-3.171403
 31
0.0
  0
LINE
  8
0
  6
CONTINUOUS
 62
     7
  5
91C
 10
10.394909
 20
-3.171403
 30
0.0
 11
10.397219
 21
-3.171865
 31
0.0
  0
LINE
  8
0
  6
CONTINUOUS
 62
     7
  5
91D
 10
10.397219
 20
-3.171865
 30
0.0
 11
10.399522
 21
-3.17236
 31
0.0
  0
LINE
  8
0
  6
CONTINUOUS
 62
     7
  5
91E
 10
10.399522
 20
-3.17236
 30
0.0
 11
10.401818
 21
-3.17289
 31
0.0
  0
LINE
  8
0
  6
CONTINUOUS
 62
     7
  5
91F
 10
10.401818
 20
-3.17289
 30
0.0
 11
10.404105
 21
-3.173454
 31
0.0
  0
LINE
  8
0
  6
CONTINUOUS
 62
     7
  5
920
 10
10.404105
 20
-3.173454
 30
0.0
 11
10.406384
 21
-3.174053
 31
0.0
  0
LINE
  8
0
  6
CONTINUOUS
 62
     7
  5
921
 10
10.406384
 20
-3.174053
 30
0.0
 11
10.408653
 21
-3.174685
 31
0.0
  0
LINE
  8
0
  6
CONTINUOUS
 62
     7
  5
922
 10
10.408653
 20
-3.174685
 30
0.0
 11
10.410913
 21
-3.175351
 31
0.0
  0
LINE
  8
0
  6
CONTINUOUS
 62
     7
  5
923
 10
10.410913
 20
-3.175351
 30
0.0
 11
10.413162
 21
-3.176051
 31
0.0
  0
LINE
  8
0
  6
CONTINUOUS
 62
     7
  5
924
 10
10.413162
 20
-3.176051
 30
0.0
 11
10.415401
 21
-3.176785
 31
0.0
  0
LINE
  8
0
  6
CONTINUOUS
 62
     7
  5
925
 10
10.415401
 20
-3.176785
 30
0.0
 11
10.417629
 21
-3.177552
 31
0.0
  0
LINE
  8
0
  6
CONTINUOUS
 62
     7
  5
926
 10
10.417629
 20
-3.177552
 30
0.0
 11
10.419844
 21
-3.178352
 31
0.0
  0
LINE
  8
0
  6
CONTINUOUS
 62
     7
  5
927
 10
10.419844
 20
-3.178352
 30
0.0
 11
10.422048
 21
-3.179186
 31
0.0
  0
LINE
  8
0
  6
CONTINUOUS
 62
     7
  5
928
 10
10.422048
 20
-3.179186
 30
0.0
 11
10.424239
 21
-3.180052
 31
0.0
  0
LINE
  8
0
  6
CONTINUOUS
 62
     7
  5
929
 10
10.424239
 20
-3.180052
 30
0.0
 11
10.426417
 21
-3.180951
 31
0.0
  0
LINE
  8
0
  6
CONTINUOUS
 62
     7
  5
92A
 10
10.426417
 20
-3.180951
 30
0.0
 11
10.428581
 21
-3.181882
 31
0.0
  0
LINE
  8
0
  6
CONTINUOUS
 62
     7
  5
92B
 10
10.428581
 20
-3.181882
 30
0.0
 11
10.43073
 21
-3.182845
 31
0.0
  0
LINE
  8
0
  6
CONTINUOUS
 62
     7
  5
92C
 10
10.43073
 20
-3.182845
 30
0.0
 11
10.432866
 21
-3.183841
 31
0.0
  0
LINE
  8
0
  6
CONTINUOUS
 62
     7
  5
92D
 10
10.432866
 20
-3.183841
 30
0.0
 11
10.434986
 21
-3.184869
 31
0.0
  0
LINE
  8
0
  6
CONTINUOUS
 62
     7
  5
92E
 10
10.434986
 20
-3.184869
 30
0.0
 11
10.43709
 21
-3.185928
 31
0.0
  0
LINE
  8
0
  6
CONTINUOUS
 62
     7
  5
92F
 10
10.43709
 20
-3.185928
 30
0.0
 11
10.439178
 21
-3.187018
 31
0.0
  0
LINE
  8
0
  6
CONTINUOUS
 62
     7
  5
930
 10
9.900964
 20
-3.184702
 30
0.0
 11
10.35975
 21
-3.168681
 31
0.0
  0
LINE
  8
0
  6
CONTINUOUS
 62
     7
  5
931
 10
9.881107
 20
-3.180117
 30
0.0
 11
9.881629
 21
-3.18039
 31
0.0
  0
LINE
  8
0
  6
CONTINUOUS
 62
     7
  5
932
 10
9.881629
 20
-3.18039
 30
0.0
 11
9.882155
 21
-3.180655
 31
0.0
  0
LINE
  8
0
  6
CONTINUOUS
 62
     7
  5
933
 10
9.882155
 20
-3.180655
 30
0.0
 11
9.882685
 21
-3.180912
 31
0.0
  0
LINE
  8
0
  6
CONTINUOUS
 62
     7
  5
934
 10
9.882685
 20
-3.180912
 30
0.0
 11
9.883219
 21
-3.18116
 31
0.0
  0
LINE
  8
0
  6
CONTINUOUS
 62
     7
  5
935
 10
9.883219
 20
-3.18116
 30
0.0
 11
9.883757
 21
-3.181401
 31
0.0
  0
LINE
  8
0
  6
CONTINUOUS
 62
     7
  5
936
 10
9.883757
 20
-3.181401
 30
0.0
 11
9.884298
 21
-3.181634
 31
0.0
  0
LINE
  8
0
  6
CONTINUOUS
 62
     7
  5
937
 10
9.884298
 20
-3.181634
 30
0.0
 11
9.884842
 21
-3.181859
 31
0.0
  0
LINE
  8
0
  6
CONTINUOUS
 62
     7
  5
938
 10
9.884842
 20
-3.181859
 30
0.0
 11
9.88539
 21
-3.182075
 31
0.0
  0
LINE
  8
0
  6
CONTINUOUS
 62
     7
  5
939
 10
9.88539
 20
-3.182075
 30
0.0
 11
9.885941
 21
-3.182284
 31
0.0
  0
LINE
  8
0
  6
CONTINUOUS
 62
     7
  5
93A
 10
9.885941
 20
-3.182284
 30
0.0
 11
9.886495
 21
-3.182484
 31
0.0
  0
LINE
  8
0
  6
CONTINUOUS
 62
     7
  5
93B
 10
9.886495
 20
-3.182484
 30
0.0
 11
9.887051
 21
-3.182676
 31
0.0
  0
LINE
  8
0
  6
CONTINUOUS
 62
     7
  5
93C
 10
9.887051
 20
-3.182676
 30
0.0
 11
9.887611
 21
-3.182859
 31
0.0
  0
LINE
  8
0
  6
CONTINUOUS
 62
     7
  5
93D
 10
9.887611
 20
-3.182859
 30
0.0
 11
9.888174
 21
-3.183034
 31
0.0
  0
LINE
  8
0
  6
CONTINUOUS
 62
     7
  5
93E
 10
9.888174
 20
-3.183034
 30
0.0
 11
9.888738
 21
-3.183201
 31
0.0
  0
LINE
  8
0
  6
CONTINUOUS
 62
     7
  5
93F
 10
9.888738
 20
-3.183201
 30
0.0
 11
9.889306
 21
-3.183359
 31
0.0
  0
LINE
  8
0
  6
CONTINUOUS
 62
     7
  5
940
 10
9.889306
 20
-3.183359
 30
0.0
 11
9.889875
 21
-3.183508
 31
0.0
  0
LINE
  8
0
  6
CONTINUOUS
 62
     7
  5
941
 10
9.889875
 20
-3.183508
 30
0.0
 11
9.890447
 21
-3.183649
 31
0.0
  0
LINE
  8
0
  6
CONTINUOUS
 62
     7
  5
942
 10
9.890447
 20
-3.183649
 30
0.0
 11
9.891021
 21
-3.183782
 31
0.0
  0
LINE
  8
0
  6
CONTINUOUS
 62
     7
  5
943
 10
9.891021
 20
-3.183782
 30
0.0
 11
9.891597
 21
-3.183906
 31
0.0
  0
LINE
  8
0
  6
CONTINUOUS
 62
     7
  5
944
 10
9.891597
 20
-3.183906
 30
0.0
 11
9.892175
 21
-3.184021
 31
0.0
  0
LINE
  8
0
  6
CONTINUOUS
 62
     7
  5
945
 10
9.892175
 20
-3.184021
 30
0.0
 11
9.892754
 21
-3.184128
 31
0.0
  0
LINE
  8
0
  6
CONTINUOUS
 62
     7
  5
946
 10
9.892754
 20
-3.184128
 30
0.0
 11
9.893335
 21
-3.184225
 31
0.0
  0
LINE
  8
0
  6
CONTINUOUS
 62
     7
  5
947
 10
9.893335
 20
-3.184225
 30
0.0
 11
9.893917
 21
-3.184315
 31
0.0
  0
LINE
  8
0
  6
CONTINUOUS
 62
     7
  5
948
 10
9.893917
 20
-3.184315
 30
0.0
 11
9.8945
 21
-3.184395
 31
0.0
  0
LINE
  8
0
  6
CONTINUOUS
 62
     7
  5
949
 10
9.8945
 20
-3.184395
 30
0.0
 11
9.895085
 21
-3.184467
 31
0.0
  0
LINE
  8
0
  6
CONTINUOUS
 62
     7
  5
94A
 10
9.895085
 20
-3.184467
 30
0.0
 11
9.89567
 21
-3.18453
 31
0.0
  0
LINE
  8
0
  6
CONTINUOUS
 62
     7
  5
94B
 10
9.89567
 20
-3.18453
 30
0.0
 11
9.896257
 21
-3.184584
 31
0.0
  0
LINE
  8
0
  6
CONTINUOUS
 62
     7
  5
94C
 10
9.896257
 20
-3.184584
 30
0.0
 11
9.896844
 21
-3.18463
 31
0.0
  0
LINE
  8
0
  6
CONTINUOUS
 62
     7
  5
94D
 10
9.896844
 20
-3.18463
 30
0.0
 11
9.897432
 21
-3.184666
 31
0.0
  0
LINE
  8
0
  6
CONTINUOUS
 62
     7
  5
94E
 10
9.897432
 20
-3.184666
 30
0.0
 11
9.89802
 21
-3.184694
 31
0.0
  0
LINE
  8
0
  6
CONTINUOUS
 62
     7
  5
94F
 10
9.89802
 20
-3.184694
 30
0.0
 11
9.898609
 21
-3.184713
 31
0.0
  0
LINE
  8
0
  6
CONTINUOUS
 62
     7
  5
950
 10
9.898609
 20
-3.184713
 30
0.0
 11
9.899198
 21
-3.184724
 31
0.0
  0
LINE
  8
0
  6
CONTINUOUS
 62
     7
  5
951
 10
9.899198
 20
-3.184724
 30
0.0
 11
9.899787
 21
-3.184725
 31
0.0
  0
LINE
  8
0
  6
CONTINUOUS
 62
     7
  5
952
 10
9.899787
 20
-3.184725
 30
0.0
 11
9.900376
 21
-3.184718
 31
0.0
  0
LINE
  8
0
  6
CONTINUOUS
 62
     7
  5
953
 10
9.900376
 20
-3.184718
 30
0.0
 11
9.900964
 21
-3.184702
 31
0.0
  0
LINE
  8
0
  6
CONTINUOUS
 62
     7
  5
954
 10
7.795814
 20
-2.071347
 30
0.0
 11
9.881107
 21
-3.180117
 31
0.0
  0
LINE
  8
0
  6
CONTINUOUS
 62
     7
  5
955
 10
10.232287
 20
-2.519645
 30
0.0
 11
8.146994
 21
-1.410875
 31
0.0
  0
LINE
  8
0
  6
CONTINUOUS
 62
     7
  5
956
 10
10.247191
 20
-2.533543
 30
0.0
 11
10.246875
 21
-2.533046
 31
0.0
  0
LINE
  8
0
  6
CONTINUOUS
 62
     7
  5
957
 10
10.246875
 20
-2.533046
 30
0.0
 11
10.246552
 21
-2.532554
 31
0.0
  0
LINE
  8
0
  6
CONTINUOUS
 62
     7
  5
958
 10
10.246552
 20
-2.532554
 30
0.0
 11
10.246222
 21
-2.532066
 31
0.0
  0
LINE
  8
0
  6
CONTINUOUS
 62
     7
  5
959
 10
10.246222
 20
-2.532066
 30
0.0
 11
10.245884
 21
-2.531584
 31
0.0
  0
LINE
  8
0
  6
CONTINUOUS
 62
     7
  5
95A
 10
10.245884
 20
-2.531584
 30
0.0
 11
10.245539
 21
-2.531107
 31
0.0
  0
LINE
  8
0
  6
CONTINUOUS
 62
     7
  5
95B
 10
10.245539
 20
-2.531107
 30
0.0
 11
10.245187
 21
-2.530635
 31
0.0
  0
LINE
  8
0
  6
CONTINUOUS
 62
     7
  5
95C
 10
10.245187
 20
-2.530635
 30
0.0
 11
10.244828
 21
-2.530168
 31
0.0
  0
LINE
  8
0
  6
CONTINUOUS
 62
     7
  5
95D
 10
10.244828
 20
-2.530168
 30
0.0
 11
10.244462
 21
-2.529706
 31
0.0
  0
LINE
  8
0
  6
CONTINUOUS
 62
     7
  5
95E
 10
10.244462
 20
-2.529706
 30
0.0
 11
10.244089
 21
-2.52925
 31
0.0
  0
LINE
  8
0
  6
CONTINUOUS
 62
     7
  5
95F
 10
10.244089
 20
-2.52925
 30
0.0
 11
10.243709
 21
-2.5288
 31
0.0
  0
LINE
  8
0
  6
CONTINUOUS
 62
     7
  5
960
 10
10.243709
 20
-2.5288
 30
0.0
 11
10.243323
 21
-2.528356
 31
0.0
  0
LINE
  8
0
  6
CONTINUOUS
 62
     7
  5
961
 10
10.243323
 20
-2.528356
 30
0.0
 11
10.24293
 21
-2.527917
 31
0.0
  0
LINE
  8
0
  6
CONTINUOUS
 62
     7
  5
962
 10
10.24293
 20
-2.527917
 30
0.0
 11
10.24253
 21
-2.527484
 31
0.0
  0
LINE
  8
0
  6
CONTINUOUS
 62
     7
  5
963
 10
10.24253
 20
-2.527484
 30
0.0
 11
10.242124
 21
-2.527058
 31
0.0
  0
LINE
  8
0
  6
CONTINUOUS
 62
     7
  5
964
 10
10.242124
 20
-2.527058
 30
0.0
 11
10.241712
 21
-2.526637
 31
0.0
  0
LINE
  8
0
  6
CONTINUOUS
 62
     7
  5
965
 10
10.241712
 20
-2.526637
 30
0.0
 11
10.241293
 21
-2.526223
 31
0.0
  0
LINE
  8
0
  6
CONTINUOUS
 62
     7
  5
966
 10
10.241293
 20
-2.526223
 30
0.0
 11
10.240869
 21
-2.525815
 31
0.0
  0
LINE
  8
0
  6
CONTINUOUS
 62
     7
  5
967
 10
10.240869
 20
-2.525815
 30
0.0
 11
10.240438
 21
-2.525413
 31
0.0
  0
LINE
  8
0
  6
CONTINUOUS
 62
     7
  5
968
 10
10.240438
 20
-2.525413
 30
0.0
 11
10.240001
 21
-2.525018
 31
0.0
  0
LINE
  8
0
  6
CONTINUOUS
 62
     7
  5
969
 10
10.240001
 20
-2.525018
 30
0.0
 11
10.239559
 21
-2.524629
 31
0.0
  0
LINE
  8
0
  6
CONTINUOUS
 62
     7
  5
96A
 10
10.239559
 20
-2.524629
 30
0.0
 11
10.23911
 21
-2.524247
 31
0.0
  0
LINE
  8
0
  6
CONTINUOUS
 62
     7
  5
96B
 10
10.23911
 20
-2.524247
 30
0.0
 11
10.238656
 21
-2.523872
 31
0.0
  0
LINE
  8
0
  6
CONTINUOUS
 62
     7
  5
96C
 10
10.238656
 20
-2.523872
 30
0.0
 11
10.238197
 21
-2.523504
 31
0.0
  0
LINE
  8
0
  6
CONTINUOUS
 62
     7
  5
96D
 10
10.238197
 20
-2.523504
 30
0.0
 11
10.237732
 21
-2.523142
 31
0.0
  0
LINE
  8
0
  6
CONTINUOUS
 62
     7
  5
96E
 10
10.237732
 20
-2.523142
 30
0.0
 11
10.237261
 21
-2.522788
 31
0.0
  0
LINE
  8
0
  6
CONTINUOUS
 62
     7
  5
96F
 10
10.237261
 20
-2.522788
 30
0.0
 11
10.236786
 21
-2.52244
 31
0.0
  0
LINE
  8
0
  6
CONTINUOUS
 62
     7
  5
970
 10
10.236786
 20
-2.52244
 30
0.0
 11
10.236305
 21
-2.5221
 31
0.0
  0
LINE
  8
0
  6
CONTINUOUS
 62
     7
  5
971
 10
10.236305
 20
-2.5221
 30
0.0
 11
10.235819
 21
-2.521767
 31
0.0
  0
LINE
  8
0
  6
CONTINUOUS
 62
     7
  5
972
 10
10.235819
 20
-2.521767
 30
0.0
 11
10.235328
 21
-2.521441
 31
0.0
  0
LINE
  8
0
  6
CONTINUOUS
 62
     7
  5
973
 10
10.235328
 20
-2.521441
 30
0.0
 11
10.234833
 21
-2.521123
 31
0.0
  0
LINE
  8
0
  6
CONTINUOUS
 62
     7
  5
974
 10
10.234833
 20
-2.521123
 30
0.0
 11
10.234333
 21
-2.520812
 31
0.0
  0
LINE
  8
0
  6
CONTINUOUS
 62
     7
  5
975
 10
10.234333
 20
-2.520812
 30
0.0
 11
10.233828
 21
-2.520509
 31
0.0
  0
LINE
  8
0
  6
CONTINUOUS
 62
     7
  5
976
 10
10.233828
 20
-2.520509
 30
0.0
 11
10.233318
 21
-2.520213
 31
0.0
  0
LINE
  8
0
  6
CONTINUOUS
 62
     7
  5
977
 10
10.233318
 20
-2.520213
 30
0.0
 11
10.232805
 21
-2.519925
 31
0.0
  0
LINE
  8
0
  6
CONTINUOUS
 62
     7
  5
978
 10
10.232805
 20
-2.519925
 30
0.0
 11
10.232287
 21
-2.519645
 31
0.0
  0
LINE
  8
0
  6
CONTINUOUS
 62
     7
  5
979
 10
10.490459
 20
-2.922853
 30
0.0
 11
10.247191
 21
-2.533543
 31
0.0
  0
LINE
  8
0
  6
CONTINUOUS
 62
     7
  5
97A
 10
10.550077
 20
-2.978448
 30
0.0
 11
10.548005
 21
-2.977326
 31
0.0
  0
LINE
  8
0
  6
CONTINUOUS
 62
     7
  5
97B
 10
10.548005
 20
-2.977326
 30
0.0
 11
10.545951
 21
-2.976174
 31
0.0
  0
LINE
  8
0
  6
CONTINUOUS
 62
     7
  5
97C
 10
10.545951
 20
-2.976174
 30
0.0
 11
10.543913
 21
-2.974991
 31
0.0
  0
LINE
  8
0
  6
CONTINUOUS
 62
     7
  5
97D
 10
10.543913
 20
-2.974991
 30
0.0
 11
10.541894
 21
-2.973777
 31
0.0
  0
LINE
  8
0
  6
CONTINUOUS
 62
     7
  5
97E
 10
10.541894
 20
-2.973777
 30
0.0
 11
10.539893
 21
-2.972534
 31
0.0
  0
LINE
  8
0
  6
CONTINUOUS
 62
     7
  5
97F
 10
10.539893
 20
-2.972534
 30
0.0
 11
10.537911
 21
-2.971261
 31
0.0
  0
LINE
  8
0
  6
CONTINUOUS
 62
     7
  5
980
 10
10.537911
 20
-2.971261
 30
0.0
 11
10.535948
 21
-2.969958
 31
0.0
  0
LINE
  8
0
  6
CONTINUOUS
 62
     7
  5
981
 10
10.535948
 20
-2.969958
 30
0.0
 11
10.534005
 21
-2.968626
 31
0.0
  0
LINE
  8
0
  6
CONTINUOUS
 62
     7
  5
982
 10
10.534005
 20
-2.968626
 30
0.0
 11
10.532082
 21
-2.967265
 31
0.0
  0
LINE
  8
0
  6
CONTINUOUS
 62
     7
  5
983
 10
10.532082
 20
-2.967265
 30
0.0
 11
10.530179
 21
-2.965876
 31
0.0
  0
LINE
  8
0
  6
CONTINUOUS
 62
     7
  5
984
 10
10.530179
 20
-2.965876
 30
0.0
 11
10.528298
 21
-2.964458
 31
0.0
  0
LINE
  8
0
  6
CONTINUOUS
 62
     7
  5
985
 10
10.528298
 20
-2.964458
 30
0.0
 11
10.526437
 21
-2.963012
 31
0.0
  0
LINE
  8
0
  6
CONTINUOUS
 62
     7
  5
986
 10
10.526437
 20
-2.963012
 30
0.0
 11
10.524599
 21
-2.961539
 31
0.0
  0
LINE
  8
0
  6
CONTINUOUS
 62
     7
  5
987
 10
10.524599
 20
-2.961539
 30
0.0
 11
10.522783
 21
-2.960038
 31
0.0
  0
LINE
  8
0
  6
CONTINUOUS
 62
     7
  5
988
 10
10.522783
 20
-2.960038
 30
0.0
 11
10.52099
 21
-2.95851
 31
0.0
  0
LINE
  8
0
  6
CONTINUOUS
 62
     7
  5
989
 10
10.52099
 20
-2.95851
 30
0.0
 11
10.51922
 21
-2.956956
 31
0.0
  0
LINE
  8
0
  6
CONTINUOUS
 62
     7
  5
98A
 10
10.51922
 20
-2.956956
 30
0.0
 11
10.517473
 21
-2.955375
 31
0.0
  0
LINE
  8
0
  6
CONTINUOUS
 62
     7
  5
98B
 10
10.517473
 20
-2.955375
 30
0.0
 11
10.51575
 21
-2.953768
 31
0.0
  0
LINE
  8
0
  6
CONTINUOUS
 62
     7
  5
98C
 10
10.51575
 20
-2.953768
 30
0.0
 11
10.514051
 21
-2.952136
 31
0.0
  0
LINE
  8
0
  6
CONTINUOUS
 62
     7
  5
98D
 10
10.514051
 20
-2.952136
 30
0.0
 11
10.512377
 21
-2.950478
 31
0.0
  0
LINE
  8
0
  6
CONTINUOUS
 62
     7
  5
98E
 10
10.512377
 20
-2.950478
 30
0.0
 11
10.510728
 21
-2.948796
 31
0.0
  0
LINE
  8
0
  6
CONTINUOUS
 62
     7
  5
98F
 10
10.510728
 20
-2.948796
 30
0.0
 11
10.509104
 21
-2.947089
 31
0.0
  0
LINE
  8
0
  6
CONTINUOUS
 62
     7
  5
990
 10
10.509104
 20
-2.947089
 30
0.0
 11
10.507506
 21
-2.945358
 31
0.0
  0
LINE
  8
0
  6
CONTINUOUS
 62
     7
  5
991
 10
10.507506
 20
-2.945358
 30
0.0
 11
10.505934
 21
-2.943603
 31
0.0
  0
LINE
  8
0
  6
CONTINUOUS
 62
     7
  5
992
 10
10.505934
 20
-2.943603
 30
0.0
 11
10.504388
 21
-2.941825
 31
0.0
  0
LINE
  8
0
  6
CONTINUOUS
 62
     7
  5
993
 10
10.504388
 20
-2.941825
 30
0.0
 11
10.502869
 21
-2.940024
 31
0.0
  0
LINE
  8
0
  6
CONTINUOUS
 62
     7
  5
994
 10
10.502869
 20
-2.940024
 30
0.0
 11
10.501378
 21
-2.938201
 31
0.0
  0
LINE
  8
0
  6
CONTINUOUS
 62
     7
  5
995
 10
10.501378
 20
-2.938201
 30
0.0
 11
10.499913
 21
-2.936355
 31
0.0
  0
LINE
  8
0
  6
CONTINUOUS
 62
     7
  5
996
 10
10.499913
 20
-2.936355
 30
0.0
 11
10.498477
 21
-2.934488
 31
0.0
  0
LINE
  8
0
  6
CONTINUOUS
 62
     7
  5
997
 10
10.498477
 20
-2.934488
 30
0.0
 11
10.497069
 21
-2.9326
 31
0.0
  0
LINE
  8
0
  6
CONTINUOUS
 62
     7
  5
998
 10
10.497069
 20
-2.9326
 30
0.0
 11
10.495689
 21
-2.93069
 31
0.0
  0
LINE
  8
0
  6
CONTINUOUS
 62
     7
  5
999
 10
10.495689
 20
-2.93069
 30
0.0
 11
10.494337
 21
-2.92876
 31
0.0
  0
LINE
  8
0
  6
CONTINUOUS
 62
     7
  5
99A
 10
10.494337
 20
-2.92876
 30
0.0
 11
10.493015
 21
-2.926811
 31
0.0
  0
LINE
  8
0
  6
CONTINUOUS
 62
     7
  5
99B
 10
10.493015
 20
-2.926811
 30
0.0
 11
10.491722
 21
-2.924841
 31
0.0
  0
LINE
  8
0
  6
CONTINUOUS
 62
     7
  5
99C
 10
10.491722
 20
-2.924841
 30
0.0
 11
10.490459
 21
-2.922853
 31
0.0
  0
LINE
  8
0
  6
CONTINUOUS
 62
     7
  5
99D
 10
12.37612
 20
-3.949372
 30
0.0
 11
10.550077
 21
-2.978448
 31
0.0
  0
LINE
  8
0
  6
CONTINUOUS
 62
     7
  5
99E
 10
12.465336
 20
-3.863041
 30
0.0
 11
12.462539
 21
-3.865233
 31
0.0
  0
LINE
  8
0
  6
CONTINUOUS
 62
     7
  5
99F
 10
12.462539
 20
-3.865233
 30
0.0
 11
12.459754
 21
-3.867441
 31
0.0
  0
LINE
  8
0
  6
CONTINUOUS
 62
     7
  5
9A0
 10
12.459754
 20
-3.867441
 30
0.0
 11
12.456984
 21
-3.869667
 31
0.0
  0
LINE
  8
0
  6
CONTINUOUS
 62
     7
  5
9A1
 10
12.456984
 20
-3.869667
 30
0.0
 11
12.454227
 21
-3.87191
 31
0.0
  0
LINE
  8
0
  6
CONTINUOUS
 62
     7
  5
9A2
 10
12.454227
 20
-3.87191
 30
0.0
 11
12.451484
 21
-3.87417
 31
0.0
  0
LINE
  8
0
  6
CONTINUOUS
 62
     7
  5
9A3
 10
12.451484
 20
-3.87417
 30
0.0
 11
12.448755
 21
-3.876446
 31
0.0
  0
LINE
  8
0
  6
CONTINUOUS
 62
     7
  5
9A4
 10
12.448755
 20
-3.876446
 30
0.0
 11
12.44604
 21
-3.87874
 31
0.0
  0
LINE
  8
0
  6
CONTINUOUS
 62
     7
  5
9A5
 10
12.44604
 20
-3.87874
 30
0.0
 11
12.443339
 21
-3.881049
 31
0.0
  0
LINE
  8
0
  6
CONTINUOUS
 62
     7
  5
9A6
 10
12.443339
 20
-3.881049
 30
0.0
 11
12.440653
 21
-3.883376
 31
0.0
  0
LINE
  8
0
  6
CONTINUOUS
 62
     7
  5
9A7
 10
12.440653
 20
-3.883376
 30
0.0
 11
12.43798
 21
-3.885719
 31
0.0
  0
LINE
  8
0
  6
CONTINUOUS
 62
     7
  5
9A8
 10
12.43798
 20
-3.885719
 30
0.0
 11
12.435322
 21
-3.888078
 31
0.0
  0
LINE
  8
0
  6
CONTINUOUS
 62
     7
  5
9A9
 10
12.435322
 20
-3.888078
 30
0.0
 11
12.432679
 21
-3.890454
 31
0.0
  0
LINE
  8
0
  6
CONTINUOUS
 62
     7
  5
9AA
 10
12.432679
 20
-3.890454
 30
0.0
 11
12.430051
 21
-3.892845
 31
0.0
  0
LINE
  8
0
  6
CONTINUOUS
 62
     7
  5
9AB
 10
12.430051
 20
-3.892845
 30
0.0
 11
12.427437
 21
-3.895253
 31
0.0
  0
LINE
  8
0
  6
CONTINUOUS
 62
     7
  5
9AC
 10
12.427437
 20
-3.895253
 30
0.0
 11
12.424838
 21
-3.897677
 31
0.0
  0
LINE
  8
0
  6
CONTINUOUS
 62
     7
  5
9AD
 10
12.424838
 20
-3.897677
 30
0.0
 11
12.422253
 21
-3.900117
 31
0.0
  0
LINE
  8
0
  6
CONTINUOUS
 62
     7
  5
9AE
 10
12.422253
 20
-3.900117
 30
0.0
 11
12.419684
 21
-3.902572
 31
0.0
  0
LINE
  8
0
  6
CONTINUOUS
 62
     7
  5
9AF
 10
12.419684
 20
-3.902572
 30
0.0
 11
12.41713
 21
-3.905044
 31
0.0
  0
LINE
  8
0
  6
CONTINUOUS
 62
     7
  5
9B0
 10
12.41713
 20
-3.905044
 30
0.0
 11
12.414592
 21
-3.907531
 31
0.0
  0
LINE
  8
0
  6
CONTINUOUS
 62
     7
  5
9B1
 10
12.414592
 20
-3.907531
 30
0.0
 11
12.412068
 21
-3.910033
 31
0.0
  0
LINE
  8
0
  6
CONTINUOUS
 62
     7
  5
9B2
 10
12.412068
 20
-3.910033
 30
0.0
 11
12.40956
 21
-3.912551
 31
0.0
  0
LINE
  8
0
  6
CONTINUOUS
 62
     7
  5
9B3
 10
12.40956
 20
-3.912551
 30
0.0
 11
12.407068
 21
-3.915085
 31
0.0
  0
LINE
  8
0
  6
CONTINUOUS
 62
     7
  5
9B4
 10
12.407068
 20
-3.915085
 30
0.0
 11
12.404591
 21
-3.917633
 31
0.0
  0
LINE
  8
0
  6
CONTINUOUS
 62
     7
  5
9B5
 10
12.404591
 20
-3.917633
 30
0.0
 11
12.40213
 21
-3.920197
 31
0.0
  0
LINE
  8
0
  6
CONTINUOUS
 62
     7
  5
9B6
 10
12.40213
 20
-3.920197
 30
0.0
 11
12.399685
 21
-3.922776
 31
0.0
  0
LINE
  8
0
  6
CONTINUOUS
 62
     7
  5
9B7
 10
12.399685
 20
-3.922776
 30
0.0
 11
12.397255
 21
-3.92537
 31
0.0
  0
LINE
  8
0
  6
CONTINUOUS
 62
     7
  5
9B8
 10
12.397255
 20
-3.92537
 30
0.0
 11
12.394842
 21
-3.927979
 31
0.0
  0
LINE
  8
0
  6
CONTINUOUS
 62
     7
  5
9B9
 10
12.394842
 20
-3.927979
 30
0.0
 11
12.392444
 21
-3.930602
 31
0.0
  0
LINE
  8
0
  6
CONTINUOUS
 62
     7
  5
9BA
 10
12.392444
 20
-3.930602
 30
0.0
 11
12.390063
 21
-3.93324
 31
0.0
  0
LINE
  8
0
  6
CONTINUOUS
 62
     7
  5
9BB
 10
12.390063
 20
-3.93324
 30
0.0
 11
12.387698
 21
-3.935893
 31
0.0
  0
LINE
  8
0
  6
CONTINUOUS
 62
     7
  5
9BC
 10
12.387698
 20
-3.935893
 30
0.0
 11
12.385349
 21
-3.93856
 31
0.0
  0
LINE
  8
0
  6
CONTINUOUS
 62
     7
  5
9BD
 10
12.385349
 20
-3.93856
 30
0.0
 11
12.383017
 21
-3.941242
 31
0.0
  0
LINE
  8
0
  6
CONTINUOUS
 62
     7
  5
9BE
 10
12.383017
 20
-3.941242
 30
0.0
 11
12.380702
 21
-3.943938
 31
0.0
  0
LINE
  8
0
  6
CONTINUOUS
 62
     7
  5
9BF
 10
12.380702
 20
-3.943938
 30
0.0
 11
12.378402
 21
-3.946648
 31
0.0
  0
LINE
  8
0
  6
CONTINUOUS
 62
     7
  5
9C0
 10
12.378402
 20
-3.946648
 30
0.0
 11
12.37612
 21
-3.949372
 31
0.0
  0
LINE
  8
0
  6
CONTINUOUS
 62
     7
  5
9C1
 10
10.605527
 20
-2.874163
 30
0.0
 11
12.465336
 21
-3.863041
 31
0.0
  0
LINE
  8
0
  6
CONTINUOUS
 62
     7
  5
9C2
 10
10.590622
 20
-2.860264
 30
0.0
 11
10.590938
 21
-2.860761
 31
0.0
  0
LINE
  8
0
  6
CONTINUOUS
 62
     7
  5
9C3
 10
10.590938
 20
-2.860761
 30
0.0
 11
10.591261
 21
-2.861253
 31
0.0
  0
LINE
  8
0
  6
CONTINUOUS
 62
     7
  5
9C4
 10
10.591261
 20
-2.861253
 30
0.0
 11
10.591592
 21
-2.861741
 31
0.0
  0
LINE
  8
0
  6
CONTINUOUS
 62
     7
  5
9C5
 10
10.591592
 20
-2.861741
 30
0.0
 11
10.591929
 21
-2.862223
 31
0.0
  0
LINE
  8
0
  6
CONTINUOUS
 62
     7
  5
9C6
 10
10.591929
 20
-2.862223
 30
0.0
 11
10.592274
 21
-2.862701
 31
0.0
  0
LINE
  8
0
  6
CONTINUOUS
 62
     7
  5
9C7
 10
10.592274
 20
-2.862701
 30
0.0
 11
10.592626
 21
-2.863173
 31
0.0
  0
LINE
  8
0
  6
CONTINUOUS
 62
     7
  5
9C8
 10
10.592626
 20
-2.863173
 30
0.0
 11
10.592986
 21
-2.86364
 31
0.0
  0
LINE
  8
0
  6
CONTINUOUS
 62
     7
  5
9C9
 10
10.592986
 20
-2.86364
 30
0.0
 11
10.593352
 21
-2.864101
 31
0.0
  0
LINE
  8
0
  6
CONTINUOUS
 62
     7
  5
9CA
 10
10.593352
 20
-2.864101
 30
0.0
 11
10.593725
 21
-2.864557
 31
0.0
  0
LINE
  8
0
  6
CONTINUOUS
 62
     7
  5
9CB
 10
10.593725
 20
-2.864557
 30
0.0
 11
10.594104
 21
-2.865007
 31
0.0
  0
LINE
  8
0
  6
CONTINUOUS
 62
     7
  5
9CC
 10
10.594104
 20
-2.865007
 30
0.0
 11
10.594491
 21
-2.865451
 31
0.0
  0
LINE
  8
0
  6
CONTINUOUS
 62
     7
  5
9CD
 10
10.594491
 20
-2.865451
 30
0.0
 11
10.594884
 21
-2.86589
 31
0.0
  0
LINE
  8
0
  6
CONTINUOUS
 62
     7
  5
9CE
 10
10.594884
 20
-2.86589
 30
0.0
 11
10.595283
 21
-2.866323
 31
0.0
  0
LINE
  8
0
  6
CONTINUOUS
 62
     7
  5
9CF
 10
10.595283
 20
-2.866323
 30
0.0
 11
10.595689
 21
-2.86675
 31
0.0
  0
LINE
  8
0
  6
CONTINUOUS
 62
     7
  5
9D0
 10
10.595689
 20
-2.86675
 30
0.0
 11
10.596101
 21
-2.86717
 31
0.0
  0
LINE
  8
0
  6
CONTINUOUS
 62
     7
  5
9D1
 10
10.596101
 20
-2.86717
 30
0.0
 11
10.59652
 21
-2.867585
 31
0.0
  0
LINE
  8
0
  6
CONTINUOUS
 62
     7
  5
9D2
 10
10.59652
 20
-2.867585
 30
0.0
 11
10.596945
 21
-2.867993
 31
0.0
  0
LINE
  8
0
  6
CONTINUOUS
 62
     7
  5
9D3
 10
10.596945
 20
-2.867993
 30
0.0
 11
10.597375
 21
-2.868394
 31
0.0
  0
LINE
  8
0
  6
CONTINUOUS
 62
     7
  5
9D4
 10
10.597375
 20
-2.868394
 30
0.0
 11
10.597812
 21
-2.86879
 31
0.0
  0
LINE
  8
0
  6
CONTINUOUS
 62
     7
  5
9D5
 10
10.597812
 20
-2.86879
 30
0.0
 11
10.598255
 21
-2.869178
 31
0.0
  0
LINE
  8
0
  6
CONTINUOUS
 62
     7
  5
9D6
 10
10.598255
 20
-2.869178
 30
0.0
 11
10.598703
 21
-2.86956
 31
0.0
  0
LINE
  8
0
  6
CONTINUOUS
 62
     7
  5
9D7
 10
10.598703
 20
-2.86956
 30
0.0
 11
10.599157
 21
-2.869935
 31
0.0
  0
LINE
  8
0
  6
CONTINUOUS
 62
     7
  5
9D8
 10
10.599157
 20
-2.869935
 30
0.0
 11
10.599617
 21
-2.870304
 31
0.0
  0
LINE
  8
0
  6
CONTINUOUS
 62
     7
  5
9D9
 10
10.599617
 20
-2.870304
 30
0.0
 11
10.600082
 21
-2.870665
 31
0.0
  0
LINE
  8
0
  6
CONTINUOUS
 62
     7
  5
9DA
 10
10.600082
 20
-2.870665
 30
0.0
 11
10.600552
 21
-2.87102
 31
0.0
  0
LINE
  8
0
  6
CONTINUOUS
 62
     7
  5
9DB
 10
10.600552
 20
-2.87102
 30
0.0
 11
10.601028
 21
-2.871367
 31
0.0
  0
LINE
  8
0
  6
CONTINUOUS
 62
     7
  5
9DC
 10
10.601028
 20
-2.871367
 30
0.0
 11
10.601508
 21
-2.871707
 31
0.0
  0
LINE
  8
0
  6
CONTINUOUS
 62
     7
  5
9DD
 10
10.601508
 20
-2.871707
 30
0.0
 11
10.601994
 21
-2.87204
 31
0.0
  0
LINE
  8
0
  6
CONTINUOUS
 62
     7
  5
9DE
 10
10.601994
 20
-2.87204
 30
0.0
 11
10.602485
 21
-2.872366
 31
0.0
  0
LINE
  8
0
  6
CONTINUOUS
 62
     7
  5
9DF
 10
10.602485
 20
-2.872366
 30
0.0
 11
10.60298
 21
-2.872684
 31
0.0
  0
LINE
  8
0
  6
CONTINUOUS
 62
     7
  5
9E0
 10
10.60298
 20
-2.872684
 30
0.0
 11
10.603481
 21
-2.872995
 31
0.0
  0
LINE
  8
0
  6
CONTINUOUS
 62
     7
  5
9E1
 10
10.603481
 20
-2.872995
 30
0.0
 11
10.603986
 21
-2.873298
 31
0.0
  0
LINE
  8
0
  6
CONTINUOUS
 62
     7
  5
9E2
 10
10.603986
 20
-2.873298
 30
0.0
 11
10.604495
 21
-2.873594
 31
0.0
  0
LINE
  8
0
  6
CONTINUOUS
 62
     7
  5
9E3
 10
10.604495
 20
-2.873594
 30
0.0
 11
10.605009
 21
-2.873882
 31
0.0
  0
LINE
  8
0
  6
CONTINUOUS
 62
     7
  5
9E4
 10
10.605009
 20
-2.873882
 30
0.0
 11
10.605527
 21
-2.874163
 31
0.0
  0
LINE
  8
0
  6
CONTINUOUS
 62
     7
  5
9E5
 10
10.347354
 20
-2.470955
 30
0.0
 11
10.590622
 21
-2.860264
 31
0.0
  0
LINE
  8
0
  6
CONTINUOUS
 62
     7
  5
9E6
 10
10.287736
 20
-2.41536
 30
0.0
 11
10.289808
 21
-2.416481
 31
0.0
  0
LINE
  8
0
  6
CONTINUOUS
 62
     7
  5
9E7
 10
10.289808
 20
-2.416481
 30
0.0
 11
10.291863
 21
-2.417633
 31
0.0
  0
LINE
  8
0
  6
CONTINUOUS
 62
     7
  5
9E8
 10
10.291863
 20
-2.417633
 30
0.0
 11
10.2939
 21
-2.418817
 31
0.0
  0
LINE
  8
0
  6
CONTINUOUS
 62
     7
  5
9E9
 10
10.2939
 20
-2.418817
 30
0.0
 11
10.295919
 21
-2.42003
 31
0.0
  0
LINE
  8
0
  6
CONTINUOUS
 62
     7
  5
9EA
 10
10.295919
 20
-2.42003
 30
0.0
 11
10.29792
 21
-2.421273
 31
0.0
  0
LINE
  8
0
  6
CONTINUOUS
 62
     7
  5
9EB
 10
10.29792
 20
-2.421273
 30
0.0
 11
10.299903
 21
-2.422547
 31
0.0
  0
LINE
  8
0
  6
CONTINUOUS
 62
     7
  5
9EC
 10
10.299903
 20
-2.422547
 30
0.0
 11
10.301865
 21
-2.423849
 31
0.0
  0
LINE
  8
0
  6
CONTINUOUS
 62
     7
  5
9ED
 10
10.301865
 20
-2.423849
 30
0.0
 11
10.303809
 21
-2.425181
 31
0.0
  0
LINE
  8
0
  6
CONTINUOUS
 62
     7
  5
9EE
 10
10.303809
 20
-2.425181
 30
0.0
 11
10.305732
 21
-2.426542
 31
0.0
  0
LINE
  8
0
  6
CONTINUOUS
 62
     7
  5
9EF
 10
10.305732
 20
-2.426542
 30
0.0
 11
10.307634
 21
-2.427932
 31
0.0
  0
LINE
  8
0
  6
CONTINUOUS
 62
     7
  5
9F0
 10
10.307634
 20
-2.427932
 30
0.0
 11
10.309516
 21
-2.429349
 31
0.0
  0
LINE
  8
0
  6
CONTINUOUS
 62
     7
  5
9F1
 10
10.309516
 20
-2.429349
 30
0.0
 11
10.311376
 21
-2.430795
 31
0.0
  0
LINE
  8
0
  6
CONTINUOUS
 62
     7
  5
9F2
 10
10.311376
 20
-2.430795
 30
0.0
 11
10.313214
 21
-2.432269
 31
0.0
  0
LINE
  8
0
  6
CONTINUOUS
 62
     7
  5
9F3
 10
10.313214
 20
-2.432269
 30
0.0
 11
10.31503
 21
-2.433769
 31
0.0
  0
LINE
  8
0
  6
CONTINUOUS
 62
     7
  5
9F4
 10
10.31503
 20
-2.433769
 30
0.0
 11
10.316823
 21
-2.435297
 31
0.0
  0
LINE
  8
0
  6
CONTINUOUS
 62
     7
  5
9F5
 10
10.316823
 20
-2.435297
 30
0.0
 11
10.318594
 21
-2.436852
 31
0.0
  0
LINE
  8
0
  6
CONTINUOUS
 62
     7
  5
9F6
 10
10.318594
 20
-2.436852
 30
0.0
 11
10.32034
 21
-2.438432
 31
0.0
  0
LINE
  8
0
  6
CONTINUOUS
 62
     7
  5
9F7
 10
10.32034
 20
-2.438432
 30
0.0
 11
10.322063
 21
-2.440039
 31
0.0
  0
LINE
  8
0
  6
CONTINUOUS
 62
     7
  5
9F8
 10
10.322063
 20
-2.440039
 30
0.0
 11
10.323762
 21
-2.441671
 31
0.0
  0
LINE
  8
0
  6
CONTINUOUS
 62
     7
  5
9F9
 10
10.323762
 20
-2.441671
 30
0.0
 11
10.325436
 21
-2.443329
 31
0.0
  0
LINE
  8
0
  6
CONTINUOUS
 62
     7
  5
9FA
 10
10.325436
 20
-2.443329
 30
0.0
 11
10.327085
 21
-2.445011
 31
0.0
  0
LINE
  8
0
  6
CONTINUOUS
 62
     7
  5
9FB
 10
10.327085
 20
-2.445011
 30
0.0
 11
10.328709
 21
-2.446718
 31
0.0
  0
LINE
  8
0
  6
CONTINUOUS
 62
     7
  5
9FC
 10
10.328709
 20
-2.446718
 30
0.0
 11
10.330307
 21
-2.448449
 31
0.0
  0
LINE
  8
0
  6
CONTINUOUS
 62
     7
  5
9FD
 10
10.330307
 20
-2.448449
 30
0.0
 11
10.331879
 21
-2.450204
 31
0.0
  0
LINE
  8
0
  6
CONTINUOUS
 62
     7
  5
9FE
 10
10.331879
 20
-2.450204
 30
0.0
 11
10.333425
 21
-2.451982
 31
0.0
  0
LINE
  8
0
  6
CONTINUOUS
 62
     7
  5
9FF
 10
10.333425
 20
-2.451982
 30
0.0
 11
10.334944
 21
-2.453783
 31
0.0
  0
LINE
  8
0
  6
CONTINUOUS
 62
     7
  5
A00
 10
10.334944
 20
-2.453783
 30
0.0
 11
10.336436
 21
-2.455606
 31
0.0
  0
LINE
  8
0
  6
CONTINUOUS
 62
     7
  5
A01
 10
10.336436
 20
-2.455606
 30
0.0
 11
10.3379
 21
-2.457452
 31
0.0
  0
LINE
  8
0
  6
CONTINUOUS
 62
     7
  5
A02
 10
10.3379
 20
-2.457452
 30
0.0
 11
10.339336
 21
-2.459319
 31
0.0
  0
LINE
  8
0
  6
CONTINUOUS
 62
     7
  5
A03
 10
10.339336
 20
-2.459319
 30
0.0
 11
10.340745
 21
-2.461208
 31
0.0
  0
LINE
  8
0
  6
CONTINUOUS
 62
     7
  5
A04
 10
10.340745
 20
-2.461208
 30
0.0
 11
10.342125
 21
-2.463117
 31
0.0
  0
LINE
  8
0
  6
CONTINUOUS
 62
     7
  5
A05
 10
10.342125
 20
-2.463117
 30
0.0
 11
10.343476
 21
-2.465047
 31
0.0
  0
LINE
  8
0
  6
CONTINUOUS
 62
     7
  5
A06
 10
10.343476
 20
-2.465047
 30
0.0
 11
10.344798
 21
-2.466997
 31
0.0
  0
LINE
  8
0
  6
CONTINUOUS
 62
     7
  5
A07
 10
10.344798
 20
-2.466997
 30
0.0
 11
10.346091
 21
-2.468966
 31
0.0
  0
LINE
  8
0
  6
CONTINUOUS
 62
     7
  5
A08
 10
10.346091
 20
-2.468966
 30
0.0
 11
10.347354
 21
-2.470955
 31
0.0
  0
LINE
  8
0
  6
CONTINUOUS
 62
     7
  5
A09
 10
8.146994
 20
-1.410875
 30
0.0
 11
7.795814
 21
-2.071347
 31
0.0
  0
LINE
  8
0
  6
CONTINUOUS
 62
     7
  5
A0A
 10
5.188976
 20
5.333465
 30
0.0
 11
5.188976
 21
4.783465
 31
0.0
  0
LINE
  8
0
  6
CONTINUOUS
 62
     7
  5
A0B
 10
4.992126
 20
5.333465
 30
0.0
 11
5.188976
 21
5.333465
 31
0.0
  0
LINE
  8
0
  6
CONTINUOUS
 62
     7
  5
A0C
 10
5.188976
 20
4.783465
 30
0.0
 11
4.992126
 21
4.783465
 31
0.0
  0
LINE
  8
0
  6
CONTINUOUS
 62
     7
  5
A0D
 10
4.992126
 20
-1.956693
 30
0.0
 11
5.188976
 21
-1.956693
 31
0.0
  0
LINE
  8
0
  6
CONTINUOUS
 62
     7
  5
A0E
 10
5.188976
 20
4.783465
 30
0.0
 11
5.188976
 21
-1.956693
 31
0.0
  0
LINE
  8
0
  6
CONTINUOUS
 62
     7
  5
A0F
 10
4.992126
 20
5.783465
 30
0.0
 11
5.070866
 21
5.783465
 31
0.0
  0
LINE
  8
0
  6
CONTINUOUS
 62
     7
  5
A10
 10
5.070866
 20
-2.956693
 30
0.0
 11
4.992126
 21
-2.956693
 31
0.0
  0
LINE
  8
0
  6
CONTINUOUS
 62
     7
  5
A11
 10
5.188976
 20
-1.956693
 30
0.0
 11
5.188976
 21
-2.506693
 31
0.0
  0
LINE
  8
0
  6
CONTINUOUS
 62
     7
  5
A12
 10
4.992126
 20
-2.506693
 30
0.0
 11
5.188976
 21
-2.506693
 31
0.0
  0
LINE
  8
0
  6
CONTINUOUS
 62
     7
  5
A13
 10
5.070866
 20
-2.720472
 30
0.0
 11
5.070866
 21
-2.956693
 31
0.0
  0
LINE
  8
0
  6
CONTINUOUS
 62
     7
  5
A14
 10
5.070866
 20
5.783465
 30
0.0
 11
5.070866
 21
5.547244
 31
0.0
  0
LINE
  8
0
  6
CONTINUOUS
 62
     7
  5
A15
 10
6.362205
 20
5.547244
 30
0.0
 11
5.070866
 21
5.547244
 31
0.0
  0
LINE
  8
0
  6
CONTINUOUS
 62
     7
  5
A16
 10
6.362205
 20
-2.720472
 30
0.0
 11
5.070866
 21
-2.720472
 31
0.0
  0
LINE
  8
0
  6
CONTINUOUS
 62
     7
  5
A17
 10
6.362205
 20
5.547244
 30
0.0
 11
6.362205
 21
-2.720472
 31
0.0
  0
LINE
  8
0
  6
CONTINUOUS
 62
     7
  5
A18
 10
6.633858
 20
5.251969
 30
0.0
 11
6.633858
 21
-2.425197
 31
0.0
  0
LINE
  8
0
  6
CONTINUOUS
 62
     7
  5
A19
 10
6.633858
 20
-2.425197
 30
0.0
 11
6.362205
 21
-2.425197
 31
0.0
  0
LINE
  8
0
  6
CONTINUOUS
 62
     7
  5
A1A
 10
6.633858
 20
5.251969
 30
0.0
 11
6.362205
 21
5.251969
 31
0.0
  0
LINE
  8
0
  6
CONTINUOUS
 62
     7
  5
A1B
 10
6.830709
 20
2.224409
 30
0.0
 11
6.830709
 21
-2.224409
 31
0.0
  0
LINE
  8
0
  6
CONTINUOUS
 62
     7
  5
A1C
 10
6.830709
 20
-2.224409
 30
0.0
 11
6.633858
 21
-2.224409
 31
0.0
  0
LINE
  8
0
  6
CONTINUOUS
 62
     7
  5
A1D
 10
6.830709
 20
2.224409
 30
0.0
 11
6.633858
 21
2.224409
 31
0.0
  0
LINE
  8
0
  6
CONTINUOUS
 62
     7
  5
A1E
 10
1.744173
 20
5.980315
 30
0.0
 11
1.744091
 21
5.975906
 31
0.0
  0
LINE
  8
0
  6
CONTINUOUS
 62
     7
  5
A1F
 10
1.744091
 20
5.975906
 30
0.0
 11
1.743844
 21
5.971504
 31
0.0
  0
LINE
  8
0
  6
CONTINUOUS
 62
     7
  5
A20
 10
1.743844
 20
5.971504
 30
0.0
 11
1.743433
 21
5.967113
 31
0.0
  0
LINE
  8
0
  6
CONTINUOUS
 62
     7
  5
A21
 10
1.743433
 20
5.967113
 30
0.0
 11
1.742858
 21
5.962741
 31
0.0
  0
LINE
  8
0
  6
CONTINUOUS
 62
     7
  5
A22
 10
1.742858
 20
5.962741
 30
0.0
 11
1.742121
 21
5.958394
 31
0.0
  0
LINE
  8
0
  6
CONTINUOUS
 62
     7
  5
A23
 10
1.742121
 20
5.958394
 30
0.0
 11
1.741222
 21
5.954077
 31
0.0
  0
LINE
  8
0
  6
CONTINUOUS
 62
     7
  5
A24
 10
1.741222
 20
5.954077
 30
0.0
 11
1.740162
 21
5.949796
 31
0.0
  0
LINE
  8
0
  6
CONTINUOUS
 62
     7
  5
A25
 10
1.740162
 20
5.949796
 30
0.0
 11
1.738944
 21
5.945559
 31
0.0
  0
LINE
  8
0
  6
CONTINUOUS
 62
     7
  5
A26
 10
1.738944
 20
5.945559
 30
0.0
 11
1.737568
 21
5.941369
 31
0.0
  0
LINE
  8
0
  6
CONTINUOUS
 62
     7
  5
A27
 10
1.737568
 20
5.941369
 30
0.0
 11
1.736036
 21
5.937234
 31
0.0
  0
LINE
  8
0
  6
CONTINUOUS
 62
     7
  5
A28
 10
1.736036
 20
5.937234
 30
0.0
 11
1.734351
 21
5.933159
 31
0.0
  0
LINE
  8
0
  6
CONTINUOUS
 62
     7
  5
A29
 10
1.734351
 20
5.933159
 30
0.0
 11
1.732516
 21
5.92915
 31
0.0
  0
LINE
  8
0
  6
CONTINUOUS
 62
     7
  5
A2A
 10
1.732516
 20
5.92915
 30
0.0
 11
1.730532
 21
5.925212
 31
0.0
  0
LINE
  8
0
  6
CONTINUOUS
 62
     7
  5
A2B
 10
1.730532
 20
5.925212
 30
0.0
 11
1.728402
 21
5.921351
 31
0.0
  0
LINE
  8
0
  6
CONTINUOUS
 62
     7
  5
A2C
 10
1.728402
 20
5.921351
 30
0.0
 11
1.72613
 21
5.917572
 31
0.0
  0
LINE
  8
0
  6
CONTINUOUS
 62
     7
  5
A2D
 10
1.72613
 20
5.917572
 30
0.0
 11
1.723718
 21
5.91388
 31
0.0
  0
LINE
  8
0
  6
CONTINUOUS
 62
     7
  5
A2E
 10
1.723718
 20
5.91388
 30
0.0
 11
1.72117
 21
5.910281
 31
0.0
  0
LINE
  8
0
  6
CONTINUOUS
 62
     7
  5
A2F
 10
1.72117
 20
5.910281
 30
0.0
 11
1.718489
 21
5.90678
 31
0.0
  0
LINE
  8
0
  6
CONTINUOUS
 62
     7
  5
A30
 10
1.718489
 20
5.90678
 30
0.0
 11
1.71568
 21
5.903381
 31
0.0
  0
LINE
  8
0
  6
CONTINUOUS
 62
     7
  5
A31
 10
1.71568
 20
5.903381
 30
0.0
 11
1.712746
 21
5.90009
 31
0.0
  0
LINE
  8
0
  6
CONTINUOUS
 62
     7
  5
A32
 10
1.712746
 20
5.90009
 30
0.0
 11
1.709691
 21
5.89691
 31
0.0
  0
LINE
  8
0
  6
CONTINUOUS
 62
     7
  5
A33
 10
1.709691
 20
5.89691
 30
0.0
 11
1.706519
 21
5.893846
 31
0.0
  0
LINE
  8
0
  6
CONTINUOUS
 62
     7
  5
A34
 10
1.706519
 20
5.893846
 30
0.0
 11
1.703235
 21
5.890903
 31
0.0
  0
LINE
  8
0
  6
CONTINUOUS
 62
     7
  5
A35
 10
1.703235
 20
5.890903
 30
0.0
 11
1.699844
 21
5.888085
 31
0.0
  0
LINE
  8
0
  6
CONTINUOUS
 62
     7
  5
A36
 10
1.699844
 20
5.888085
 30
0.0
 11
1.69635
 21
5.885395
 31
0.0
  0
LINE
  8
0
  6
CONTINUOUS
 62
     7
  5
A37
 10
1.69635
 20
5.885395
 30
0.0
 11
1.692758
 21
5.882838
 31
0.0
  0
LINE
  8
0
  6
CONTINUOUS
 62
     7
  5
A38
 10
1.692758
 20
5.882838
 30
0.0
 11
1.689073
 21
5.880416
 31
0.0
  0
LINE
  8
0
  6
CONTINUOUS
 62
     7
  5
A39
 10
1.689073
 20
5.880416
 30
0.0
 11
1.6853
 21
5.878134
 31
0.0
  0
LINE
  8
0
  6
CONTINUOUS
 62
     7
  5
A3A
 10
1.6853
 20
5.878134
 30
0.0
 11
1.681444
 21
5.875994
 31
0.0
  0
LINE
  8
0
  6
CONTINUOUS
 62
     7
  5
A3B
 10
1.681444
 20
5.875994
 30
0.0
 11
1.677512
 21
5.873999
 31
0.0
  0
LINE
  8
0
  6
CONTINUOUS
 62
     7
  5
A3C
 10
1.677512
 20
5.873999
 30
0.0
 11
1.673507
 21
5.872153
 31
0.0
  0
LINE
  8
0
  6
CONTINUOUS
 62
     7
  5
A3D
 10
1.673507
 20
5.872153
 30
0.0
 11
1.669437
 21
5.870457
 31
0.0
  0
LINE
  8
0
  6
CONTINUOUS
 62
     7
  5
A3E
 10
1.669437
 20
5.870457
 30
0.0
 11
1.665306
 21
5.868915
 31
0.0
  0
LINE
  8
0
  6
CONTINUOUS
 62
     7
  5
A3F
 10
1.665306
 20
5.868915
 30
0.0
 11
1.66112
 21
5.867527
 31
0.0
  0
LINE
  8
0
  6
CONTINUOUS
 62
     7
  5
A40
 10
1.66112
 20
5.867527
 30
0.0
 11
1.656885
 21
5.866297
 31
0.0
  0
LINE
  8
0
  6
CONTINUOUS
 62
     7
  5
A41
 10
1.656885
 20
6.094333
 30
0.0
 11
1.66112
 21
6.093103
 31
0.0
  0
LINE
  8
0
  6
CONTINUOUS
 62
     7
  5
A42
 10
1.66112
 20
6.093103
 30
0.0
 11
1.665306
 21
6.091715
 31
0.0
  0
LINE
  8
0
  6
CONTINUOUS
 62
     7
  5
A43
 10
1.665306
 20
6.091715
 30
0.0
 11
1.669437
 21
6.090173
 31
0.0
  0
LINE
  8
0
  6
CONTINUOUS
 62
     7
  5
A44
 10
1.669437
 20
6.090173
 30
0.0
 11
1.673507
 21
6.088477
 31
0.0
  0
LINE
  8
0
  6
CONTINUOUS
 62
     7
  5
A45
 10
1.673507
 20
6.088477
 30
0.0
 11
1.677512
 21
6.086631
 31
0.0
  0
LINE
  8
0
  6
CONTINUOUS
 62
     7
  5
A46
 10
1.677512
 20
6.086631
 30
0.0
 11
1.681444
 21
6.084636
 31
0.0
  0
LINE
  8
0
  6
CONTINUOUS
 62
     7
  5
A47
 10
1.681444
 20
6.084636
 30
0.0
 11
1.6853
 21
6.082496
 31
0.0
  0
LINE
  8
0
  6
CONTINUOUS
 62
     7
  5
A48
 10
1.6853
 20
6.082496
 30
0.0
 11
1.689073
 21
6.080214
 31
0.0
  0
LINE
  8
0
  6
CONTINUOUS
 62
     7
  5
A49
 10
1.689073
 20
6.080214
 30
0.0
 11
1.692758
 21
6.077792
 31
0.0
  0
LINE
  8
0
  6
CONTINUOUS
 62
     7
  5
A4A
 10
1.692758
 20
6.077792
 30
0.0
 11
1.69635
 21
6.075235
 31
0.0
  0
LINE
  8
0
  6
CONTINUOUS
 62
     7
  5
A4B
 10
1.69635
 20
6.075235
 30
0.0
 11
1.699844
 21
6.072545
 31
0.0
  0
LINE
  8
0
  6
CONTINUOUS
 62
     7
  5
A4C
 10
1.699844
 20
6.072545
 30
0.0
 11
1.703235
 21
6.069727
 31
0.0
  0
LINE
  8
0
  6
CONTINUOUS
 62
     7
  5
A4D
 10
1.703235
 20
6.069727
 30
0.0
 11
1.706519
 21
6.066784
 31
0.0
  0
LINE
  8
0
  6
CONTINUOUS
 62
     7
  5
A4E
 10
1.706519
 20
6.066784
 30
0.0
 11
1.709691
 21
6.06372
 31
0.0
  0
LINE
  8
0
  6
CONTINUOUS
 62
     7
  5
A4F
 10
1.709691
 20
6.06372
 30
0.0
 11
1.712746
 21
6.06054
 31
0.0
  0
LINE
  8
0
  6
CONTINUOUS
 62
     7
  5
A50
 10
1.712746
 20
6.06054
 30
0.0
 11
1.71568
 21
6.057249
 31
0.0
  0
LINE
  8
0
  6
CONTINUOUS
 62
     7
  5
A51
 10
1.71568
 20
6.057249
 30
0.0
 11
1.718489
 21
6.05385
 31
0.0
  0
LINE
  8
0
  6
CONTINUOUS
 62
     7
  5
A52
 10
1.718489
 20
6.05385
 30
0.0
 11
1.72117
 21
6.050349
 31
0.0
  0
LINE
  8
0
  6
CONTINUOUS
 62
     7
  5
A53
 10
1.72117
 20
6.050349
 30
0.0
 11
1.723718
 21
6.04675
 31
0.0
  0
LINE
  8
0
  6
CONTINUOUS
 62
     7
  5
A54
 10
1.723718
 20
6.04675
 30
0.0
 11
1.72613
 21
6.043058
 31
0.0
  0
LINE
  8
0
  6
CONTINUOUS
 62
     7
  5
A55
 10
1.72613
 20
6.043058
 30
0.0
 11
1.728402
 21
6.039279
 31
0.0
  0
LINE
  8
0
  6
CONTINUOUS
 62
     7
  5
A56
 10
1.728402
 20
6.039279
 30
0.0
 11
1.730532
 21
6.035418
 31
0.0
  0
LINE
  8
0
  6
CONTINUOUS
 62
     7
  5
A57
 10
1.730532
 20
6.035418
 30
0.0
 11
1.732516
 21
6.03148
 31
0.0
  0
LINE
  8
0
  6
CONTINUOUS
 62
     7
  5
A58
 10
1.732516
 20
6.03148
 30
0.0
 11
1.734351
 21
6.027471
 31
0.0
  0
LINE
  8
0
  6
CONTINUOUS
 62
     7
  5
A59
 10
1.734351
 20
6.027471
 30
0.0
 11
1.736036
 21
6.023396
 31
0.0
  0
LINE
  8
0
  6
CONTINUOUS
 62
     7
  5
A5A
 10
1.736036
 20
6.023396
 30
0.0
 11
1.737568
 21
6.019261
 31
0.0
  0
LINE
  8
0
  6
CONTINUOUS
 62
     7
  5
A5B
 10
1.737568
 20
6.019261
 30
0.0
 11
1.738944
 21
6.015071
 31
0.0
  0
LINE
  8
0
  6
CONTINUOUS
 62
     7
  5
A5C
 10
1.738944
 20
6.015071
 30
0.0
 11
1.740162
 21
6.010833
 31
0.0
  0
LINE
  8
0
  6
CONTINUOUS
 62
     7
  5
A5D
 10
1.740162
 20
6.010833
 30
0.0
 11
1.741222
 21
6.006553
 31
0.0
  0
LINE
  8
0
  6
CONTINUOUS
 62
     7
  5
A5E
 10
1.741222
 20
6.006553
 30
0.0
 11
1.742121
 21
6.002236
 31
0.0
  0
LINE
  8
0
  6
CONTINUOUS
 62
     7
  5
A5F
 10
1.742121
 20
6.002236
 30
0.0
 11
1.742858
 21
5.997889
 31
0.0
  0
LINE
  8
0
  6
CONTINUOUS
 62
     7
  5
A60
 10
1.742858
 20
5.997889
 30
0.0
 11
1.743433
 21
5.993517
 31
0.0
  0
LINE
  8
0
  6
CONTINUOUS
 62
     7
  5
A61
 10
1.743433
 20
5.993517
 30
0.0
 11
1.743844
 21
5.989126
 31
0.0
  0
LINE
  8
0
  6
CONTINUOUS
 62
     7
  5
A62
 10
1.743844
 20
5.989126
 30
0.0
 11
1.744091
 21
5.984724
 31
0.0
  0
LINE
  8
0
  6
CONTINUOUS
 62
     7
  5
A63
 10
1.744091
 20
5.984724
 30
0.0
 11
1.744173
 21
5.980315
 31
0.0
  0
LINE
  8
0
  6
CONTINUOUS
 62
     7
  5
A64
 10
0.720472
 20
11.393701
 30
0.0
 11
0.562992
 21
11.393701
 31
0.0
  0
LINE
  8
0
  6
CONTINUOUS
 62
     7
  5
A65
 10
0.562992
 20
6.393701
 30
0.0
 11
0.562992
 21
6.394701
 31
0.0
  0
LINE
  8
0
  6
CONTINUOUS
 62
     7
  5
A66
 10
0.720472
 20
6.393701
 30
0.0
 11
0.562992
 21
6.393701
 31
0.0
  0
LINE
  8
0
  6
CONTINUOUS
 62
     7
  5
A67
 10
0.720472
 20
5.783465
 30
0.0
 11
0.720472
 21
6.394701
 31
0.0
  0
LINE
  8
0
  6
CONTINUOUS
 62
     7
  5
A68
 10
1.656885
 20
5.866297
 30
0.0
 11
1.350472
 21
5.783465
 31
0.0
  0
LINE
  8
0
  6
CONTINUOUS
 62
     7
  5
A69
 10
1.350472
 20
6.177165
 30
0.0
 11
1.656885
 21
6.094333
 31
0.0
  0
LINE
  8
0
  6
CONTINUOUS
 62
     7
  5
A6A
 10
1.744173
 20
5.980315
 30
0.0
 11
1.744091
 21
5.975906
 31
0.0
  0
LINE
  8
0
  6
CONTINUOUS
 62
     7
  5
A6B
 10
1.744091
 20
5.975906
 30
0.0
 11
1.743844
 21
5.971504
 31
0.0
  0
LINE
  8
0
  6
CONTINUOUS
 62
     7
  5
A6C
 10
1.743844
 20
5.971504
 30
0.0
 11
1.743433
 21
5.967113
 31
0.0
  0
LINE
  8
0
  6
CONTINUOUS
 62
     7
  5
A6D
 10
1.743433
 20
5.967113
 30
0.0
 11
1.742858
 21
5.962741
 31
0.0
  0
LINE
  8
0
  6
CONTINUOUS
 62
     7
  5
A6E
 10
1.742858
 20
5.962741
 30
0.0
 11
1.742121
 21
5.958394
 31
0.0
  0
LINE
  8
0
  6
CONTINUOUS
 62
     7
  5
A6F
 10
1.742121
 20
5.958394
 30
0.0
 11
1.741222
 21
5.954077
 31
0.0
  0
LINE
  8
0
  6
CONTINUOUS
 62
     7
  5
A70
 10
1.741222
 20
5.954077
 30
0.0
 11
1.740162
 21
5.949796
 31
0.0
  0
LINE
  8
0
  6
CONTINUOUS
 62
     7
  5
A71
 10
1.740162
 20
5.949796
 30
0.0
 11
1.738944
 21
5.945559
 31
0.0
  0
LINE
  8
0
  6
CONTINUOUS
 62
     7
  5
A72
 10
1.738944
 20
5.945559
 30
0.0
 11
1.737568
 21
5.941369
 31
0.0
  0
LINE
  8
0
  6
CONTINUOUS
 62
     7
  5
A73
 10
1.737568
 20
5.941369
 30
0.0
 11
1.736036
 21
5.937234
 31
0.0
  0
LINE
  8
0
  6
CONTINUOUS
 62
     7
  5
A74
 10
1.736036
 20
5.937234
 30
0.0
 11
1.734351
 21
5.933159
 31
0.0
  0
LINE
  8
0
  6
CONTINUOUS
 62
     7
  5
A75
 10
1.734351
 20
5.933159
 30
0.0
 11
1.732516
 21
5.92915
 31
0.0
  0
LINE
  8
0
  6
CONTINUOUS
 62
     7
  5
A76
 10
1.732516
 20
5.92915
 30
0.0
 11
1.730532
 21
5.925212
 31
0.0
  0
LINE
  8
0
  6
CONTINUOUS
 62
     7
  5
A77
 10
1.730532
 20
5.925212
 30
0.0
 11
1.728402
 21
5.921351
 31
0.0
  0
LINE
  8
0
  6
CONTINUOUS
 62
     7
  5
A78
 10
1.728402
 20
5.921351
 30
0.0
 11
1.72613
 21
5.917572
 31
0.0
  0
LINE
  8
0
  6
CONTINUOUS
 62
     7
  5
A79
 10
1.72613
 20
5.917572
 30
0.0
 11
1.723718
 21
5.91388
 31
0.0
  0
LINE
  8
0
  6
CONTINUOUS
 62
     7
  5
A7A
 10
1.723718
 20
5.91388
 30
0.0
 11
1.72117
 21
5.910281
 31
0.0
  0
LINE
  8
0
  6
CONTINUOUS
 62
     7
  5
A7B
 10
1.72117
 20
5.910281
 30
0.0
 11
1.718489
 21
5.90678
 31
0.0
  0
LINE
  8
0
  6
CONTINUOUS
 62
     7
  5
A7C
 10
1.718489
 20
5.90678
 30
0.0
 11
1.71568
 21
5.903381
 31
0.0
  0
LINE
  8
0
  6
CONTINUOUS
 62
     7
  5
A7D
 10
1.71568
 20
5.903381
 30
0.0
 11
1.712746
 21
5.90009
 31
0.0
  0
LINE
  8
0
  6
CONTINUOUS
 62
     7
  5
A7E
 10
1.712746
 20
5.90009
 30
0.0
 11
1.709691
 21
5.89691
 31
0.0
  0
LINE
  8
0
  6
CONTINUOUS
 62
     7
  5
A7F
 10
1.709691
 20
5.89691
 30
0.0
 11
1.706519
 21
5.893846
 31
0.0
  0
LINE
  8
0
  6
CONTINUOUS
 62
     7
  5
A80
 10
1.706519
 20
5.893846
 30
0.0
 11
1.703235
 21
5.890903
 31
0.0
  0
LINE
  8
0
  6
CONTINUOUS
 62
     7
  5
A81
 10
1.703235
 20
5.890903
 30
0.0
 11
1.699844
 21
5.888085
 31
0.0
  0
LINE
  8
0
  6
CONTINUOUS
 62
     7
  5
A82
 10
1.699844
 20
5.888085
 30
0.0
 11
1.69635
 21
5.885395
 31
0.0
  0
LINE
  8
0
  6
CONTINUOUS
 62
     7
  5
A83
 10
1.69635
 20
5.885395
 30
0.0
 11
1.692758
 21
5.882838
 31
0.0
  0
LINE
  8
0
  6
CONTINUOUS
 62
     7
  5
A84
 10
1.692758
 20
5.882838
 30
0.0
 11
1.689073
 21
5.880416
 31
0.0
  0
LINE
  8
0
  6
CONTINUOUS
 62
     7
  5
A85
 10
1.689073
 20
5.880416
 30
0.0
 11
1.6853
 21
5.878134
 31
0.0
  0
LINE
  8
0
  6
CONTINUOUS
 62
     7
  5
A86
 10
1.6853
 20
5.878134
 30
0.0
 11
1.681444
 21
5.875994
 31
0.0
  0
LINE
  8
0
  6
CONTINUOUS
 62
     7
  5
A87
 10
1.681444
 20
5.875994
 30
0.0
 11
1.677512
 21
5.873999
 31
0.0
  0
LINE
  8
0
  6
CONTINUOUS
 62
     7
  5
A88
 10
1.677512
 20
5.873999
 30
0.0
 11
1.673507
 21
5.872153
 31
0.0
  0
LINE
  8
0
  6
CONTINUOUS
 62
     7
  5
A89
 10
1.673507
 20
5.872153
 30
0.0
 11
1.669437
 21
5.870457
 31
0.0
  0
LINE
  8
0
  6
CONTINUOUS
 62
     7
  5
A8A
 10
1.669437
 20
5.870457
 30
0.0
 11
1.665306
 21
5.868915
 31
0.0
  0
LINE
  8
0
  6
CONTINUOUS
 62
     7
  5
A8B
 10
1.665306
 20
5.868915
 30
0.0
 11
1.66112
 21
5.867527
 31
0.0
  0
LINE
  8
0
  6
CONTINUOUS
 62
     7
  5
A8C
 10
1.66112
 20
5.867527
 30
0.0
 11
1.656885
 21
5.866297
 31
0.0
  0
LINE
  8
0
  6
CONTINUOUS
 62
     7
  5
A8D
 10
1.656885
 20
6.094333
 30
0.0
 11
1.66112
 21
6.093103
 31
0.0
  0
LINE
  8
0
  6
CONTINUOUS
 62
     7
  5
A8E
 10
1.66112
 20
6.093103
 30
0.0
 11
1.665306
 21
6.091715
 31
0.0
  0
LINE
  8
0
  6
CONTINUOUS
 62
     7
  5
A8F
 10
1.665306
 20
6.091715
 30
0.0
 11
1.669437
 21
6.090173
 31
0.0
  0
LINE
  8
0
  6
CONTINUOUS
 62
     7
  5
A90
 10
1.669437
 20
6.090173
 30
0.0
 11
1.673507
 21
6.088477
 31
0.0
  0
LINE
  8
0
  6
CONTINUOUS
 62
     7
  5
A91
 10
1.673507
 20
6.088477
 30
0.0
 11
1.677512
 21
6.086631
 31
0.0
  0
LINE
  8
0
  6
CONTINUOUS
 62
     7
  5
A92
 10
1.677512
 20
6.086631
 30
0.0
 11
1.681444
 21
6.084636
 31
0.0
  0
LINE
  8
0
  6
CONTINUOUS
 62
     7
  5
A93
 10
1.681444
 20
6.084636
 30
0.0
 11
1.6853
 21
6.082496
 31
0.0
  0
LINE
  8
0
  6
CONTINUOUS
 62
     7
  5
A94
 10
1.6853
 20
6.082496
 30
0.0
 11
1.689073
 21
6.080214
 31
0.0
  0
LINE
  8
0
  6
CONTINUOUS
 62
     7
  5
A95
 10
1.689073
 20
6.080214
 30
0.0
 11
1.692758
 21
6.077792
 31
0.0
  0
LINE
  8
0
  6
CONTINUOUS
 62
     7
  5
A96
 10
1.692758
 20
6.077792
 30
0.0
 11
1.69635
 21
6.075235
 31
0.0
  0
LINE
  8
0
  6
CONTINUOUS
 62
     7
  5
A97
 10
1.69635
 20
6.075235
 30
0.0
 11
1.699844
 21
6.072545
 31
0.0
  0
LINE
  8
0
  6
CONTINUOUS
 62
     7
  5
A98
 10
1.699844
 20
6.072545
 30
0.0
 11
1.703235
 21
6.069727
 31
0.0
  0
LINE
  8
0
  6
CONTINUOUS
 62
     7
  5
A99
 10
1.703235
 20
6.069727
 30
0.0
 11
1.706519
 21
6.066784
 31
0.0
  0
LINE
  8
0
  6
CONTINUOUS
 62
     7
  5
A9A
 10
1.706519
 20
6.066784
 30
0.0
 11
1.709691
 21
6.06372
 31
0.0
  0
LINE
  8
0
  6
CONTINUOUS
 62
     7
  5
A9B
 10
1.709691
 20
6.06372
 30
0.0
 11
1.712746
 21
6.06054
 31
0.0
  0
LINE
  8
0
  6
CONTINUOUS
 62
     7
  5
A9C
 10
1.712746
 20
6.06054
 30
0.0
 11
1.71568
 21
6.057249
 31
0.0
  0
LINE
  8
0
  6
CONTINUOUS
 62
     7
  5
A9D
 10
1.71568
 20
6.057249
 30
0.0
 11
1.718489
 21
6.05385
 31
0.0
  0
LINE
  8
0
  6
CONTINUOUS
 62
     7
  5
A9E
 10
1.718489
 20
6.05385
 30
0.0
 11
1.72117
 21
6.050349
 31
0.0
  0
LINE
  8
0
  6
CONTINUOUS
 62
     7
  5
A9F
 10
1.72117
 20
6.050349
 30
0.0
 11
1.723718
 21
6.04675
 31
0.0
  0
LINE
  8
0
  6
CONTINUOUS
 62
     7
  5
AA0
 10
1.723718
 20
6.04675
 30
0.0
 11
1.72613
 21
6.043058
 31
0.0
  0
LINE
  8
0
  6
CONTINUOUS
 62
     7
  5
AA1
 10
1.72613
 20
6.043058
 30
0.0
 11
1.728402
 21
6.039279
 31
0.0
  0
LINE
  8
0
  6
CONTINUOUS
 62
     7
  5
AA2
 10
1.728402
 20
6.039279
 30
0.0
 11
1.730532
 21
6.035418
 31
0.0
  0
LINE
  8
0
  6
CONTINUOUS
 62
     7
  5
AA3
 10
1.730532
 20
6.035418
 30
0.0
 11
1.732516
 21
6.03148
 31
0.0
  0
LINE
  8
0
  6
CONTINUOUS
 62
     7
  5
AA4
 10
1.732516
 20
6.03148
 30
0.0
 11
1.734351
 21
6.027471
 31
0.0
  0
LINE
  8
0
  6
CONTINUOUS
 62
     7
  5
AA5
 10
1.734351
 20
6.027471
 30
0.0
 11
1.736036
 21
6.023396
 31
0.0
  0
LINE
  8
0
  6
CONTINUOUS
 62
     7
  5
AA6
 10
1.736036
 20
6.023396
 30
0.0
 11
1.737568
 21
6.019261
 31
0.0
  0
LINE
  8
0
  6
CONTINUOUS
 62
     7
  5
AA7
 10
1.737568
 20
6.019261
 30
0.0
 11
1.738944
 21
6.015071
 31
0.0
  0
LINE
  8
0
  6
CONTINUOUS
 62
     7
  5
AA8
 10
1.738944
 20
6.015071
 30
0.0
 11
1.740162
 21
6.010833
 31
0.0
  0
LINE
  8
0
  6
CONTINUOUS
 62
     7
  5
AA9
 10
1.740162
 20
6.010833
 30
0.0
 11
1.741222
 21
6.006553
 31
0.0
  0
LINE
  8
0
  6
CONTINUOUS
 62
     7
  5
AAA
 10
1.741222
 20
6.006553
 30
0.0
 11
1.742121
 21
6.002236
 31
0.0
  0
LINE
  8
0
  6
CONTINUOUS
 62
     7
  5
AAB
 10
1.742121
 20
6.002236
 30
0.0
 11
1.742858
 21
5.997889
 31
0.0
  0
LINE
  8
0
  6
CONTINUOUS
 62
     7
  5
AAC
 10
1.742858
 20
5.997889
 30
0.0
 11
1.743433
 21
5.993517
 31
0.0
  0
LINE
  8
0
  6
CONTINUOUS
 62
     7
  5
AAD
 10
1.743433
 20
5.993517
 30
0.0
 11
1.743844
 21
5.989126
 31
0.0
  0
LINE
  8
0
  6
CONTINUOUS
 62
     7
  5
AAE
 10
1.743844
 20
5.989126
 30
0.0
 11
1.744091
 21
5.984724
 31
0.0
  0
LINE
  8
0
  6
CONTINUOUS
 62
     7
  5
AAF
 10
1.744091
 20
5.984724
 30
0.0
 11
1.744173
 21
5.980315
 31
0.0
  0
LINE
  8
0
  6
CONTINUOUS
 62
     7
  5
AB0
 10
1.350472
 20
9.537402
 30
0.0
 11
1.350472
 21
5.783465
 31
0.0
  0
LINE
  8
0
  6
CONTINUOUS
 62
     7
  5
AB1
 10
1.350472
 20
9.537402
 30
0.0
 11
0.720472
 21
9.537402
 31
0.0
  0
LINE
  8
0
  6
CONTINUOUS
 62
     7
  5
AB2
 10
1.350472
 20
5.783465
 30
0.0
 11
0.838583
 21
5.783465
 31
0.0
  0
LINE
  8
0
  6
CONTINUOUS
 62
     7
  5
AB3
 10
0.720472
 20
11.392701
 30
0.0
 11
0.720472
 21
6.394701
 31
0.0
  0
LINE
  8
0
  6
CONTINUOUS
 62
     7
  5
AB4
 10
-7.082677
 20
9.681102
 30
0.0
 11
-5.822835
 21
9.681102
 31
0.0
  0
LINE
  8
0
  6
CONTINUOUS
 62
     7
  5
AB5
 10
-7.082677
 20
8.106299
 30
0.0
 11
-7.082677
 21
9.681102
 31
0.0
  0
LINE
  8
0
  6
CONTINUOUS
 62
     7
  5
AB6
 10
-5.822835
 20
8.106299
 30
0.0
 11
-7.082677
 21
8.106299
 31
0.0
  0
LINE
  8
0
  6
CONTINUOUS
 62
     7
  5
AB7
 10
-5.822835
 20
9.681102
 30
0.0
 11
-5.822835
 21
8.106299
 31
0.0
  0
LINE
  8
0
  6
CONTINUOUS
 62
     7
  5
AB8
 10
-7.082677
 20
9.681102
 30
0.0
 11
-7.082677
 21
11.255906
 31
0.0
  0
LINE
  8
0
  6
CONTINUOUS
 62
     7
  5
AB9
 10
-5.822835
 20
11.255906
 30
0.0
 11
-5.822835
 21
9.681102
 31
0.0
  0
LINE
  8
0
  6
CONTINUOUS
 62
     7
  5
ABA
 10
-7.082677
 20
11.255906
 30
0.0
 11
-5.822835
 21
11.255906
 31
0.0
  0
LINE
  8
0
  6
CONTINUOUS
 62
     7
  5
ABB
 10
-5.821835
 20
9.681102
 30
0.0
 11
-4.561992
 21
9.681102
 31
0.0
  0
LINE
  8
0
  6
CONTINUOUS
 62
     7
  5
ABC
 10
-5.821835
 20
8.106299
 30
0.0
 11
-5.821835
 21
9.681102
 31
0.0
  0
LINE
  8
0
  6
CONTINUOUS
 62
     7
  5
ABD
 10
-4.561992
 20
8.106299
 30
0.0
 11
-5.821835
 21
8.106299
 31
0.0
  0
LINE
  8
0
  6
CONTINUOUS
 62
     7
  5
ABE
 10
-4.561992
 20
9.681102
 30
0.0
 11
-4.561992
 21
8.106299
 31
0.0
  0
LINE
  8
0
  6
CONTINUOUS
 62
     7
  5
ABF
 10
-5.821835
 20
9.681102
 30
0.0
 11
-5.821835
 21
11.255906
 31
0.0
  0
LINE
  8
0
  6
CONTINUOUS
 62
     7
  5
AC0
 10
-4.561992
 20
11.255906
 30
0.0
 11
-4.561992
 21
9.681102
 31
0.0
  0
LINE
  8
0
  6
CONTINUOUS
 62
     7
  5
AC1
 10
-5.821835
 20
11.255906
 30
0.0
 11
-4.561992
 21
11.255906
 31
0.0
  0
LINE
  8
0
  6
CONTINUOUS
 62
     7
  5
AC2
 10
-4.560992
 20
9.681102
 30
0.0
 11
-3.30115
 21
9.681102
 31
0.0
  0
LINE
  8
0
  6
CONTINUOUS
 62
     7
  5
AC3
 10
-4.560992
 20
8.106299
 30
0.0
 11
-4.560992
 21
9.681102
 31
0.0
  0
LINE
  8
0
  6
CONTINUOUS
 62
     7
  5
AC4
 10
-3.30115
 20
8.106299
 30
0.0
 11
-4.560992
 21
8.106299
 31
0.0
  0
LINE
  8
0
  6
CONTINUOUS
 62
     7
  5
AC5
 10
-3.30115
 20
9.681102
 30
0.0
 11
-3.30115
 21
8.106299
 31
0.0
  0
LINE
  8
0
  6
CONTINUOUS
 62
     7
  5
AC6
 10
-4.560992
 20
9.681102
 30
0.0
 11
-4.560992
 21
11.255906
 31
0.0
  0
LINE
  8
0
  6
CONTINUOUS
 62
     7
  5
AC7
 10
-3.30115
 20
11.255906
 30
0.0
 11
-3.30115
 21
9.681102
 31
0.0
  0
LINE
  8
0
  6
CONTINUOUS
 62
     7
  5
AC8
 10
-4.560992
 20
11.255906
 30
0.0
 11
-3.30115
 21
11.255906
 31
0.0
  0
LINE
  8
0
  6
CONTINUOUS
 62
     7
  5
AC9
 10
-3.30015
 20
9.681102
 30
0.0
 11
-2.040307
 21
9.681102
 31
0.0
  0
LINE
  8
0
  6
CONTINUOUS
 62
     7
  5
ACA
 10
-3.30015
 20
8.106299
 30
0.0
 11
-3.30015
 21
9.681102
 31
0.0
  0
LINE
  8
0
  6
CONTINUOUS
 62
     7
  5
ACB
 10
-2.040307
 20
8.106299
 30
0.0
 11
-3.30015
 21
8.106299
 31
0.0
  0
LINE
  8
0
  6
CONTINUOUS
 62
     7
  5
ACC
 10
-2.040307
 20
9.681102
 30
0.0
 11
-2.040307
 21
8.106299
 31
0.0
  0
LINE
  8
0
  6
CONTINUOUS
 62
     7
  5
ACD
 10
-3.30015
 20
9.681102
 30
0.0
 11
-3.30015
 21
11.255906
 31
0.0
  0
LINE
  8
0
  6
CONTINUOUS
 62
     7
  5
ACE
 10
-2.040307
 20
11.255906
 30
0.0
 11
-2.040307
 21
9.681102
 31
0.0
  0
LINE
  8
0
  6
CONTINUOUS
 62
     7
  5
ACF
 10
-3.30015
 20
11.255906
 30
0.0
 11
-2.040307
 21
11.255906
 31
0.0
  0
LINE
  8
0
  6
CONTINUOUS
 62
     7
  5
AD0
 10
-9.248031
 20
7.122047
 30
0.0
 11
-9.090551
 21
7.122047
 31
0.0
  0
LINE
  8
0
  6
CONTINUOUS
 62
     7
  5
AD1
 10
-9.248031
 20
10.665354
 30
0.0
 11
-9.090551
 21
10.665354
 31
0.0
  0
LINE
  8
0
  6
CONTINUOUS
 62
     7
  5
AD2
 10
-9.090551
 20
7.122047
 30
0.0
 11
-7.240157
 21
7.122047
 31
0.0
  0
LINE
  8
0
  6
CONTINUOUS
 62
     7
  5
AD3
 10
-7.240157
 20
10.665354
 30
0.0
 11
-7.240157
 21
7.122047
 31
0.0
  0
LINE
  8
0
  6
CONTINUOUS
 62
     7
  5
AD4
 10
-9.090551
 20
10.665354
 30
0.0
 11
-7.240157
 21
10.665354
 31
0.0
  0
LINE
  8
0
  6
CONTINUOUS
 62
     7
  5
AD5
 10
-9.405512
 20
10.665354
 30
0.0
 11
-9.405512
 21
7.122047
 31
0.0
  0
LINE
  8
0
  6
CONTINUOUS
 62
     7
  5
AD6
 10
-9.405512
 20
7.122047
 30
0.0
 11
-9.248031
 21
7.122047
 31
0.0
  0
LINE
  8
0
  6
CONTINUOUS
 62
     7
  5
AD7
 10
-9.248031
 20
10.665354
 30
0.0
 11
-9.248031
 21
7.122047
 31
0.0
  0
LINE
  8
0
  6
CONTINUOUS
 62
     7
  5
AD8
 10
-9.405512
 20
10.665354
 30
0.0
 11
-9.248031
 21
10.665354
 31
0.0
  0
LINE
  8
0
  6
CONTINUOUS
 62
     7
  5
AD9
 10
-8.53937
 20
7.122047
 30
0.0
 11
-8.53937
 21
6.394701
 31
0.0
  0
LINE
  8
0
  6
CONTINUOUS
 62
     7
  5
ADA
 10
-8.53937
 20
6.394701
 30
0.0
 11
0.523622
 21
6.394701
 31
0.0
  0
LINE
  8
0
  6
CONTINUOUS
 62
     7
  5
ADB
 10
-8.53937
 20
11.392701
 30
0.0
 11
0.523622
 21
11.392701
 31
0.0
  0
LINE
  8
0
  6
CONTINUOUS
 62
     7
  5
ADC
 10
-8.53937
 20
11.392701
 30
0.0
 11
-8.53937
 21
10.665354
 31
0.0
  0
LINE
  8
0
  6
CONTINUOUS
 62
     7
  5
ADD
 10
0.523622
 20
6.394701
 30
0.0
 11
0.720472
 21
6.394701
 31
0.0
  0
LINE
  8
0
  6
CONTINUOUS
 62
     7
  5
ADE
 10
0.523622
 20
11.392701
 30
0.0
 11
0.720472
 21
11.392701
 31
0.0
  0
LINE
  8
0
  6
CONTINUOUS
 62
     7
  5
ADF
 10
-8.53937
 20
11.393701
 30
0.0
 11
0.366142
 21
11.393701
 31
0.0
  0
LINE
  8
0
  6
CONTINUOUS
 62
     7
  5
AE0
 10
-8.53937
 20
6.394701
 30
0.0
 11
-8.53937
 21
6.393701
 31
0.0
  0
LINE
  8
0
  6
CONTINUOUS
 62
     7
  5
AE1
 10
-8.53937
 20
6.393701
 30
0.0
 11
0.366142
 21
6.393701
 31
0.0
  0
LINE
  8
0
  6
CONTINUOUS
 62
     7
  5
AE2
 10
0.366142
 20
6.393701
 30
0.0
 11
0.562992
 21
6.393701
 31
0.0
  0
LINE
  8
0
  6
CONTINUOUS
 62
     7
  5
AE3
 10
0.562992
 20
6.394701
 30
0.0
 11
0.562992
 21
6.393701
 31
0.0
  0
LINE
  8
0
  6
CONTINUOUS
 62
     7
  5
AE4
 10
0.366142
 20
11.393701
 30
0.0
 11
0.562992
 21
11.393701
 31
0.0
  0
LINE
  8
0
  6
CONTINUOUS
 62
     7
  5
AE5
 10
1.744173
 20
5.980315
 30
0.0
 11
1.744091
 21
5.975906
 31
0.0
  0
LINE
  8
0
  6
CONTINUOUS
 62
     7
  5
AE6
 10
1.744091
 20
5.975906
 30
0.0
 11
1.743844
 21
5.971504
 31
0.0
  0
LINE
  8
0
  6
CONTINUOUS
 62
     7
  5
AE7
 10
1.743844
 20
5.971504
 30
0.0
 11
1.743433
 21
5.967113
 31
0.0
  0
LINE
  8
0
  6
CONTINUOUS
 62
     7
  5
AE8
 10
1.743433
 20
5.967113
 30
0.0
 11
1.742858
 21
5.962741
 31
0.0
  0
LINE
  8
0
  6
CONTINUOUS
 62
     7
  5
AE9
 10
1.742858
 20
5.962741
 30
0.0
 11
1.742121
 21
5.958394
 31
0.0
  0
LINE
  8
0
  6
CONTINUOUS
 62
     7
  5
AEA
 10
1.742121
 20
5.958394
 30
0.0
 11
1.741222
 21
5.954077
 31
0.0
  0
LINE
  8
0
  6
CONTINUOUS
 62
     7
  5
AEB
 10
1.741222
 20
5.954077
 30
0.0
 11
1.740162
 21
5.949796
 31
0.0
  0
LINE
  8
0
  6
CONTINUOUS
 62
     7
  5
AEC
 10
1.740162
 20
5.949796
 30
0.0
 11
1.738944
 21
5.945559
 31
0.0
  0
LINE
  8
0
  6
CONTINUOUS
 62
     7
  5
AED
 10
1.738944
 20
5.945559
 30
0.0
 11
1.737568
 21
5.941369
 31
0.0
  0
LINE
  8
0
  6
CONTINUOUS
 62
     7
  5
AEE
 10
1.737568
 20
5.941369
 30
0.0
 11
1.736036
 21
5.937234
 31
0.0
  0
LINE
  8
0
  6
CONTINUOUS
 62
     7
  5
AEF
 10
1.736036
 20
5.937234
 30
0.0
 11
1.734351
 21
5.933159
 31
0.0
  0
LINE
  8
0
  6
CONTINUOUS
 62
     7
  5
AF0
 10
1.734351
 20
5.933159
 30
0.0
 11
1.732516
 21
5.92915
 31
0.0
  0
LINE
  8
0
  6
CONTINUOUS
 62
     7
  5
AF1
 10
1.732516
 20
5.92915
 30
0.0
 11
1.730532
 21
5.925212
 31
0.0
  0
LINE
  8
0
  6
CONTINUOUS
 62
     7
  5
AF2
 10
1.730532
 20
5.925212
 30
0.0
 11
1.728402
 21
5.921351
 31
0.0
  0
LINE
  8
0
  6
CONTINUOUS
 62
     7
  5
AF3
 10
1.728402
 20
5.921351
 30
0.0
 11
1.72613
 21
5.917572
 31
0.0
  0
LINE
  8
0
  6
CONTINUOUS
 62
     7
  5
AF4
 10
1.72613
 20
5.917572
 30
0.0
 11
1.723718
 21
5.91388
 31
0.0
  0
LINE
  8
0
  6
CONTINUOUS
 62
     7
  5
AF5
 10
1.723718
 20
5.91388
 30
0.0
 11
1.72117
 21
5.910281
 31
0.0
  0
LINE
  8
0
  6
CONTINUOUS
 62
     7
  5
AF6
 10
1.72117
 20
5.910281
 30
0.0
 11
1.718489
 21
5.90678
 31
0.0
  0
LINE
  8
0
  6
CONTINUOUS
 62
     7
  5
AF7
 10
1.718489
 20
5.90678
 30
0.0
 11
1.71568
 21
5.903381
 31
0.0
  0
LINE
  8
0
  6
CONTINUOUS
 62
     7
  5
AF8
 10
1.71568
 20
5.903381
 30
0.0
 11
1.712746
 21
5.90009
 31
0.0
  0
LINE
  8
0
  6
CONTINUOUS
 62
     7
  5
AF9
 10
1.712746
 20
5.90009
 30
0.0
 11
1.709691
 21
5.89691
 31
0.0
  0
LINE
  8
0
  6
CONTINUOUS
 62
     7
  5
AFA
 10
1.709691
 20
5.89691
 30
0.0
 11
1.706519
 21
5.893846
 31
0.0
  0
LINE
  8
0
  6
CONTINUOUS
 62
     7
  5
AFB
 10
1.706519
 20
5.893846
 30
0.0
 11
1.703235
 21
5.890903
 31
0.0
  0
LINE
  8
0
  6
CONTINUOUS
 62
     7
  5
AFC
 10
1.703235
 20
5.890903
 30
0.0
 11
1.699844
 21
5.888085
 31
0.0
  0
LINE
  8
0
  6
CONTINUOUS
 62
     7
  5
AFD
 10
1.699844
 20
5.888085
 30
0.0
 11
1.69635
 21
5.885395
 31
0.0
  0
LINE
  8
0
  6
CONTINUOUS
 62
     7
  5
AFE
 10
1.69635
 20
5.885395
 30
0.0
 11
1.692758
 21
5.882838
 31
0.0
  0
LINE
  8
0
  6
CONTINUOUS
 62
     7
  5
AFF
 10
1.692758
 20
5.882838
 30
0.0
 11
1.689073
 21
5.880416
 31
0.0
  0
LINE
  8
0
  6
CONTINUOUS
 62
     7
  5
B00
 10
1.689073
 20
5.880416
 30
0.0
 11
1.6853
 21
5.878134
 31
0.0
  0
LINE
  8
0
  6
CONTINUOUS
 62
     7
  5
B01
 10
1.6853
 20
5.878134
 30
0.0
 11
1.681444
 21
5.875994
 31
0.0
  0
LINE
  8
0
  6
CONTINUOUS
 62
     7
  5
B02
 10
1.681444
 20
5.875994
 30
0.0
 11
1.677512
 21
5.873999
 31
0.0
  0
LINE
  8
0
  6
CONTINUOUS
 62
     7
  5
B03
 10
1.677512
 20
5.873999
 30
0.0
 11
1.673507
 21
5.872153
 31
0.0
  0
LINE
  8
0
  6
CONTINUOUS
 62
     7
  5
B04
 10
1.673507
 20
5.872153
 30
0.0
 11
1.669437
 21
5.870457
 31
0.0
  0
LINE
  8
0
  6
CONTINUOUS
 62
     7
  5
B05
 10
1.669437
 20
5.870457
 30
0.0
 11
1.665306
 21
5.868915
 31
0.0
  0
LINE
  8
0
  6
CONTINUOUS
 62
     7
  5
B06
 10
1.665306
 20
5.868915
 30
0.0
 11
1.66112
 21
5.867527
 31
0.0
  0
LINE
  8
0
  6
CONTINUOUS
 62
     7
  5
B07
 10
1.66112
 20
5.867527
 30
0.0
 11
1.656885
 21
5.866297
 31
0.0
  0
LINE
  8
0
  6
CONTINUOUS
 62
     7
  5
B08
 10
1.656885
 20
6.094333
 30
0.0
 11
1.66112
 21
6.093103
 31
0.0
  0
LINE
  8
0
  6
CONTINUOUS
 62
     7
  5
B09
 10
1.66112
 20
6.093103
 30
0.0
 11
1.665306
 21
6.091715
 31
0.0
  0
LINE
  8
0
  6
CONTINUOUS
 62
     7
  5
B0A
 10
1.665306
 20
6.091715
 30
0.0
 11
1.669437
 21
6.090173
 31
0.0
  0
LINE
  8
0
  6
CONTINUOUS
 62
     7
  5
B0B
 10
1.669437
 20
6.090173
 30
0.0
 11
1.673507
 21
6.088477
 31
0.0
  0
LINE
  8
0
  6
CONTINUOUS
 62
     7
  5
B0C
 10
1.673507
 20
6.088477
 30
0.0
 11
1.677512
 21
6.086631
 31
0.0
  0
LINE
  8
0
  6
CONTINUOUS
 62
     7
  5
B0D
 10
1.677512
 20
6.086631
 30
0.0
 11
1.681444
 21
6.084636
 31
0.0
  0
LINE
  8
0
  6
CONTINUOUS
 62
     7
  5
B0E
 10
1.681444
 20
6.084636
 30
0.0
 11
1.6853
 21
6.082496
 31
0.0
  0
LINE
  8
0
  6
CONTINUOUS
 62
     7
  5
B0F
 10
1.6853
 20
6.082496
 30
0.0
 11
1.689073
 21
6.080214
 31
0.0
  0
LINE
  8
0
  6
CONTINUOUS
 62
     7
  5
B10
 10
1.689073
 20
6.080214
 30
0.0
 11
1.692758
 21
6.077792
 31
0.0
  0
LINE
  8
0
  6
CONTINUOUS
 62
     7
  5
B11
 10
1.692758
 20
6.077792
 30
0.0
 11
1.69635
 21
6.075235
 31
0.0
  0
LINE
  8
0
  6
CONTINUOUS
 62
     7
  5
B12
 10
1.69635
 20
6.075235
 30
0.0
 11
1.699844
 21
6.072545
 31
0.0
  0
LINE
  8
0
  6
CONTINUOUS
 62
     7
  5
B13
 10
1.699844
 20
6.072545
 30
0.0
 11
1.703235
 21
6.069727
 31
0.0
  0
LINE
  8
0
  6
CONTINUOUS
 62
     7
  5
B14
 10
1.703235
 20
6.069727
 30
0.0
 11
1.706519
 21
6.066784
 31
0.0
  0
LINE
  8
0
  6
CONTINUOUS
 62
     7
  5
B15
 10
1.706519
 20
6.066784
 30
0.0
 11
1.709691
 21
6.06372
 31
0.0
  0
LINE
  8
0
  6
CONTINUOUS
 62
     7
  5
B16
 10
1.709691
 20
6.06372
 30
0.0
 11
1.712746
 21
6.06054
 31
0.0
  0
LINE
  8
0
  6
CONTINUOUS
 62
     7
  5
B17
 10
1.712746
 20
6.06054
 30
0.0
 11
1.71568
 21
6.057249
 31
0.0
  0
LINE
  8
0
  6
CONTINUOUS
 62
     7
  5
B18
 10
1.71568
 20
6.057249
 30
0.0
 11
1.718489
 21
6.05385
 31
0.0
  0
LINE
  8
0
  6
CONTINUOUS
 62
     7
  5
B19
 10
1.718489
 20
6.05385
 30
0.0
 11
1.72117
 21
6.050349
 31
0.0
  0
LINE
  8
0
  6
CONTINUOUS
 62
     7
  5
B1A
 10
1.72117
 20
6.050349
 30
0.0
 11
1.723718
 21
6.04675
 31
0.0
  0
LINE
  8
0
  6
CONTINUOUS
 62
     7
  5
B1B
 10
1.723718
 20
6.04675
 30
0.0
 11
1.72613
 21
6.043058
 31
0.0
  0
LINE
  8
0
  6
CONTINUOUS
 62
     7
  5
B1C
 10
1.72613
 20
6.043058
 30
0.0
 11
1.728402
 21
6.039279
 31
0.0
  0
LINE
  8
0
  6
CONTINUOUS
 62
     7
  5
B1D
 10
1.728402
 20
6.039279
 30
0.0
 11
1.730532
 21
6.035418
 31
0.0
  0
LINE
  8
0
  6
CONTINUOUS
 62
     7
  5
B1E
 10
1.730532
 20
6.035418
 30
0.0
 11
1.732516
 21
6.03148
 31
0.0
  0
LINE
  8
0
  6
CONTINUOUS
 62
     7
  5
B1F
 10
1.732516
 20
6.03148
 30
0.0
 11
1.734351
 21
6.027471
 31
0.0
  0
LINE
  8
0
  6
CONTINUOUS
 62
     7
  5
B20
 10
1.734351
 20
6.027471
 30
0.0
 11
1.736036
 21
6.023396
 31
0.0
  0
LINE
  8
0
  6
CONTINUOUS
 62
     7
  5
B21
 10
1.736036
 20
6.023396
 30
0.0
 11
1.737568
 21
6.019261
 31
0.0
  0
LINE
  8
0
  6
CONTINUOUS
 62
     7
  5
B22
 10
1.737568
 20
6.019261
 30
0.0
 11
1.738944
 21
6.015071
 31
0.0
  0
LINE
  8
0
  6
CONTINUOUS
 62
     7
  5
B23
 10
1.738944
 20
6.015071
 30
0.0
 11
1.740162
 21
6.010833
 31
0.0
  0
LINE
  8
0
  6
CONTINUOUS
 62
     7
  5
B24
 10
1.740162
 20
6.010833
 30
0.0
 11
1.741222
 21
6.006553
 31
0.0
  0
LINE
  8
0
  6
CONTINUOUS
 62
     7
  5
B25
 10
1.741222
 20
6.006553
 30
0.0
 11
1.742121
 21
6.002236
 31
0.0
  0
LINE
  8
0
  6
CONTINUOUS
 62
     7
  5
B26
 10
1.742121
 20
6.002236
 30
0.0
 11
1.742858
 21
5.997889
 31
0.0
  0
LINE
  8
0
  6
CONTINUOUS
 62
     7
  5
B27
 10
1.742858
 20
5.997889
 30
0.0
 11
1.743433
 21
5.993517
 31
0.0
  0
LINE
  8
0
  6
CONTINUOUS
 62
     7
  5
B28
 10
1.743433
 20
5.993517
 30
0.0
 11
1.743844
 21
5.989126
 31
0.0
  0
LINE
  8
0
  6
CONTINUOUS
 62
     7
  5
B29
 10
1.743844
 20
5.989126
 30
0.0
 11
1.744091
 21
5.984724
 31
0.0
  0
LINE
  8
0
  6
CONTINUOUS
 62
     7
  5
B2A
 10
1.744091
 20
5.984724
 30
0.0
 11
1.744173
 21
5.980315
 31
0.0
  0
LINE
  8
0
  6
CONTINUOUS
 62
     7
  5
B2B
 10
1.744173
 20
-3.153543
 30
0.0
 11
1.744091
 21
-3.157952
 31
0.0
  0
LINE
  8
0
  6
CONTINUOUS
 62
     7
  5
B2C
 10
1.744091
 20
-3.157952
 30
0.0
 11
1.743844
 21
-3.162355
 31
0.0
  0
LINE
  8
0
  6
CONTINUOUS
 62
     7
  5
B2D
 10
1.743844
 20
-3.162355
 30
0.0
 11
1.743433
 21
-3.166745
 31
0.0
  0
LINE
  8
0
  6
CONTINUOUS
 62
     7
  5
B2E
 10
1.743433
 20
-3.166745
 30
0.0
 11
1.742858
 21
-3.171117
 31
0.0
  0
LINE
  8
0
  6
CONTINUOUS
 62
     7
  5
B2F
 10
1.742858
 20
-3.171117
 30
0.0
 11
1.742121
 21
-3.175465
 31
0.0
  0
LINE
  8
0
  6
CONTINUOUS
 62
     7
  5
B30
 10
1.742121
 20
-3.175465
 30
0.0
 11
1.741222
 21
-3.179781
 31
0.0
  0
LINE
  8
0
  6
CONTINUOUS
 62
     7
  5
B31
 10
1.741222
 20
-3.179781
 30
0.0
 11
1.740162
 21
-3.184062
 31
0.0
  0
LINE
  8
0
  6
CONTINUOUS
 62
     7
  5
B32
 10
1.740162
 20
-3.184062
 30
0.0
 11
1.738944
 21
-3.1883
 31
0.0
  0
LINE
  8
0
  6
CONTINUOUS
 62
     7
  5
B33
 10
1.738944
 20
-3.1883
 30
0.0
 11
1.737568
 21
-3.192489
 31
0.0
  0
LINE
  8
0
  6
CONTINUOUS
 62
     7
  5
B34
 10
1.737568
 20
-3.192489
 30
0.0
 11
1.736036
 21
-3.196624
 31
0.0
  0
LINE
  8
0
  6
CONTINUOUS
 62
     7
  5
B35
 10
1.736036
 20
-3.196624
 30
0.0
 11
1.734351
 21
-3.200699
 31
0.0
  0
LINE
  8
0
  6
CONTINUOUS
 62
     7
  5
B36
 10
1.734351
 20
-3.200699
 30
0.0
 11
1.732516
 21
-3.204708
 31
0.0
  0
LINE
  8
0
  6
CONTINUOUS
 62
     7
  5
B37
 10
1.732516
 20
-3.204708
 30
0.0
 11
1.730532
 21
-3.208646
 31
0.0
  0
LINE
  8
0
  6
CONTINUOUS
 62
     7
  5
B38
 10
1.730532
 20
-3.208646
 30
0.0
 11
1.728402
 21
-3.212508
 31
0.0
  0
LINE
  8
0
  6
CONTINUOUS
 62
     7
  5
B39
 10
1.728402
 20
-3.212508
 30
0.0
 11
1.72613
 21
-3.216287
 31
0.0
  0
LINE
  8
0
  6
CONTINUOUS
 62
     7
  5
B3A
 10
1.72613
 20
-3.216287
 30
0.0
 11
1.723718
 21
-3.219978
 31
0.0
  0
LINE
  8
0
  6
CONTINUOUS
 62
     7
  5
B3B
 10
1.723718
 20
-3.219978
 30
0.0
 11
1.72117
 21
-3.223577
 31
0.0
  0
LINE
  8
0
  6
CONTINUOUS
 62
     7
  5
B3C
 10
1.72117
 20
-3.223577
 30
0.0
 11
1.718489
 21
-3.227078
 31
0.0
  0
LINE
  8
0
  6
CONTINUOUS
 62
     7
  5
B3D
 10
1.718489
 20
-3.227078
 30
0.0
 11
1.71568
 21
-3.230477
 31
0.0
  0
LINE
  8
0
  6
CONTINUOUS
 62
     7
  5
B3E
 10
1.71568
 20
-3.230477
 30
0.0
 11
1.712746
 21
-3.233769
 31
0.0
  0
LINE
  8
0
  6
CONTINUOUS
 62
     7
  5
B3F
 10
1.712746
 20
-3.233769
 30
0.0
 11
1.709691
 21
-3.236949
 31
0.0
  0
LINE
  8
0
  6
CONTINUOUS
 62
     7
  5
B40
 10
1.709691
 20
-3.236949
 30
0.0
 11
1.706519
 21
-3.240012
 31
0.0
  0
LINE
  8
0
  6
CONTINUOUS
 62
     7
  5
B41
 10
1.706519
 20
-3.240012
 30
0.0
 11
1.703235
 21
-3.242955
 31
0.0
  0
LINE
  8
0
  6
CONTINUOUS
 62
     7
  5
B42
 10
1.703235
 20
-3.242955
 30
0.0
 11
1.699844
 21
-3.245773
 31
0.0
  0
LINE
  8
0
  6
CONTINUOUS
 62
     7
  5
B43
 10
1.699844
 20
-3.245773
 30
0.0
 11
1.69635
 21
-3.248463
 31
0.0
  0
LINE
  8
0
  6
CONTINUOUS
 62
     7
  5
B44
 10
1.69635
 20
-3.248463
 30
0.0
 11
1.692758
 21
-3.251021
 31
0.0
  0
LINE
  8
0
  6
CONTINUOUS
 62
     7
  5
B45
 10
1.692758
 20
-3.251021
 30
0.0
 11
1.689073
 21
-3.253442
 31
0.0
  0
LINE
  8
0
  6
CONTINUOUS
 62
     7
  5
B46
 10
1.689073
 20
-3.253442
 30
0.0
 11
1.6853
 21
-3.255725
 31
0.0
  0
LINE
  8
0
  6
CONTINUOUS
 62
     7
  5
B47
 10
1.6853
 20
-3.255725
 30
0.0
 11
1.681444
 21
-3.257865
 31
0.0
  0
LINE
  8
0
  6
CONTINUOUS
 62
     7
  5
B48
 10
1.681444
 20
-3.257865
 30
0.0
 11
1.677512
 21
-3.259859
 31
0.0
  0
LINE
  8
0
  6
CONTINUOUS
 62
     7
  5
B49
 10
1.677512
 20
-3.259859
 30
0.0
 11
1.673507
 21
-3.261706
 31
0.0
  0
LINE
  8
0
  6
CONTINUOUS
 62
     7
  5
B4A
 10
1.673507
 20
-3.261706
 30
0.0
 11
1.669437
 21
-3.263401
 31
0.0
  0
LINE
  8
0
  6
CONTINUOUS
 62
     7
  5
B4B
 10
1.669437
 20
-3.263401
 30
0.0
 11
1.665306
 21
-3.264944
 31
0.0
  0
LINE
  8
0
  6
CONTINUOUS
 62
     7
  5
B4C
 10
1.665306
 20
-3.264944
 30
0.0
 11
1.66112
 21
-3.266331
 31
0.0
  0
LINE
  8
0
  6
CONTINUOUS
 62
     7
  5
B4D
 10
1.66112
 20
-3.266331
 30
0.0
 11
1.656885
 21
-3.267561
 31
0.0
  0
LINE
  8
0
  6
CONTINUOUS
 62
     7
  5
B4E
 10
1.656885
 20
-3.039526
 30
0.0
 11
1.66112
 21
-3.040756
 31
0.0
  0
LINE
  8
0
  6
CONTINUOUS
 62
     7
  5
B4F
 10
1.66112
 20
-3.040756
 30
0.0
 11
1.665306
 21
-3.042143
 31
0.0
  0
LINE
  8
0
  6
CONTINUOUS
 62
     7
  5
B50
 10
1.665306
 20
-3.042143
 30
0.0
 11
1.669437
 21
-3.043685
 31
0.0
  0
LINE
  8
0
  6
CONTINUOUS
 62
     7
  5
B51
 10
1.669437
 20
-3.043685
 30
0.0
 11
1.673507
 21
-3.045381
 31
0.0
  0
LINE
  8
0
  6
CONTINUOUS
 62
     7
  5
B52
 10
1.673507
 20
-3.045381
 30
0.0
 11
1.677512
 21
-3.047227
 31
0.0
  0
LINE
  8
0
  6
CONTINUOUS
 62
     7
  5
B53
 10
1.677512
 20
-3.047227
 30
0.0
 11
1.681444
 21
-3.049222
 31
0.0
  0
LINE
  8
0
  6
CONTINUOUS
 62
     7
  5
B54
 10
1.681444
 20
-3.049222
 30
0.0
 11
1.6853
 21
-3.051362
 31
0.0
  0
LINE
  8
0
  6
CONTINUOUS
 62
     7
  5
B55
 10
1.6853
 20
-3.051362
 30
0.0
 11
1.689073
 21
-3.053644
 31
0.0
  0
LINE
  8
0
  6
CONTINUOUS
 62
     7
  5
B56
 10
1.689073
 20
-3.053644
 30
0.0
 11
1.692758
 21
-3.056066
 31
0.0
  0
LINE
  8
0
  6
CONTINUOUS
 62
     7
  5
B57
 10
1.692758
 20
-3.056066
 30
0.0
 11
1.69635
 21
-3.058623
 31
0.0
  0
LINE
  8
0
  6
CONTINUOUS
 62
     7
  5
B58
 10
1.69635
 20
-3.058623
 30
0.0
 11
1.699844
 21
-3.061313
 31
0.0
  0
LINE
  8
0
  6
CONTINUOUS
 62
     7
  5
B59
 10
1.699844
 20
-3.061313
 30
0.0
 11
1.703235
 21
-3.064132
 31
0.0
  0
LINE
  8
0
  6
CONTINUOUS
 62
     7
  5
B5A
 10
1.703235
 20
-3.064132
 30
0.0
 11
1.706519
 21
-3.067075
 31
0.0
  0
LINE
  8
0
  6
CONTINUOUS
 62
     7
  5
B5B
 10
1.706519
 20
-3.067075
 30
0.0
 11
1.709691
 21
-3.070138
 31
0.0
  0
LINE
  8
0
  6
CONTINUOUS
 62
     7
  5
B5C
 10
1.709691
 20
-3.070138
 30
0.0
 11
1.712746
 21
-3.073318
 31
0.0
  0
LINE
  8
0
  6
CONTINUOUS
 62
     7
  5
B5D
 10
1.712746
 20
-3.073318
 30
0.0
 11
1.71568
 21
-3.076609
 31
0.0
  0
LINE
  8
0
  6
CONTINUOUS
 62
     7
  5
B5E
 10
1.71568
 20
-3.076609
 30
0.0
 11
1.718489
 21
-3.080008
 31
0.0
  0
LINE
  8
0
  6
CONTINUOUS
 62
     7
  5
B5F
 10
1.718489
 20
-3.080008
 30
0.0
 11
1.72117
 21
-3.08351
 31
0.0
  0
LINE
  8
0
  6
CONTINUOUS
 62
     7
  5
B60
 10
1.72117
 20
-3.08351
 30
0.0
 11
1.723718
 21
-3.087109
 31
0.0
  0
LINE
  8
0
  6
CONTINUOUS
 62
     7
  5
B61
 10
1.723718
 20
-3.087109
 30
0.0
 11
1.72613
 21
-3.0908
 31
0.0
  0
LINE
  8
0
  6
CONTINUOUS
 62
     7
  5
B62
 10
1.72613
 20
-3.0908
 30
0.0
 11
1.728402
 21
-3.094579
 31
0.0
  0
LINE
  8
0
  6
CONTINUOUS
 62
     7
  5
B63
 10
1.728402
 20
-3.094579
 30
0.0
 11
1.730532
 21
-3.09844
 31
0.0
  0
LINE
  8
0
  6
CONTINUOUS
 62
     7
  5
B64
 10
1.730532
 20
-3.09844
 30
0.0
 11
1.732516
 21
-3.102378
 31
0.0
  0
LINE
  8
0
  6
CONTINUOUS
 62
     7
  5
B65
 10
1.732516
 20
-3.102378
 30
0.0
 11
1.734351
 21
-3.106388
 31
0.0
  0
LINE
  8
0
  6
CONTINUOUS
 62
     7
  5
B66
 10
1.734351
 20
-3.106388
 30
0.0
 11
1.736036
 21
-3.110463
 31
0.0
  0
LINE
  8
0
  6
CONTINUOUS
 62
     7
  5
B67
 10
1.736036
 20
-3.110463
 30
0.0
 11
1.737568
 21
-3.114598
 31
0.0
  0
LINE
  8
0
  6
CONTINUOUS
 62
     7
  5
B68
 10
1.737568
 20
-3.114598
 30
0.0
 11
1.738944
 21
-3.118787
 31
0.0
  0
LINE
  8
0
  6
CONTINUOUS
 62
     7
  5
B69
 10
1.738944
 20
-3.118787
 30
0.0
 11
1.740162
 21
-3.123025
 31
0.0
  0
LINE
  8
0
  6
CONTINUOUS
 62
     7
  5
B6A
 10
1.740162
 20
-3.123025
 30
0.0
 11
1.741222
 21
-3.127305
 31
0.0
  0
LINE
  8
0
  6
CONTINUOUS
 62
     7
  5
B6B
 10
1.741222
 20
-3.127305
 30
0.0
 11
1.742121
 21
-3.131622
 31
0.0
  0
LINE
  8
0
  6
CONTINUOUS
 62
     7
  5
B6C
 10
1.742121
 20
-3.131622
 30
0.0
 11
1.742858
 21
-3.13597
 31
0.0
  0
LINE
  8
0
  6
CONTINUOUS
 62
     7
  5
B6D
 10
1.742858
 20
-3.13597
 30
0.0
 11
1.743433
 21
-3.140341
 31
0.0
  0
LINE
  8
0
  6
CONTINUOUS
 62
     7
  5
B6E
 10
1.743433
 20
-3.140341
 30
0.0
 11
1.743844
 21
-3.144732
 31
0.0
  0
LINE
  8
0
  6
CONTINUOUS
 62
     7
  5
B6F
 10
1.743844
 20
-3.144732
 30
0.0
 11
1.744091
 21
-3.149135
 31
0.0
  0
LINE
  8
0
  6
CONTINUOUS
 62
     7
  5
B70
 10
1.744091
 20
-3.149135
 30
0.0
 11
1.744173
 21
-3.153543
 31
0.0
  0
LINE
  8
0
  6
CONTINUOUS
 62
     7
  5
B71
 10
1.656885
 20
-3.267561
 30
0.0
 11
1.350472
 21
-3.350394
 31
0.0
  0
LINE
  8
0
  6
CONTINUOUS
 62
     7
  5
B72
 10
1.744173
 20
-3.153543
 30
0.0
 11
1.744091
 21
-3.157952
 31
0.0
  0
LINE
  8
0
  6
CONTINUOUS
 62
     7
  5
B73
 10
1.744091
 20
-3.157952
 30
0.0
 11
1.743844
 21
-3.162355
 31
0.0
  0
LINE
  8
0
  6
CONTINUOUS
 62
     7
  5
B74
 10
1.743844
 20
-3.162355
 30
0.0
 11
1.743433
 21
-3.166745
 31
0.0
  0
LINE
  8
0
  6
CONTINUOUS
 62
     7
  5
B75
 10
1.743433
 20
-3.166745
 30
0.0
 11
1.742858
 21
-3.171117
 31
0.0
  0
LINE
  8
0
  6
CONTINUOUS
 62
     7
  5
B76
 10
1.742858
 20
-3.171117
 30
0.0
 11
1.742121
 21
-3.175465
 31
0.0
  0
LINE
  8
0
  6
CONTINUOUS
 62
     7
  5
B77
 10
1.742121
 20
-3.175465
 30
0.0
 11
1.741222
 21
-3.179781
 31
0.0
  0
LINE
  8
0
  6
CONTINUOUS
 62
     7
  5
B78
 10
1.741222
 20
-3.179781
 30
0.0
 11
1.740162
 21
-3.184062
 31
0.0
  0
LINE
  8
0
  6
CONTINUOUS
 62
     7
  5
B79
 10
1.740162
 20
-3.184062
 30
0.0
 11
1.738944
 21
-3.1883
 31
0.0
  0
LINE
  8
0
  6
CONTINUOUS
 62
     7
  5
B7A
 10
1.738944
 20
-3.1883
 30
0.0
 11
1.737568
 21
-3.192489
 31
0.0
  0
LINE
  8
0
  6
CONTINUOUS
 62
     7
  5
B7B
 10
1.737568
 20
-3.192489
 30
0.0
 11
1.736036
 21
-3.196624
 31
0.0
  0
LINE
  8
0
  6
CONTINUOUS
 62
     7
  5
B7C
 10
1.736036
 20
-3.196624
 30
0.0
 11
1.734351
 21
-3.200699
 31
0.0
  0
LINE
  8
0
  6
CONTINUOUS
 62
     7
  5
B7D
 10
1.734351
 20
-3.200699
 30
0.0
 11
1.732516
 21
-3.204708
 31
0.0
  0
LINE
  8
0
  6
CONTINUOUS
 62
     7
  5
B7E
 10
1.732516
 20
-3.204708
 30
0.0
 11
1.730532
 21
-3.208646
 31
0.0
  0
LINE
  8
0
  6
CONTINUOUS
 62
     7
  5
B7F
 10
1.730532
 20
-3.208646
 30
0.0
 11
1.728402
 21
-3.212508
 31
0.0
  0
LINE
  8
0
  6
CONTINUOUS
 62
     7
  5
B80
 10
1.728402
 20
-3.212508
 30
0.0
 11
1.72613
 21
-3.216287
 31
0.0
  0
LINE
  8
0
  6
CONTINUOUS
 62
     7
  5
B81
 10
1.72613
 20
-3.216287
 30
0.0
 11
1.723718
 21
-3.219978
 31
0.0
  0
LINE
  8
0
  6
CONTINUOUS
 62
     7
  5
B82
 10
1.723718
 20
-3.219978
 30
0.0
 11
1.72117
 21
-3.223577
 31
0.0
  0
LINE
  8
0
  6
CONTINUOUS
 62
     7
  5
B83
 10
1.72117
 20
-3.223577
 30
0.0
 11
1.718489
 21
-3.227078
 31
0.0
  0
LINE
  8
0
  6
CONTINUOUS
 62
     7
  5
B84
 10
1.718489
 20
-3.227078
 30
0.0
 11
1.71568
 21
-3.230477
 31
0.0
  0
LINE
  8
0
  6
CONTINUOUS
 62
     7
  5
B85
 10
1.71568
 20
-3.230477
 30
0.0
 11
1.712746
 21
-3.233769
 31
0.0
  0
LINE
  8
0
  6
CONTINUOUS
 62
     7
  5
B86
 10
1.712746
 20
-3.233769
 30
0.0
 11
1.709691
 21
-3.236949
 31
0.0
  0
LINE
  8
0
  6
CONTINUOUS
 62
     7
  5
B87
 10
1.709691
 20
-3.236949
 30
0.0
 11
1.706519
 21
-3.240012
 31
0.0
  0
LINE
  8
0
  6
CONTINUOUS
 62
     7
  5
B88
 10
1.706519
 20
-3.240012
 30
0.0
 11
1.703235
 21
-3.242955
 31
0.0
  0
LINE
  8
0
  6
CONTINUOUS
 62
     7
  5
B89
 10
1.703235
 20
-3.242955
 30
0.0
 11
1.699844
 21
-3.245773
 31
0.0
  0
LINE
  8
0
  6
CONTINUOUS
 62
     7
  5
B8A
 10
1.699844
 20
-3.245773
 30
0.0
 11
1.69635
 21
-3.248463
 31
0.0
  0
LINE
  8
0
  6
CONTINUOUS
 62
     7
  5
B8B
 10
1.69635
 20
-3.248463
 30
0.0
 11
1.692758
 21
-3.251021
 31
0.0
  0
LINE
  8
0
  6
CONTINUOUS
 62
     7
  5
B8C
 10
1.692758
 20
-3.251021
 30
0.0
 11
1.689073
 21
-3.253442
 31
0.0
  0
LINE
  8
0
  6
CONTINUOUS
 62
     7
  5
B8D
 10
1.689073
 20
-3.253442
 30
0.0
 11
1.6853
 21
-3.255725
 31
0.0
  0
LINE
  8
0
  6
CONTINUOUS
 62
     7
  5
B8E
 10
1.6853
 20
-3.255725
 30
0.0
 11
1.681444
 21
-3.257865
 31
0.0
  0
LINE
  8
0
  6
CONTINUOUS
 62
     7
  5
B8F
 10
1.681444
 20
-3.257865
 30
0.0
 11
1.677512
 21
-3.259859
 31
0.0
  0
LINE
  8
0
  6
CONTINUOUS
 62
     7
  5
B90
 10
1.677512
 20
-3.259859
 30
0.0
 11
1.673507
 21
-3.261706
 31
0.0
  0
LINE
  8
0
  6
CONTINUOUS
 62
     7
  5
B91
 10
1.673507
 20
-3.261706
 30
0.0
 11
1.669437
 21
-3.263401
 31
0.0
  0
LINE
  8
0
  6
CONTINUOUS
 62
     7
  5
B92
 10
1.669437
 20
-3.263401
 30
0.0
 11
1.665306
 21
-3.264944
 31
0.0
  0
LINE
  8
0
  6
CONTINUOUS
 62
     7
  5
B93
 10
1.665306
 20
-3.264944
 30
0.0
 11
1.66112
 21
-3.266331
 31
0.0
  0
LINE
  8
0
  6
CONTINUOUS
 62
     7
  5
B94
 10
1.66112
 20
-3.266331
 30
0.0
 11
1.656885
 21
-3.267561
 31
0.0
  0
LINE
  8
0
  6
CONTINUOUS
 62
     7
  5
B95
 10
1.656885
 20
-3.039526
 30
0.0
 11
1.66112
 21
-3.040756
 31
0.0
  0
LINE
  8
0
  6
CONTINUOUS
 62
     7
  5
B96
 10
1.66112
 20
-3.040756
 30
0.0
 11
1.665306
 21
-3.042143
 31
0.0
  0
LINE
  8
0
  6
CONTINUOUS
 62
     7
  5
B97
 10
1.665306
 20
-3.042143
 30
0.0
 11
1.669437
 21
-3.043685
 31
0.0
  0
LINE
  8
0
  6
CONTINUOUS
 62
     7
  5
B98
 10
1.669437
 20
-3.043685
 30
0.0
 11
1.673507
 21
-3.045381
 31
0.0
  0
LINE
  8
0
  6
CONTINUOUS
 62
     7
  5
B99
 10
1.673507
 20
-3.045381
 30
0.0
 11
1.677512
 21
-3.047227
 31
0.0
  0
LINE
  8
0
  6
CONTINUOUS
 62
     7
  5
B9A
 10
1.677512
 20
-3.047227
 30
0.0
 11
1.681444
 21
-3.049222
 31
0.0
  0
LINE
  8
0
  6
CONTINUOUS
 62
     7
  5
B9B
 10
1.681444
 20
-3.049222
 30
0.0
 11
1.6853
 21
-3.051362
 31
0.0
  0
LINE
  8
0
  6
CONTINUOUS
 62
     7
  5
B9C
 10
1.6853
 20
-3.051362
 30
0.0
 11
1.689073
 21
-3.053644
 31
0.0
  0
LINE
  8
0
  6
CONTINUOUS
 62
     7
  5
B9D
 10
1.689073
 20
-3.053644
 30
0.0
 11
1.692758
 21
-3.056066
 31
0.0
  0
LINE
  8
0
  6
CONTINUOUS
 62
     7
  5
B9E
 10
1.692758
 20
-3.056066
 30
0.0
 11
1.69635
 21
-3.058623
 31
0.0
  0
LINE
  8
0
  6
CONTINUOUS
 62
     7
  5
B9F
 10
1.69635
 20
-3.058623
 30
0.0
 11
1.699844
 21
-3.061313
 31
0.0
  0
LINE
  8
0
  6
CONTINUOUS
 62
     7
  5
BA0
 10
1.699844
 20
-3.061313
 30
0.0
 11
1.703235
 21
-3.064132
 31
0.0
  0
LINE
  8
0
  6
CONTINUOUS
 62
     7
  5
BA1
 10
1.703235
 20
-3.064132
 30
0.0
 11
1.706519
 21
-3.067075
 31
0.0
  0
LINE
  8
0
  6
CONTINUOUS
 62
     7
  5
BA2
 10
1.706519
 20
-3.067075
 30
0.0
 11
1.709691
 21
-3.070138
 31
0.0
  0
LINE
  8
0
  6
CONTINUOUS
 62
     7
  5
BA3
 10
1.709691
 20
-3.070138
 30
0.0
 11
1.712746
 21
-3.073318
 31
0.0
  0
LINE
  8
0
  6
CONTINUOUS
 62
     7
  5
BA4
 10
1.712746
 20
-3.073318
 30
0.0
 11
1.71568
 21
-3.076609
 31
0.0
  0
LINE
  8
0
  6
CONTINUOUS
 62
     7
  5
BA5
 10
1.71568
 20
-3.076609
 30
0.0
 11
1.718489
 21
-3.080008
 31
0.0
  0
LINE
  8
0
  6
CONTINUOUS
 62
     7
  5
BA6
 10
1.718489
 20
-3.080008
 30
0.0
 11
1.72117
 21
-3.08351
 31
0.0
  0
LINE
  8
0
  6
CONTINUOUS
 62
     7
  5
BA7
 10
1.72117
 20
-3.08351
 30
0.0
 11
1.723718
 21
-3.087109
 31
0.0
  0
LINE
  8
0
  6
CONTINUOUS
 62
     7
  5
BA8
 10
1.723718
 20
-3.087109
 30
0.0
 11
1.72613
 21
-3.0908
 31
0.0
  0
LINE
  8
0
  6
CONTINUOUS
 62
     7
  5
BA9
 10
1.72613
 20
-3.0908
 30
0.0
 11
1.728402
 21
-3.094579
 31
0.0
  0
LINE
  8
0
  6
CONTINUOUS
 62
     7
  5
BAA
 10
1.728402
 20
-3.094579
 30
0.0
 11
1.730532
 21
-3.09844
 31
0.0
  0
LINE
  8
0
  6
CONTINUOUS
 62
     7
  5
BAB
 10
1.730532
 20
-3.09844
 30
0.0
 11
1.732516
 21
-3.102378
 31
0.0
  0
LINE
  8
0
  6
CONTINUOUS
 62
     7
  5
BAC
 10
1.732516
 20
-3.102378
 30
0.0
 11
1.734351
 21
-3.106388
 31
0.0
  0
LINE
  8
0
  6
CONTINUOUS
 62
     7
  5
BAD
 10
1.734351
 20
-3.106388
 30
0.0
 11
1.736036
 21
-3.110463
 31
0.0
  0
LINE
  8
0
  6
CONTINUOUS
 62
     7
  5
BAE
 10
1.736036
 20
-3.110463
 30
0.0
 11
1.737568
 21
-3.114598
 31
0.0
  0
LINE
  8
0
  6
CONTINUOUS
 62
     7
  5
BAF
 10
1.737568
 20
-3.114598
 30
0.0
 11
1.738944
 21
-3.118787
 31
0.0
  0
LINE
  8
0
  6
CONTINUOUS
 62
     7
  5
BB0
 10
1.738944
 20
-3.118787
 30
0.0
 11
1.740162
 21
-3.123025
 31
0.0
  0
LINE
  8
0
  6
CONTINUOUS
 62
     7
  5
BB1
 10
1.740162
 20
-3.123025
 30
0.0
 11
1.741222
 21
-3.127305
 31
0.0
  0
LINE
  8
0
  6
CONTINUOUS
 62
     7
  5
BB2
 10
1.741222
 20
-3.127305
 30
0.0
 11
1.742121
 21
-3.131622
 31
0.0
  0
LINE
  8
0
  6
CONTINUOUS
 62
     7
  5
BB3
 10
1.742121
 20
-3.131622
 30
0.0
 11
1.742858
 21
-3.13597
 31
0.0
  0
LINE
  8
0
  6
CONTINUOUS
 62
     7
  5
BB4
 10
1.742858
 20
-3.13597
 30
0.0
 11
1.743433
 21
-3.140341
 31
0.0
  0
LINE
  8
0
  6
CONTINUOUS
 62
     7
  5
BB5
 10
1.743433
 20
-3.140341
 30
0.0
 11
1.743844
 21
-3.144732
 31
0.0
  0
LINE
  8
0
  6
CONTINUOUS
 62
     7
  5
BB6
 10
1.743844
 20
-3.144732
 30
0.0
 11
1.744091
 21
-3.149135
 31
0.0
  0
LINE
  8
0
  6
CONTINUOUS
 62
     7
  5
BB7
 10
1.744091
 20
-3.149135
 30
0.0
 11
1.744173
 21
-3.153543
 31
0.0
  0
LINE
  8
0
  6
CONTINUOUS
 62
     7
  5
BB8
 10
1.350472
 20
-2.956693
 30
0.0
 11
1.656885
 21
-3.039526
 31
0.0
  0
LINE
  8
0
  6
CONTINUOUS
 62
     7
  5
BB9
 10
1.350472
 20
-2.956693
 30
0.0
 11
1.350472
 21
-6.71063
 31
0.0
  0
LINE
  8
0
  6
CONTINUOUS
 62
     7
  5
BBA
 10
0.720472
 20
-3.567929
 30
0.0
 11
0.720472
 21
-2.956693
 31
0.0
  0
LINE
  8
0
  6
CONTINUOUS
 62
     7
  5
BBB
 10
1.350472
 20
-6.71063
 30
0.0
 11
0.720472
 21
-6.71063
 31
0.0
  0
LINE
  8
0
  6
CONTINUOUS
 62
     7
  5
BBC
 10
1.350472
 20
-2.956693
 30
0.0
 11
0.838583
 21
-2.956693
 31
0.0
  0
LINE
  8
0
  6
CONTINUOUS
 62
     7
  5
BBD
 10
-5.822835
 20
-6.854331
 30
0.0
 11
-7.082677
 21
-6.854331
 31
0.0
  0
LINE
  8
0
  6
CONTINUOUS
 62
     7
  5
BBE
 10
-5.822835
 20
-5.279528
 30
0.0
 11
-5.822835
 21
-6.854331
 31
0.0
  0
LINE
  8
0
  6
CONTINUOUS
 62
     7
  5
BBF
 10
-7.082677
 20
-5.279528
 30
0.0
 11
-5.822835
 21
-5.279528
 31
0.0
  0
LINE
  8
0
  6
CONTINUOUS
 62
     7
  5
BC0
 10
-7.082677
 20
-6.854331
 30
0.0
 11
-7.082677
 21
-5.279528
 31
0.0
  0
LINE
  8
0
  6
CONTINUOUS
 62
     7
  5
BC1
 10
-5.822835
 20
-6.854331
 30
0.0
 11
-5.822835
 21
-8.429134
 31
0.0
  0
LINE
  8
0
  6
CONTINUOUS
 62
     7
  5
BC2
 10
-7.082677
 20
-8.429134
 30
0.0
 11
-7.082677
 21
-6.854331
 31
0.0
  0
LINE
  8
0
  6
CONTINUOUS
 62
     7
  5
BC3
 10
-5.822835
 20
-8.429134
 30
0.0
 11
-7.082677
 21
-8.429134
 31
0.0
  0
LINE
  8
0
  6
CONTINUOUS
 62
     7
  5
BC4
 10
-4.561992
 20
-6.854331
 30
0.0
 11
-5.821835
 21
-6.854331
 31
0.0
  0
LINE
  8
0
  6
CONTINUOUS
 62
     7
  5
BC5
 10
-4.561992
 20
-5.279528
 30
0.0
 11
-4.561992
 21
-6.854331
 31
0.0
  0
LINE
  8
0
  6
CONTINUOUS
 62
     7
  5
BC6
 10
-5.821835
 20
-5.279528
 30
0.0
 11
-4.561992
 21
-5.279528
 31
0.0
  0
LINE
  8
0
  6
CONTINUOUS
 62
     7
  5
BC7
 10
-5.821835
 20
-6.854331
 30
0.0
 11
-5.821835
 21
-5.279528
 31
0.0
  0
LINE
  8
0
  6
CONTINUOUS
 62
     7
  5
BC8
 10
-4.561992
 20
-6.854331
 30
0.0
 11
-4.561992
 21
-8.429134
 31
0.0
  0
LINE
  8
0
  6
CONTINUOUS
 62
     7
  5
BC9
 10
-5.821835
 20
-8.429134
 30
0.0
 11
-5.821835
 21
-6.854331
 31
0.0
  0
LINE
  8
0
  6
CONTINUOUS
 62
     7
  5
BCA
 10
-4.561992
 20
-8.429134
 30
0.0
 11
-5.821835
 21
-8.429134
 31
0.0
  0
LINE
  8
0
  6
CONTINUOUS
 62
     7
  5
BCB
 10
-3.30115
 20
-6.854331
 30
0.0
 11
-4.560992
 21
-6.854331
 31
0.0
  0
LINE
  8
0
  6
CONTINUOUS
 62
     7
  5
BCC
 10
-3.30115
 20
-5.279528
 30
0.0
 11
-3.30115
 21
-6.854331
 31
0.0
  0
LINE
  8
0
  6
CONTINUOUS
 62
     7
  5
BCD
 10
-4.560992
 20
-5.279528
 30
0.0
 11
-3.30115
 21
-5.279528
 31
0.0
  0
LINE
  8
0
  6
CONTINUOUS
 62
     7
  5
BCE
 10
-4.560992
 20
-6.854331
 30
0.0
 11
-4.560992
 21
-5.279528
 31
0.0
  0
LINE
  8
0
  6
CONTINUOUS
 62
     7
  5
BCF
 10
-3.30115
 20
-6.854331
 30
0.0
 11
-3.30115
 21
-8.429134
 31
0.0
  0
LINE
  8
0
  6
CONTINUOUS
 62
     7
  5
BD0
 10
-4.560992
 20
-8.429134
 30
0.0
 11
-4.560992
 21
-6.854331
 31
0.0
  0
LINE
  8
0
  6
CONTINUOUS
 62
     7
  5
BD1
 10
-3.30115
 20
-8.429134
 30
0.0
 11
-4.560992
 21
-8.429134
 31
0.0
  0
LINE
  8
0
  6
CONTINUOUS
 62
     7
  5
BD2
 10
-2.040307
 20
-6.854331
 30
0.0
 11
-3.30015
 21
-6.854331
 31
0.0
  0
LINE
  8
0
  6
CONTINUOUS
 62
     7
  5
BD3
 10
-2.040307
 20
-5.279528
 30
0.0
 11
-2.040307
 21
-6.854331
 31
0.0
  0
LINE
  8
0
  6
CONTINUOUS
 62
     7
  5
BD4
 10
-3.30015
 20
-5.279528
 30
0.0
 11
-2.040307
 21
-5.279528
 31
0.0
  0
LINE
  8
0
  6
CONTINUOUS
 62
     7
  5
BD5
 10
-3.30015
 20
-6.854331
 30
0.0
 11
-3.30015
 21
-5.279528
 31
0.0
  0
LINE
  8
0
  6
CONTINUOUS
 62
     7
  5
BD6
 10
-2.040307
 20
-6.854331
 30
0.0
 11
-2.040307
 21
-8.429134
 31
0.0
  0
LINE
  8
0
  6
CONTINUOUS
 62
     7
  5
BD7
 10
-3.30015
 20
-8.429134
 30
0.0
 11
-3.30015
 21
-6.854331
 31
0.0
  0
LINE
  8
0
  6
CONTINUOUS
 62
     7
  5
BD8
 10
-2.040307
 20
-8.429134
 30
0.0
 11
-3.30015
 21
-8.429134
 31
0.0
  0
LINE
  8
0
  6
CONTINUOUS
 62
     7
  5
BD9
 10
-9.248031
 20
-7.838583
 30
0.0
 11
-9.090551
 21
-7.838583
 31
0.0
  0
LINE
  8
0
  6
CONTINUOUS
 62
     7
  5
BDA
 10
-9.248031
 20
-4.295276
 30
0.0
 11
-9.090551
 21
-4.295276
 31
0.0
  0
LINE
  8
0
  6
CONTINUOUS
 62
     7
  5
BDB
 10
-9.090551
 20
-7.838583
 30
0.0
 11
-7.240157
 21
-7.838583
 31
0.0
  0
LINE
  8
0
  6
CONTINUOUS
 62
     7
  5
BDC
 10
-7.240157
 20
-4.295276
 30
0.0
 11
-7.240157
 21
-7.838583
 31
0.0
  0
LINE
  8
0
  6
CONTINUOUS
 62
     7
  5
BDD
 10
-9.090551
 20
-4.295276
 30
0.0
 11
-7.240157
 21
-4.295276
 31
0.0
  0
LINE
  8
0
  6
CONTINUOUS
 62
     7
  5
BDE
 10
-9.405512
 20
-4.295276
 30
0.0
 11
-9.405512
 21
-7.838583
 31
0.0
  0
LINE
  8
0
  6
CONTINUOUS
 62
     7
  5
BDF
 10
-9.405512
 20
-7.838583
 30
0.0
 11
-9.248031
 21
-7.838583
 31
0.0
  0
LINE
  8
0
  6
CONTINUOUS
 62
     7
  5
BE0
 10
-9.248031
 20
-4.295276
 30
0.0
 11
-9.248031
 21
-7.838583
 31
0.0
  0
LINE
  8
0
  6
CONTINUOUS
 62
     7
  5
BE1
 10
-9.405512
 20
-4.295276
 30
0.0
 11
-9.248031
 21
-4.295276
 31
0.0
  0
LINE
  8
0
  6
CONTINUOUS
 62
     7
  5
BE2
 10
-8.53937
 20
-7.838583
 30
0.0
 11
-8.53937
 21
-8.565929
 31
0.0
  0
LINE
  8
0
  6
CONTINUOUS
 62
     7
  5
BE3
 10
-8.53937
 20
-8.565929
 30
0.0
 11
0.523622
 21
-8.565929
 31
0.0
  0
LINE
  8
0
  6
CONTINUOUS
 62
     7
  5
BE4
 10
-8.53937
 20
-3.567929
 30
0.0
 11
0.523622
 21
-3.567929
 31
0.0
  0
LINE
  8
0
  6
CONTINUOUS
 62
     7
  5
BE5
 10
-8.53937
 20
-3.567929
 30
0.0
 11
-8.53937
 21
-4.295276
 31
0.0
  0
LINE
  8
0
  6
CONTINUOUS
 62
     7
  5
BE6
 10
0.523622
 20
-8.565929
 30
0.0
 11
0.720472
 21
-8.565929
 31
0.0
  0
LINE
  8
0
  6
CONTINUOUS
 62
     7
  5
BE7
 10
0.720472
 20
-3.567929
 30
0.0
 11
0.720472
 21
-8.565929
 31
0.0
  0
LINE
  8
0
  6
CONTINUOUS
 62
     7
  5
BE8
 10
0.523622
 20
-3.567929
 30
0.0
 11
0.720472
 21
-3.567929
 31
0.0
  0
LINE
  8
0
  6
CONTINUOUS
 62
     7
  5
BE9
 10
-8.53937
 20
-3.566929
 30
0.0
 11
0.366142
 21
-3.566929
 31
0.0
  0
LINE
  8
0
  6
CONTINUOUS
 62
     7
  5
BEA
 10
-8.53937
 20
-8.566929
 30
0.0
 11
0.366142
 21
-8.566929
 31
0.0
  0
LINE
  8
0
  6
CONTINUOUS
 62
     7
  5
BEB
 10
0.366142
 20
-8.566929
 30
0.0
 11
0.562992
 21
-8.566929
 31
0.0
  0
LINE
  8
0
  6
CONTINUOUS
 62
     7
  5
BEC
 10
0.366142
 20
-3.566929
 30
0.0
 11
0.562992
 21
-3.566929
 31
0.0
  0
LINE
  8
0
  6
CONTINUOUS
 62
     7
  5
BED
 10
1.744173
 20
-3.153543
 30
0.0
 11
1.744091
 21
-3.157952
 31
0.0
  0
LINE
  8
0
  6
CONTINUOUS
 62
     7
  5
BEE
 10
1.744091
 20
-3.157952
 30
0.0
 11
1.743844
 21
-3.162355
 31
0.0
  0
LINE
  8
0
  6
CONTINUOUS
 62
     7
  5
BEF
 10
1.743844
 20
-3.162355
 30
0.0
 11
1.743433
 21
-3.166745
 31
0.0
  0
LINE
  8
0
  6
CONTINUOUS
 62
     7
  5
BF0
 10
1.743433
 20
-3.166745
 30
0.0
 11
1.742858
 21
-3.171117
 31
0.0
  0
LINE
  8
0
  6
CONTINUOUS
 62
     7
  5
BF1
 10
1.742858
 20
-3.171117
 30
0.0
 11
1.742121
 21
-3.175465
 31
0.0
  0
LINE
  8
0
  6
CONTINUOUS
 62
     7
  5
BF2
 10
1.742121
 20
-3.175465
 30
0.0
 11
1.741222
 21
-3.179781
 31
0.0
  0
LINE
  8
0
  6
CONTINUOUS
 62
     7
  5
BF3
 10
1.741222
 20
-3.179781
 30
0.0
 11
1.740162
 21
-3.184062
 31
0.0
  0
LINE
  8
0
  6
CONTINUOUS
 62
     7
  5
BF4
 10
1.740162
 20
-3.184062
 30
0.0
 11
1.738944
 21
-3.1883
 31
0.0
  0
LINE
  8
0
  6
CONTINUOUS
 62
     7
  5
BF5
 10
1.738944
 20
-3.1883
 30
0.0
 11
1.737568
 21
-3.192489
 31
0.0
  0
LINE
  8
0
  6
CONTINUOUS
 62
     7
  5
BF6
 10
1.737568
 20
-3.192489
 30
0.0
 11
1.736036
 21
-3.196624
 31
0.0
  0
LINE
  8
0
  6
CONTINUOUS
 62
     7
  5
BF7
 10
1.736036
 20
-3.196624
 30
0.0
 11
1.734351
 21
-3.200699
 31
0.0
  0
LINE
  8
0
  6
CONTINUOUS
 62
     7
  5
BF8
 10
1.734351
 20
-3.200699
 30
0.0
 11
1.732516
 21
-3.204708
 31
0.0
  0
LINE
  8
0
  6
CONTINUOUS
 62
     7
  5
BF9
 10
1.732516
 20
-3.204708
 30
0.0
 11
1.730532
 21
-3.208646
 31
0.0
  0
LINE
  8
0
  6
CONTINUOUS
 62
     7
  5
BFA
 10
1.730532
 20
-3.208646
 30
0.0
 11
1.728402
 21
-3.212508
 31
0.0
  0
LINE
  8
0
  6
CONTINUOUS
 62
     7
  5
BFB
 10
1.728402
 20
-3.212508
 30
0.0
 11
1.72613
 21
-3.216287
 31
0.0
  0
LINE
  8
0
  6
CONTINUOUS
 62
     7
  5
BFC
 10
1.72613
 20
-3.216287
 30
0.0
 11
1.723718
 21
-3.219978
 31
0.0
  0
LINE
  8
0
  6
CONTINUOUS
 62
     7
  5
BFD
 10
1.723718
 20
-3.219978
 30
0.0
 11
1.72117
 21
-3.223577
 31
0.0
  0
LINE
  8
0
  6
CONTINUOUS
 62
     7
  5
BFE
 10
1.72117
 20
-3.223577
 30
0.0
 11
1.718489
 21
-3.227078
 31
0.0
  0
LINE
  8
0
  6
CONTINUOUS
 62
     7
  5
BFF
 10
1.718489
 20
-3.227078
 30
0.0
 11
1.71568
 21
-3.230477
 31
0.0
  0
LINE
  8
0
  6
CONTINUOUS
 62
     7
  5
C00
 10
1.71568
 20
-3.230477
 30
0.0
 11
1.712746
 21
-3.233769
 31
0.0
  0
LINE
  8
0
  6
CONTINUOUS
 62
     7
  5
C01
 10
1.712746
 20
-3.233769
 30
0.0
 11
1.709691
 21
-3.236949
 31
0.0
  0
LINE
  8
0
  6
CONTINUOUS
 62
     7
  5
C02
 10
1.709691
 20
-3.236949
 30
0.0
 11
1.706519
 21
-3.240012
 31
0.0
  0
LINE
  8
0
  6
CONTINUOUS
 62
     7
  5
C03
 10
1.706519
 20
-3.240012
 30
0.0
 11
1.703235
 21
-3.242955
 31
0.0
  0
LINE
  8
0
  6
CONTINUOUS
 62
     7
  5
C04
 10
1.703235
 20
-3.242955
 30
0.0
 11
1.699844
 21
-3.245773
 31
0.0
  0
LINE
  8
0
  6
CONTINUOUS
 62
     7
  5
C05
 10
1.699844
 20
-3.245773
 30
0.0
 11
1.69635
 21
-3.248463
 31
0.0
  0
LINE
  8
0
  6
CONTINUOUS
 62
     7
  5
C06
 10
1.69635
 20
-3.248463
 30
0.0
 11
1.692758
 21
-3.251021
 31
0.0
  0
LINE
  8
0
  6
CONTINUOUS
 62
     7
  5
C07
 10
1.692758
 20
-3.251021
 30
0.0
 11
1.689073
 21
-3.253442
 31
0.0
  0
LINE
  8
0
  6
CONTINUOUS
 62
     7
  5
C08
 10
1.689073
 20
-3.253442
 30
0.0
 11
1.6853
 21
-3.255725
 31
0.0
  0
LINE
  8
0
  6
CONTINUOUS
 62
     7
  5
C09
 10
1.6853
 20
-3.255725
 30
0.0
 11
1.681444
 21
-3.257865
 31
0.0
  0
LINE
  8
0
  6
CONTINUOUS
 62
     7
  5
C0A
 10
1.681444
 20
-3.257865
 30
0.0
 11
1.677512
 21
-3.259859
 31
0.0
  0
LINE
  8
0
  6
CONTINUOUS
 62
     7
  5
C0B
 10
1.677512
 20
-3.259859
 30
0.0
 11
1.673507
 21
-3.261706
 31
0.0
  0
LINE
  8
0
  6
CONTINUOUS
 62
     7
  5
C0C
 10
1.673507
 20
-3.261706
 30
0.0
 11
1.669437
 21
-3.263401
 31
0.0
  0
LINE
  8
0
  6
CONTINUOUS
 62
     7
  5
C0D
 10
1.669437
 20
-3.263401
 30
0.0
 11
1.665306
 21
-3.264944
 31
0.0
  0
LINE
  8
0
  6
CONTINUOUS
 62
     7
  5
C0E
 10
1.665306
 20
-3.264944
 30
0.0
 11
1.66112
 21
-3.266331
 31
0.0
  0
LINE
  8
0
  6
CONTINUOUS
 62
     7
  5
C0F
 10
1.66112
 20
-3.266331
 30
0.0
 11
1.656885
 21
-3.267561
 31
0.0
  0
LINE
  8
0
  6
CONTINUOUS
 62
     7
  5
C10
 10
1.656885
 20
-3.039526
 30
0.0
 11
1.66112
 21
-3.040756
 31
0.0
  0
LINE
  8
0
  6
CONTINUOUS
 62
     7
  5
C11
 10
1.66112
 20
-3.040756
 30
0.0
 11
1.665306
 21
-3.042143
 31
0.0
  0
LINE
  8
0
  6
CONTINUOUS
 62
     7
  5
C12
 10
1.665306
 20
-3.042143
 30
0.0
 11
1.669437
 21
-3.043685
 31
0.0
  0
LINE
  8
0
  6
CONTINUOUS
 62
     7
  5
C13
 10
1.669437
 20
-3.043685
 30
0.0
 11
1.673507
 21
-3.045381
 31
0.0
  0
LINE
  8
0
  6
CONTINUOUS
 62
     7
  5
C14
 10
1.673507
 20
-3.045381
 30
0.0
 11
1.677512
 21
-3.047227
 31
0.0
  0
LINE
  8
0
  6
CONTINUOUS
 62
     7
  5
C15
 10
1.677512
 20
-3.047227
 30
0.0
 11
1.681444
 21
-3.049222
 31
0.0
  0
LINE
  8
0
  6
CONTINUOUS
 62
     7
  5
C16
 10
1.681444
 20
-3.049222
 30
0.0
 11
1.6853
 21
-3.051362
 31
0.0
  0
LINE
  8
0
  6
CONTINUOUS
 62
     7
  5
C17
 10
1.6853
 20
-3.051362
 30
0.0
 11
1.689073
 21
-3.053644
 31
0.0
  0
LINE
  8
0
  6
CONTINUOUS
 62
     7
  5
C18
 10
1.689073
 20
-3.053644
 30
0.0
 11
1.692758
 21
-3.056066
 31
0.0
  0
LINE
  8
0
  6
CONTINUOUS
 62
     7
  5
C19
 10
1.692758
 20
-3.056066
 30
0.0
 11
1.69635
 21
-3.058623
 31
0.0
  0
LINE
  8
0
  6
CONTINUOUS
 62
     7
  5
C1A
 10
1.69635
 20
-3.058623
 30
0.0
 11
1.699844
 21
-3.061313
 31
0.0
  0
LINE
  8
0
  6
CONTINUOUS
 62
     7
  5
C1B
 10
1.699844
 20
-3.061313
 30
0.0
 11
1.703235
 21
-3.064132
 31
0.0
  0
LINE
  8
0
  6
CONTINUOUS
 62
     7
  5
C1C
 10
1.703235
 20
-3.064132
 30
0.0
 11
1.706519
 21
-3.067075
 31
0.0
  0
LINE
  8
0
  6
CONTINUOUS
 62
     7
  5
C1D
 10
1.706519
 20
-3.067075
 30
0.0
 11
1.709691
 21
-3.070138
 31
0.0
  0
LINE
  8
0
  6
CONTINUOUS
 62
     7
  5
C1E
 10
1.709691
 20
-3.070138
 30
0.0
 11
1.712746
 21
-3.073318
 31
0.0
  0
LINE
  8
0
  6
CONTINUOUS
 62
     7
  5
C1F
 10
1.712746
 20
-3.073318
 30
0.0
 11
1.71568
 21
-3.076609
 31
0.0
  0
LINE
  8
0
  6
CONTINUOUS
 62
     7
  5
C20
 10
1.71568
 20
-3.076609
 30
0.0
 11
1.718489
 21
-3.080008
 31
0.0
  0
LINE
  8
0
  6
CONTINUOUS
 62
     7
  5
C21
 10
1.718489
 20
-3.080008
 30
0.0
 11
1.72117
 21
-3.08351
 31
0.0
  0
LINE
  8
0
  6
CONTINUOUS
 62
     7
  5
C22
 10
1.72117
 20
-3.08351
 30
0.0
 11
1.723718
 21
-3.087109
 31
0.0
  0
LINE
  8
0
  6
CONTINUOUS
 62
     7
  5
C23
 10
1.723718
 20
-3.087109
 30
0.0
 11
1.72613
 21
-3.0908
 31
0.0
  0
LINE
  8
0
  6
CONTINUOUS
 62
     7
  5
C24
 10
1.72613
 20
-3.0908
 30
0.0
 11
1.728402
 21
-3.094579
 31
0.0
  0
LINE
  8
0
  6
CONTINUOUS
 62
     7
  5
C25
 10
1.728402
 20
-3.094579
 30
0.0
 11
1.730532
 21
-3.09844
 31
0.0
  0
LINE
  8
0
  6
CONTINUOUS
 62
     7
  5
C26
 10
1.730532
 20
-3.09844
 30
0.0
 11
1.732516
 21
-3.102378
 31
0.0
  0
LINE
  8
0
  6
CONTINUOUS
 62
     7
  5
C27
 10
1.732516
 20
-3.102378
 30
0.0
 11
1.734351
 21
-3.106388
 31
0.0
  0
LINE
  8
0
  6
CONTINUOUS
 62
     7
  5
C28
 10
1.734351
 20
-3.106388
 30
0.0
 11
1.736036
 21
-3.110463
 31
0.0
  0
LINE
  8
0
  6
CONTINUOUS
 62
     7
  5
C29
 10
1.736036
 20
-3.110463
 30
0.0
 11
1.737568
 21
-3.114598
 31
0.0
  0
LINE
  8
0
  6
CONTINUOUS
 62
     7
  5
C2A
 10
1.737568
 20
-3.114598
 30
0.0
 11
1.738944
 21
-3.118787
 31
0.0
  0
LINE
  8
0
  6
CONTINUOUS
 62
     7
  5
C2B
 10
1.738944
 20
-3.118787
 30
0.0
 11
1.740162
 21
-3.123025
 31
0.0
  0
LINE
  8
0
  6
CONTINUOUS
 62
     7
  5
C2C
 10
1.740162
 20
-3.123025
 30
0.0
 11
1.741222
 21
-3.127305
 31
0.0
  0
LINE
  8
0
  6
CONTINUOUS
 62
     7
  5
C2D
 10
1.741222
 20
-3.127305
 30
0.0
 11
1.742121
 21
-3.131622
 31
0.0
  0
LINE
  8
0
  6
CONTINUOUS
 62
     7
  5
C2E
 10
1.742121
 20
-3.131622
 30
0.0
 11
1.742858
 21
-3.13597
 31
0.0
  0
LINE
  8
0
  6
CONTINUOUS
 62
     7
  5
C2F
 10
1.742858
 20
-3.13597
 30
0.0
 11
1.743433
 21
-3.140341
 31
0.0
  0
LINE
  8
0
  6
CONTINUOUS
 62
     7
  5
C30
 10
1.743433
 20
-3.140341
 30
0.0
 11
1.743844
 21
-3.144732
 31
0.0
  0
LINE
  8
0
  6
CONTINUOUS
 62
     7
  5
C31
 10
1.743844
 20
-3.144732
 30
0.0
 11
1.744091
 21
-3.149135
 31
0.0
  0
LINE
  8
0
  6
CONTINUOUS
 62
     7
  5
C32
 10
1.744091
 20
-3.149135
 30
0.0
 11
1.744173
 21
-3.153543
 31
0.0
  0
LINE
  8
0
  6
CONTINUOUS
 62
     7
  5
C33
 10
0.720472
 20
-3.566929
 30
0.0
 11
0.562992
 21
-3.566929
 31
0.0
  0
LINE
  8
0
  6
CONTINUOUS
 62
     7
  5
C34
 10
0.720472
 20
-8.566929
 30
0.0
 11
0.562992
 21
-8.566929
 31
0.0
  0
LINE
  8
0
  6
CONTINUOUS
 62
     7
  5
C35
 10
7.100748
 20
1.663957
 30
0.0
 11
7.150664
 21
1.556913
 31
0.0
  0
LINE
  8
0
  6
CONTINUOUS
 62
     7
  5
C36
 10
7.466795
 20
0.878966
 30
0.0
 11
7.516711
 21
0.771922
 31
0.0
  0
LINE
  8
0
  6
CONTINUOUS
 62
     7
  5
C37
 10
12.461273
 20
3.75093
 30
0.0
 11
12.462893
 21
3.744331
 31
0.0
  0
LINE
  8
0
  6
CONTINUOUS
 62
     7
  5
C38
 10
12.462893
 20
3.744331
 30
0.0
 11
12.464588
 21
3.737751
 31
0.0
  0
LINE
  8
0
  6
CONTINUOUS
 62
     7
  5
C39
 10
12.464588
 20
3.737751
 30
0.0
 11
12.46636
 21
3.731191
 31
0.0
  0
LINE
  8
0
  6
CONTINUOUS
 62
     7
  5
C3A
 10
12.46636
 20
3.731191
 30
0.0
 11
12.468207
 21
3.724652
 31
0.0
  0
LINE
  8
0
  6
CONTINUOUS
 62
     7
  5
C3B
 10
12.468207
 20
3.724652
 30
0.0
 11
12.470128
 21
3.718134
 31
0.0
  0
LINE
  8
0
  6
CONTINUOUS
 62
     7
  5
C3C
 10
12.470128
 20
3.718134
 30
0.0
 11
12.472125
 21
3.711639
 31
0.0
  0
LINE
  8
0
  6
CONTINUOUS
 62
     7
  5
C3D
 10
12.472125
 20
3.711639
 30
0.0
 11
12.474197
 21
3.705168
 31
0.0
  0
LINE
  8
0
  6
CONTINUOUS
 62
     7
  5
C3E
 10
12.474197
 20
3.705168
 30
0.0
 11
12.476342
 21
3.69872
 31
0.0
  0
LINE
  8
0
  6
CONTINUOUS
 62
     7
  5
C3F
 10
12.476342
 20
3.69872
 30
0.0
 11
12.478562
 21
3.692298
 31
0.0
  0
LINE
  8
0
  6
CONTINUOUS
 62
     7
  5
C40
 10
12.478562
 20
3.692298
 30
0.0
 11
12.480855
 21
3.685902
 31
0.0
  0
LINE
  8
0
  6
CONTINUOUS
 62
     7
  5
C41
 10
12.480855
 20
3.685902
 30
0.0
 11
12.483222
 21
3.679533
 31
0.0
  0
LINE
  8
0
  6
CONTINUOUS
 62
     7
  5
C42
 10
12.483222
 20
3.679533
 30
0.0
 11
12.485662
 21
3.673191
 31
0.0
  0
LINE
  8
0
  6
CONTINUOUS
 62
     7
  5
C43
 10
12.485662
 20
3.673191
 30
0.0
 11
12.488175
 21
3.666878
 31
0.0
  0
LINE
  8
0
  6
CONTINUOUS
 62
     7
  5
C44
 10
12.488175
 20
3.666878
 30
0.0
 11
12.49076
 21
3.660594
 31
0.0
  0
LINE
  8
0
  6
CONTINUOUS
 62
     7
  5
C45
 10
12.49076
 20
3.660594
 30
0.0
 11
12.493418
 21
3.65434
 31
0.0
  0
LINE
  8
0
  6
CONTINUOUS
 62
     7
  5
C46
 10
12.493418
 20
3.65434
 30
0.0
 11
12.496147
 21
3.648117
 31
0.0
  0
LINE
  8
0
  6
CONTINUOUS
 62
     7
  5
C47
 10
12.496147
 20
3.648117
 30
0.0
 11
12.498948
 21
3.641926
 31
0.0
  0
LINE
  8
0
  6
CONTINUOUS
 62
     7
  5
C48
 10
12.498948
 20
3.641926
 30
0.0
 11
12.501819
 21
3.635768
 31
0.0
  0
LINE
  8
0
  6
CONTINUOUS
 62
     7
  5
C49
 10
12.501819
 20
3.635768
 30
0.0
 11
12.504762
 21
3.629643
 31
0.0
  0
LINE
  8
0
  6
CONTINUOUS
 62
     7
  5
C4A
 10
12.504762
 20
3.629643
 30
0.0
 11
12.507774
 21
3.623553
 31
0.0
  0
LINE
  8
0
  6
CONTINUOUS
 62
     7
  5
C4B
 10
12.507774
 20
3.623553
 30
0.0
 11
12.510857
 21
3.617497
 31
0.0
  0
LINE
  8
0
  6
CONTINUOUS
 62
     7
  5
C4C
 10
12.510857
 20
3.617497
 30
0.0
 11
12.514009
 21
3.611477
 31
0.0
  0
LINE
  8
0
  6
CONTINUOUS
 62
     7
  5
C4D
 10
12.514009
 20
3.611477
 30
0.0
 11
12.51723
 21
3.605494
 31
0.0
  0
LINE
  8
0
  6
CONTINUOUS
 62
     7
  5
C4E
 10
12.51723
 20
3.605494
 30
0.0
 11
12.520519
 21
3.599549
 31
0.0
  0
LINE
  8
0
  6
CONTINUOUS
 62
     7
  5
C4F
 10
12.520519
 20
3.599549
 30
0.0
 11
12.523877
 21
3.593642
 31
0.0
  0
LINE
  8
0
  6
CONTINUOUS
 62
     7
  5
C50
 10
12.523877
 20
3.593642
 30
0.0
 11
12.527303
 21
3.587773
 31
0.0
  0
LINE
  8
0
  6
CONTINUOUS
 62
     7
  5
C51
 10
12.527303
 20
3.587773
 30
0.0
 11
12.530796
 21
3.581945
 31
0.0
  0
LINE
  8
0
  6
CONTINUOUS
 62
     7
  5
C52
 10
12.530796
 20
3.581945
 30
0.0
 11
12.534355
 21
3.576157
 31
0.0
  0
LINE
  8
0
  6
CONTINUOUS
 62
     7
  5
C53
 10
12.534355
 20
3.576157
 30
0.0
 11
12.537981
 21
3.57041
 31
0.0
  0
LINE
  8
0
  6
CONTINUOUS
 62
     7
  5
C54
 10
12.537981
 20
3.57041
 30
0.0
 11
12.541673
 21
3.564706
 31
0.0
  0
LINE
  8
0
  6
CONTINUOUS
 62
     7
  5
C55
 10
12.541673
 20
3.564706
 30
0.0
 11
12.545431
 21
3.559044
 31
0.0
  0
LINE
  8
0
  6
CONTINUOUS
 62
     7
  5
C56
 10
12.545431
 20
3.559044
 30
0.0
 11
12.549253
 21
3.553426
 31
0.0
  0
LINE
  8
0
  6
CONTINUOUS
 62
     7
  5
C57
 10
12.549253
 20
3.553426
 30
0.0
 11
12.553139
 21
3.547853
 31
0.0
  0
LINE
  8
0
  6
CONTINUOUS
 62
     7
  5
C58
 10
12.553139
 20
3.547853
 30
0.0
 11
12.55709
 21
3.542324
 31
0.0
  0
LINE
  8
0
  6
CONTINUOUS
 62
     7
  5
C59
 10
12.55709
 20
3.542324
 30
0.0
 11
12.561104
 21
3.536841
 31
0.0
  0
LINE
  8
0
  6
CONTINUOUS
 62
     7
  5
C5A
 10
12.644888
 20
3.445591
 30
0.0
 11
12.718437
 21
3.390263
 31
0.0
  0
LINE
  8
0
  6
CONTINUOUS
 62
     7
  5
C5B
 10
12.718437
 20
3.390263
 30
0.0
 11
12.799688
 21
3.347035
 31
0.0
  0
LINE
  8
0
  6
CONTINUOUS
 62
     7
  5
C5C
 10
12.799688
 20
3.347035
 30
0.0
 11
12.886669
 21
3.316956
 31
0.0
  0
LINE
  8
0
  6
CONTINUOUS
 62
     7
  5
C5D
 10
12.886669
 20
3.316956
 30
0.0
 11
12.977268
 21
3.300757
 31
0.0
  0
LINE
  8
0
  6
CONTINUOUS
 62
     7
  5
C5E
 10
12.977268
 20
3.300757
 30
0.0
 11
13.069283
 21
3.298831
 31
0.0
  0
LINE
  8
0
  6
CONTINUOUS
 62
     7
  5
C5F
 10
13.069283
 20
3.298831
 30
0.0
 11
13.16048
 21
3.311225
 31
0.0
  0
LINE
  8
0
  6
CONTINUOUS
 62
     7
  5
C60
 10
13.16048
 20
3.311225
 30
0.0
 11
13.248643
 21
3.337638
 31
0.0
  0
LINE
  8
0
  6
CONTINUOUS
 62
     7
  5
C61
 10
13.248643
 20
3.337638
 30
0.0
 11
13.331632
 21
3.377429
 31
0.0
  0
LINE
  8
0
  6
CONTINUOUS
 62
     7
  5
C62
 10
13.331632
 20
3.377429
 30
0.0
 11
13.407431
 21
3.42963
 31
0.0
  0
LINE
  8
0
  6
CONTINUOUS
 62
     7
  5
C63
 10
13.407431
 20
3.42963
 30
0.0
 11
13.474199
 21
3.492975
 31
0.0
  0
LINE
  8
0
  6
CONTINUOUS
 62
     7
  5
C64
 10
13.474199
 20
3.492975
 30
0.0
 11
13.530314
 21
3.565924
 31
0.0
  0
LINE
  8
0
  6
CONTINUOUS
 62
     7
  5
C65
 10
13.530314
 20
3.565924
 30
0.0
 11
13.574413
 21
3.646706
 31
0.0
  0
LINE
  8
0
  6
CONTINUOUS
 62
     7
  5
C66
 10
13.574413
 20
3.646706
 30
0.0
 11
13.605426
 21
3.733358
 31
0.0
  0
LINE
  8
0
  6
CONTINUOUS
 62
     7
  5
C67
 10
13.605426
 20
3.733358
 30
0.0
 11
13.622598
 21
3.823777
 31
0.0
  0
LINE
  8
0
  6
CONTINUOUS
 62
     7
  5
C68
 10
13.622598
 20
3.823777
 30
0.0
 11
13.625513
 21
3.915766
 31
0.0
  0
LINE
  8
0
  6
CONTINUOUS
 62
     7
  5
C69
 10
13.625513
 20
3.915766
 30
0.0
 11
13.614101
 21
4.007091
 31
0.0
  0
LINE
  8
0
  6
CONTINUOUS
 62
     7
  5
C6A
 10
13.614101
 20
4.007091
 30
0.0
 11
13.588637
 21
4.095534
 31
0.0
  0
LINE
  8
0
  6
CONTINUOUS
 62
     7
  5
C6B
 10
13.588637
 20
4.095534
 30
0.0
 11
13.549742
 21
4.178946
 31
0.0
  0
LINE
  8
0
  6
CONTINUOUS
 62
     7
  5
C6C
 10
13.549742
 20
4.178946
 30
0.0
 11
13.498358
 21
4.255302
 31
0.0
  0
LINE
  8
0
  6
CONTINUOUS
 62
     7
  5
C6D
 10
13.498358
 20
4.255302
 30
0.0
 11
13.435735
 21
4.322747
 31
0.0
  0
LINE
  8
0
  6
CONTINUOUS
 62
     7
  5
C6E
 10
13.435735
 20
4.322747
 30
0.0
 11
13.363394
 21
4.379643
 31
0.0
  0
LINE
  8
0
  6
CONTINUOUS
 62
     7
  5
C6F
 10
13.363394
 20
4.379643
 30
0.0
 11
13.283091
 21
4.424608
 31
0.0
  0
LINE
  8
0
  6
CONTINUOUS
 62
     7
  5
C70
 10
13.283091
 20
4.424608
 30
0.0
 11
13.196776
 21
4.456551
 31
0.0
  0
LINE
  8
0
  6
CONTINUOUS
 62
     7
  5
C71
 10
13.196776
 20
4.456551
 30
0.0
 11
13.106547
 21
4.474694
 31
0.0
  0
LINE
  8
0
  6
CONTINUOUS
 62
     7
  5
C72
 10
13.106547
 20
4.474694
 30
0.0
 11
13.014595
 21
4.478598
 31
0.0
  0
LINE
  8
0
  6
CONTINUOUS
 62
     7
  5
C73
 10
13.014595
 20
4.478598
 30
0.0
 11
12.923153
 21
4.468168
 31
0.0
  0
LINE
  8
0
  6
CONTINUOUS
 62
     7
  5
C74
 10
12.923153
 20
4.468168
 30
0.0
 11
12.834442
 21
4.443657
 31
0.0
  0
LINE
  8
0
  6
CONTINUOUS
 62
     7
  5
C75
 10
12.834442
 20
4.443657
 30
0.0
 11
12.750616
 21
4.405661
 31
0.0
  0
LINE
  8
0
  6
CONTINUOUS
 62
     7
  5
C76
 10
12.750616
 20
4.405661
 30
0.0
 11
12.673712
 21
4.355102
 31
0.0
  0
LINE
  8
0
  6
CONTINUOUS
 62
     7
  5
C77
 10
12.673712
 20
4.355102
 30
0.0
 11
12.605597
 21
4.293207
 31
0.0
  0
LINE
  8
0
  6
CONTINUOUS
 62
     7
  5
C78
 10
12.605597
 20
4.293207
 30
0.0
 11
12.547927
 21
4.221482
 31
0.0
  0
LINE
  8
0
  6
CONTINUOUS
 62
     7
  5
C79
 10
12.547927
 20
4.221482
 30
0.0
 11
12.502101
 21
4.141667
 31
0.0
  0
LINE
  8
0
  6
CONTINUOUS
 62
     7
  5
C7A
 10
12.502101
 20
4.141667
 30
0.0
 11
12.469232
 21
4.055701
 31
0.0
  0
LINE
  8
0
  6
CONTINUOUS
 62
     7
  5
C7B
 10
12.469232
 20
4.055701
 30
0.0
 11
12.450119
 21
3.965672
 31
0.0
  0
LINE
  8
0
  6
CONTINUOUS
 62
     7
  5
C7C
 10
12.450119
 20
3.965672
 30
0.0
 11
12.445226
 21
3.873767
 31
0.0
  0
LINE
  8
0
  6
CONTINUOUS
 62
     7
  5
C7D
 10
7.472447
 20
-0.918444
 30
0.0
 11
7.416998
 21
-1.022729
 31
0.0
  0
LINE
  8
0
  6
CONTINUOUS
 62
     7
  5
C7E
 10
7.065818
 20
-1.683202
 30
0.0
 11
7.010369
 21
-1.787487
 31
0.0
  0
LINE
  8
0
  6
CONTINUOUS
 62
     7
  5
C7F
 10
12.365222
 20
-3.943577
 30
0.0
 11
12.360927
 21
-3.948843
 31
0.0
  0
LINE
  8
0
  6
CONTINUOUS
 62
     7
  5
C80
 10
12.360927
 20
-3.948843
 30
0.0
 11
12.356692
 21
-3.954157
 31
0.0
  0
LINE
  8
0
  6
CONTINUOUS
 62
     7
  5
C81
 10
12.356692
 20
-3.954157
 30
0.0
 11
12.352519
 21
-3.959519
 31
0.0
  0
LINE
  8
0
  6
CONTINUOUS
 62
     7
  5
C82
 10
12.352519
 20
-3.959519
 30
0.0
 11
12.348408
 21
-3.96493
 31
0.0
  0
LINE
  8
0
  6
CONTINUOUS
 62
     7
  5
C83
 10
12.348408
 20
-3.96493
 30
0.0
 11
12.34436
 21
-3.970387
 31
0.0
  0
LINE
  8
0
  6
CONTINUOUS
 62
     7
  5
C84
 10
12.34436
 20
-3.970387
 30
0.0
 11
12.340374
 21
-3.97589
 31
0.0
  0
LINE
  8
0
  6
CONTINUOUS
 62
     7
  5
C85
 10
12.340374
 20
-3.97589
 30
0.0
 11
12.336453
 21
-3.981439
 31
0.0
  0
LINE
  8
0
  6
CONTINUOUS
 62
     7
  5
C86
 10
12.336453
 20
-3.981439
 30
0.0
 11
12.332595
 21
-3.987033
 31
0.0
  0
LINE
  8
0
  6
CONTINUOUS
 62
     7
  5
C87
 10
12.332595
 20
-3.987033
 30
0.0
 11
12.328802
 21
-3.992671
 31
0.0
  0
LINE
  8
0
  6
CONTINUOUS
 62
     7
  5
C88
 10
12.328802
 20
-3.992671
 30
0.0
 11
12.325074
 21
-3.998351
 31
0.0
  0
LINE
  8
0
  6
CONTINUOUS
 62
     7
  5
C89
 10
12.325074
 20
-3.998351
 30
0.0
 11
12.321411
 21
-4.004075
 31
0.0
  0
LINE
  8
0
  6
CONTINUOUS
 62
     7
  5
C8A
 10
12.321411
 20
-4.004075
 30
0.0
 11
12.317815
 21
-4.00984
 31
0.0
  0
LINE
  8
0
  6
CONTINUOUS
 62
     7
  5
C8B
 10
12.317815
 20
-4.00984
 30
0.0
 11
12.314285
 21
-4.015646
 31
0.0
  0
LINE
  8
0
  6
CONTINUOUS
 62
     7
  5
C8C
 10
12.314285
 20
-4.015646
 30
0.0
 11
12.310823
 21
-4.021493
 31
0.0
  0
LINE
  8
0
  6
CONTINUOUS
 62
     7
  5
C8D
 10
12.310823
 20
-4.021493
 30
0.0
 11
12.307427
 21
-4.027379
 31
0.0
  0
LINE
  8
0
  6
CONTINUOUS
 62
     7
  5
C8E
 10
12.307427
 20
-4.027379
 30
0.0
 11
12.3041
 21
-4.033303
 31
0.0
  0
LINE
  8
0
  6
CONTINUOUS
 62
     7
  5
C8F
 10
12.3041
 20
-4.033303
 30
0.0
 11
12.300841
 21
-4.039266
 31
0.0
  0
LINE
  8
0
  6
CONTINUOUS
 62
     7
  5
C90
 10
12.300841
 20
-4.039266
 30
0.0
 11
12.297651
 21
-4.045265
 31
0.0
  0
LINE
  8
0
  6
CONTINUOUS
 62
     7
  5
C91
 10
12.297651
 20
-4.045265
 30
0.0
 11
12.294531
 21
-4.051301
 31
0.0
  0
LINE
  8
0
  6
CONTINUOUS
 62
     7
  5
C92
 10
12.294531
 20
-4.051301
 30
0.0
 11
12.291479
 21
-4.057373
 31
0.0
  0
LINE
  8
0
  6
CONTINUOUS
 62
     7
  5
C93
 10
12.291479
 20
-4.057373
 30
0.0
 11
12.288498
 21
-4.063479
 31
0.0
  0
LINE
  8
0
  6
CONTINUOUS
 62
     7
  5
C94
 10
12.288498
 20
-4.063479
 30
0.0
 11
12.285588
 21
-4.069619
 31
0.0
  0
LINE
  8
0
  6
CONTINUOUS
 62
     7
  5
C95
 10
12.285588
 20
-4.069619
 30
0.0
 11
12.282748
 21
-4.075792
 31
0.0
  0
LINE
  8
0
  6
CONTINUOUS
 62
     7
  5
C96
 10
12.282748
 20
-4.075792
 30
0.0
 11
12.279979
 21
-4.081997
 31
0.0
  0
LINE
  8
0
  6
CONTINUOUS
 62
     7
  5
C97
 10
12.279979
 20
-4.081997
 30
0.0
 11
12.277282
 21
-4.088234
 31
0.0
  0
LINE
  8
0
  6
CONTINUOUS
 62
     7
  5
C98
 10
12.277282
 20
-4.088234
 30
0.0
 11
12.274657
 21
-4.094501
 31
0.0
  0
LINE
  8
0
  6
CONTINUOUS
 62
     7
  5
C99
 10
12.274657
 20
-4.094501
 30
0.0
 11
12.272105
 21
-4.100799
 31
0.0
  0
LINE
  8
0
  6
CONTINUOUS
 62
     7
  5
C9A
 10
12.272105
 20
-4.100799
 30
0.0
 11
12.269624
 21
-4.107125
 31
0.0
  0
LINE
  8
0
  6
CONTINUOUS
 62
     7
  5
C9B
 10
12.269624
 20
-4.107125
 30
0.0
 11
12.267217
 21
-4.113479
 31
0.0
  0
LINE
  8
0
  6
CONTINUOUS
 62
     7
  5
C9C
 10
12.267217
 20
-4.113479
 30
0.0
 11
12.264883
 21
-4.119861
 31
0.0
  0
LINE
  8
0
  6
CONTINUOUS
 62
     7
  5
C9D
 10
12.264883
 20
-4.119861
 30
0.0
 11
12.262623
 21
-4.126269
 31
0.0
  0
LINE
  8
0
  6
CONTINUOUS
 62
     7
  5
C9E
 10
12.262623
 20
-4.126269
 30
0.0
 11
12.260437
 21
-4.132702
 31
0.0
  0
LINE
  8
0
  6
CONTINUOUS
 62
     7
  5
C9F
 10
12.260437
 20
-4.132702
 30
0.0
 11
12.258324
 21
-4.13916
 31
0.0
  0
LINE
  8
0
  6
CONTINUOUS
 62
     7
  5
CA0
 10
12.258324
 20
-4.13916
 30
0.0
 11
12.256286
 21
-4.145643
 31
0.0
  0
LINE
  8
0
  6
CONTINUOUS
 62
     7
  5
CA1
 10
12.256286
 20
-4.145643
 30
0.0
 11
12.254323
 21
-4.152148
 31
0.0
  0
LINE
  8
0
  6
CONTINUOUS
 62
     7
  5
CA2
 10
12.23187
 20
-4.273977
 30
0.0
 11
12.231946
 21
-4.366012
 31
0.0
  0
LINE
  8
0
  6
CONTINUOUS
 62
     7
  5
CA3
 10
12.231946
 20
-4.366012
 30
0.0
 11
12.246321
 21
-4.456918
 31
0.0
  0
LINE
  8
0
  6
CONTINUOUS
 62
     7
  5
CA4
 10
12.246321
 20
-4.456918
 30
0.0
 11
12.274646
 21
-4.544486
 31
0.0
  0
LINE
  8
0
  6
CONTINUOUS
 62
     7
  5
CA5
 10
12.274646
 20
-4.544486
 30
0.0
 11
12.316232
 21
-4.62659
 31
0.0
  0
LINE
  8
0
  6
CONTINUOUS
 62
     7
  5
CA6
 10
12.316232
 20
-4.62659
 30
0.0
 11
12.37007
 21
-4.701236
 31
0.0
  0
LINE
  8
0
  6
CONTINUOUS
 62
     7
  5
CA7
 10
12.37007
 20
-4.701236
 30
0.0
 11
12.434852
 21
-4.76661
 31
0.0
  0
LINE
  8
0
  6
CONTINUOUS
 62
     7
  5
CA8
 10
12.434852
 20
-4.76661
 30
0.0
 11
12.509004
 21
-4.821125
 31
0.0
  0
LINE
  8
0
  6
CONTINUOUS
 62
     7
  5
CA9
 10
12.509004
 20
-4.821125
 30
0.0
 11
12.590726
 21
-4.863456
 31
0.0
  0
LINE
  8
0
  6
CONTINUOUS
 62
     7
  5
CAA
 10
12.590726
 20
-4.863456
 30
0.0
 11
12.678033
 21
-4.892576
 31
0.0
  0
LINE
  8
0
  6
CONTINUOUS
 62
     7
  5
CAB
 10
12.678033
 20
-4.892576
 30
0.0
 11
12.768804
 21
-4.907778
 31
0.0
  0
LINE
  8
0
  6
CONTINUOUS
 62
     7
  5
CAC
 10
12.768804
 20
-4.907778
 30
0.0
 11
12.860835
 21
-4.908691
 31
0.0
  0
LINE
  8
0
  6
CONTINUOUS
 62
     7
  5
CAD
 10
12.860835
 20
-4.908691
 30
0.0
 11
12.95189
 21
-4.895295
 31
0.0
  0
LINE
  8
0
  6
CONTINUOUS
 62
     7
  5
CAE
 10
12.95189
 20
-4.895295
 30
0.0
 11
13.039757
 21
-4.867913
 31
0.0
  0
LINE
  8
0
  6
CONTINUOUS
 62
     7
  5
CAF
 10
13.039757
 20
-4.867913
 30
0.0
 11
13.122304
 21
-4.827213
 31
0.0
  0
LINE
  8
0
  6
CONTINUOUS
 62
     7
  5
CB0
 10
13.122304
 20
-4.827213
 30
0.0
 11
13.197524
 21
-4.77418
 31
0.0
  0
LINE
  8
0
  6
CONTINUOUS
 62
     7
  5
CB1
 10
13.197524
 20
-4.77418
 30
0.0
 11
13.263591
 21
-4.710105
 31
0.0
  0
LINE
  8
0
  6
CONTINUOUS
 62
     7
  5
CB2
 10
13.263591
 20
-4.710105
 30
0.0
 11
13.3189
 21
-4.636543
 31
0.0
  0
LINE
  8
0
  6
CONTINUOUS
 62
     7
  5
CB3
 10
13.3189
 20
-4.636543
 30
0.0
 11
13.362108
 21
-4.555281
 31
0.0
  0
LINE
  8
0
  6
CONTINUOUS
 62
     7
  5
CB4
 10
13.362108
 20
-4.555281
 30
0.0
 11
13.392165
 21
-4.468292
 31
0.0
  0
LINE
  8
0
  6
CONTINUOUS
 62
     7
  5
CB5
 10
13.392165
 20
-4.468292
 30
0.0
 11
13.408342
 21
-4.37769
 31
0.0
  0
LINE
  8
0
  6
CONTINUOUS
 62
     7
  5
CB6
 10
13.408342
 20
-4.37769
 30
0.0
 11
13.410245
 21
-4.285674
 31
0.0
  0
LINE
  8
0
  6
CONTINUOUS
 62
     7
  5
CB7
 10
13.410245
 20
-4.285674
 30
0.0
 11
13.397828
 21
-4.194481
 31
0.0
  0
LINE
  8
0
  6
CONTINUOUS
 62
     7
  5
CB8
 10
13.397828
 20
-4.194481
 30
0.0
 11
13.371393
 21
-4.106324
 31
0.0
  0
LINE
  8
0
  6
CONTINUOUS
 62
     7
  5
CB9
 10
13.371393
 20
-4.106324
 30
0.0
 11
13.331582
 21
-4.023344
 31
0.0
  0
LINE
  8
0
  6
CONTINUOUS
 62
     7
  5
CBA
 10
13.331582
 20
-4.023344
 30
0.0
 11
13.279362
 21
-3.947558
 31
0.0
  0
LINE
  8
0
  6
CONTINUOUS
 62
     7
  5
CBB
 10
13.279362
 20
-3.947558
 30
0.0
 11
13.216001
 21
-3.880806
 31
0.0
  0
LINE
  8
0
  6
CONTINUOUS
 62
     7
  5
CBC
 10
13.216001
 20
-3.880806
 30
0.0
 11
13.143038
 21
-3.82471
 31
0.0
  0
LINE
  8
0
  6
CONTINUOUS
 62
     7
  5
CBD
 10
13.143038
 20
-3.82471
 30
0.0
 11
13.062245
 21
-3.78063
 31
0.0
  0
LINE
  8
0
  6
CONTINUOUS
 62
     7
  5
CBE
 10
13.062245
 20
-3.78063
 30
0.0
 11
12.975584
 21
-3.749639
 31
0.0
  0
LINE
  8
0
  6
CONTINUOUS
 62
     7
  5
CBF
 10
12.975584
 20
-3.749639
 30
0.0
 11
12.885161
 21
-3.73249
 31
0.0
  0
LINE
  8
0
  6
CONTINUOUS
 62
     7
  5
CC0
 10
12.885161
 20
-3.73249
 30
0.0
 11
12.793171
 21
-3.729597
 31
0.0
  0
LINE
  8
0
  6
CONTINUOUS
 62
     7
  5
CC1
 10
12.793171
 20
-3.729597
 30
0.0
 11
12.70185
 21
-3.741033
 31
0.0
  0
LINE
  8
0
  6
CONTINUOUS
 62
     7
  5
CC2
 10
12.70185
 20
-3.741033
 30
0.0
 11
12.613413
 21
-3.766518
 31
0.0
  0
LINE
  8
0
  6
CONTINUOUS
 62
     7
  5
CC3
 10
12.613413
 20
-3.766518
 30
0.0
 11
12.530011
 21
-3.805434
 31
0.0
  0
LINE
  8
0
  6
CONTINUOUS
 62
     7
  5
CC4
 10
12.530011
 20
-3.805434
 30
0.0
 11
12.453668
 21
-3.856837
 31
0.0
  0
LINE
  8
0
  6
CONTINUOUS
 62
     3
  5
CC5
 10
0.0
 20
-1.53937
 30
0.0
 11
0.838583
 21
-1.53937
 31
0.0
  0
LINE
  8
0
  6
CONTINUOUS
 62
     3
  5
CC6
 10
0.0
 20
4.366142
 30
0.0
 11
0.838583
 21
4.366142
 31
0.0
  0
LINE
  8
0
  6
CONTINUOUS
 62
     3
  5
CC7
 10
0.720472
 20
-6.088583
 30
0.0
 11
1.350472
 21
-6.088583
 31
0.0
  0
LINE
  8
0
  6
CONTINUOUS
 62
     3
  5
CC8
 10
0.720472
 20
-4.336614
 30
0.0
 11
1.350472
 21
-4.336614
 31
0.0
  0
LINE
  8
0
  6
CONTINUOUS
 62
     3
  5
CC9
 10
0.720472
 20
8.915354
 30
0.0
 11
1.350472
 21
8.915354
 31
0.0
  0
LINE
  8
0
  6
CONTINUOUS
 62
     3
  5
CCA
 10
0.720472
 20
7.163386
 30
0.0
 11
1.350472
 21
7.163386
 31
0.0
  0
ENDSEC
  0
EOF
