999
DXF file: C:\Users\sesa63760\Dev\_Creo\CAD\MCADID0000921_3D-CAD\drw0001_6.dxf
999
Pro/ENGINEER 2019471 by Parametric Technology Corporation
  0
SECTION
  2
HEADER
  9
$ACADVER
  1
AC1024
  9
$DWGCODEPAGE
  3
ANSI_1252
  9
$EXTMAX
 10
360.2553653458
 20
509.5040167033
 30
0.0
  9
$EXTMIN
 10
0.0
 20
0.0
 30
0.0
  9
$LIMMIN
 10
0.0
 20
0.0
  9
$LIMMAX
 10
360.2553653458
 20
509.5040167033
  9
$VIEWCTR
 10
180.1276826729
 20
254.7520083516
  9
$VIEWSIZE
 40
509.5040167033
  9
$CLAYER
  8
0
  9
$LTSCALE
 40
33.2121136814
  9
$CELTYPE
  6
BYLAYER
  9
$DIMSCALE
 40
1.0
  9
$DIMASZ
 40
4.2887543494
  9
$DIMEXO
 40
1.0
  9
$DIMDLI
 40
22.9465512708
  9
$DIMEXE
 40
1.0
  9
$DIMCEN
 40
5.4347095115
  9
$DIMLFAC
 40
1.0
  9
$DIMBLK
  1
_FILLED
  9
$DIMALT
 70
0
  9
$DIMALTF
 40
0.0393700787
  9
$DIMTXT
 40
6.0042560891
  9
$DIMTOL
 70
1
  9
$DIMLIM
 70
0
  9
$DIMTFAC
 40
1.0
  9
$DIMTP
 40
0.01
  9
$DIMTM
 40
0.01
  9
$DIMGAP
 40
0.625
  9
$DIMDSEP
 70
46
  9
$AUNITS
 70
0
  9
$PDMODE
 70
3
  9
$PDSIZE
 40
0.3125
  9
$HANDSEED
  5
3CB
  9
$TILEMODE
 70
1
  9
$MEASUREMENT
 70
1
  9
$INSUNITS
 70
4
  0
ENDSEC
  0
SECTION
  2
CLASSES
  0
CLASS
  1
ACDBDICTIONARYWDFLT
  2
AcDbDictionaryWithDefault
  3
AutoCAD 2000
 90
0
 91
1
280
0
281
0
  0
CLASS
  1
ACDBPLACEHOLDER
  2
AcDbPlaceHolder
  3
AutoCAD 2000
 90
0
 91
1
280
0
281
0
  0
CLASS
  1
LAYOUT
  2
AcDbLayout
  3
AutoCAD 2000
 90
0
 91
0
280
0
281
0
  0
ENDSEC
  0
SECTION
  2
TABLES
  0
TABLE
  2
VPORT
  5
8
100
AcDbSymbolTable
 70
2
  0
VPORT
  5
1F4
100
AcDbSymbolTableRecord
100
AcDbViewportTableRecord
  2
*ACTIVE
 70
0
 10
0.0
 20
0.0
 11
1.0
 21
1.0
 12
180.1276826729
 22
254.7520083516
 13
0.0
 23
0.0
 14
1.0
 24
1.0
 15
0.0
 25
0.0
 16
0.0
 26
0.0
 36
1.0
 17
0.0
 27
0.0
 37
0.0
 40
509.5040167033
 41
0.7070707071
 42
50.0
 43
0.0
 44
0.0
 50
0.0
 51
0.0
 71
0
 72
100
 73
1
 74
1
 75
0
 76
0
 77
0
 78
0
  0
ENDTAB
  0
TABLE
  2
LTYPE
  5
5
100
AcDbSymbolTable
 70
6
  0
LTYPE
  5
14
100
AcDbSymbolTableRecord
100
AcDbLinetypeTableRecord
  2
BYBLOCK
 70
0
  3

 72
65
 73
0
 40
0.0
  0
LTYPE
  5
15
100
AcDbSymbolTableRecord
100
AcDbLinetypeTableRecord
  2
BYLAYER
 70
0
  3

 72
65
 73
0
 40
0.0
  0
LTYPE
  5
16
100
AcDbSymbolTableRecord
100
AcDbLinetypeTableRecord
  2
CONTINUOUS
 70
64
  3
Solid line
 72
65
 73
0
 40
0.0
  0
LTYPE
  5
1F5
100
AcDbSymbolTableRecord
100
AcDbLinetypeTableRecord
  2
CENTER
 70
64
  3
____ _ ____ _ ____ _ ____ _ ____ _ ____ _ ____
 72
65
 73
4
 40
0.6
 49
0.375
 74
0
 49
-0.075
 74
0
 49
0.075
 74
0
 49
-0.075
 74
0
  0
LTYPE
  5
1F6
100
AcDbSymbolTableRecord
100
AcDbLinetypeTableRecord
  2
HIDDEN
 70
64
  3
- - - - - - - - - - - - - - - - - - - -
 72
65
 73
2
 40
0.2
 49
0.1
 74
0
 49
-0.1
 74
0
  0
LTYPE
  5
1F7
100
AcDbSymbolTableRecord
100
AcDbLinetypeTableRecord
  2
PHANTOM
 70
64
  3
_____ _ _ _____ _ _ _____ _ _ _____
 72
65
 73
6
 40
0.8
 49
0.45
 74
0
 49
-0.05
 74
0
 49
0.1
 74
0
 49
-0.05
 74
0
 49
0.1
 74
0
 49
-0.05
 74
0
  0
LTYPE
  5
1F8
100
AcDbSymbolTableRecord
100
AcDbLinetypeTableRecord
  2
DOT
 70
64
  3
. . . . . . . . . . . . . . . . . . . .
 72
65
 73
2
 40
0.2
 49
0.1
 74
0
 49
-0.1
 74
0
  0
LTYPE
  5
1F9
100
AcDbSymbolTableRecord
100
AcDbLinetypeTableRecord
  2
DASHED
 70
64
  3
- - - - - - - - - - - - - - - - - - - -
 72
65
 73
2
 40
0.2
 49
0.1
 74
0
 49
-0.1
 74
0
  0
ENDTAB
  0
TABLE
  2
LAYER
  5
2
100
AcDbSymbolTable
 70
36
  0
LAYER
  5
10
100
AcDbSymbolTableRecord
100
AcDbLayerTableRecord
  2
0
 70
0
 62
7
  6
CONTINUOUS
370
-3
390
F
  0
LAYER
  5
1FA
100
AcDbSymbolTableRecord
100
AcDbLayerTableRecord
  2
DEFAULT_1
 70
0
 62
7
  6
CENTER
370
-3
390
F
  0
LAYER
  5
1FB
100
AcDbSymbolTableRecord
100
AcDbLayerTableRecord
  2
DEFAULT_2
 70
0
 62
8
  6
HIDDEN
370
-3
390
F
  0
LAYER
  5
1FC
100
AcDbSymbolTableRecord
100
AcDbLayerTableRecord
  2
DEFAULT_3
 70
0
 62
7
  6
PHANTOM
370
-3
390
F
  0
LAYER
  5
1FD
100
AcDbSymbolTableRecord
100
AcDbLayerTableRecord
  2
00_COMPONENTS
 70
0
 62
7
  6
CONTINUOUS
370
-3
390
F
  0
LAYER
  5
1FE
100
AcDbSymbolTableRecord
100
AcDbLayerTableRecord
  2
01_1_DEFAULT_DATUMS
 70
0
 62
7
  6
CONTINUOUS
370
-3
390
F
  0
LAYER
  5
1FF
100
AcDbSymbolTableRecord
100
AcDbLayerTableRecord
  2
01_PLANES
 70
0
 62
7
  6
CONTINUOUS
370
-3
390
F
  0
LAYER
  5
200
100
AcDbSymbolTableRecord
100
AcDbLayerTableRecord
  2
02_COORD_SYS
 70
0
 62
7
  6
CONTINUOUS
370
-3
390
F
  0
LAYER
  5
201
100
AcDbSymbolTableRecord
100
AcDbLayerTableRecord
  2
03_AXES
 70
0
 62
7
  6
CONTINUOUS
370
-3
390
F
  0
LAYER
  5
202
100
AcDbSymbolTableRecord
100
AcDbLayerTableRecord
  2
04_POINTS
 70
0
 62
7
  6
CONTINUOUS
370
-3
390
F
  0
LAYER
  5
203
100
AcDbSymbolTableRecord
100
AcDbLayerTableRecord
  2
05_CURVES
 70
0
 62
7
  6
CONTINUOUS
370
-3
390
F
  0
LAYER
  5
204
100
AcDbSymbolTableRecord
100
AcDbLayerTableRecord
  2
06_SURFS
 70
0
 62
7
  6
CONTINUOUS
370
-3
390
F
  0
LAYER
  5
205
100
AcDbSymbolTableRecord
100
AcDbLayerTableRecord
  2
07_COSMETICS
 70
0
 62
7
  6
CONTINUOUS
370
-3
390
F
  0
LAYER
  5
206
100
AcDbSymbolTableRecord
100
AcDbLayerTableRecord
  2
10_NOTES
 70
0
 62
7
  6
CONTINUOUS
370
-3
390
F
  0
LAYER
  5
207
100
AcDbSymbolTableRecord
100
AcDbLayerTableRecord
  2
11_NOTES_PUB
 70
0
 62
7
  6
CONTINUOUS
370
-3
390
F
  0
LAYER
  5
208
100
AcDbSymbolTableRecord
100
AcDbLayerTableRecord
  2
13_REF_GTOL
 70
0
 62
7
  6
CONTINUOUS
370
-3
390
F
  0
LAYER
  5
209
100
AcDbSymbolTableRecord
100
AcDbLayerTableRecord
  2
16_MISC
 70
0
 62
7
  6
CONTINUOUS
370
-3
390
F
  0
LAYER
  5
20A
100
AcDbSymbolTableRecord
100
AcDbLayerTableRecord
  2
17_NO_PRINT
 70
0
 62
7
  6
CONTINUOUS
370
-3
390
F
  0
LAYER
  5
20B
100
AcDbSymbolTableRecord
100
AcDbLayerTableRecord
  2
18_DATUM_CAMS_JOINTS
 70
0
 62
7
  6
CONTINUOUS
370
-3
390
F
  0
LAYER
  5
20C
100
AcDbSymbolTableRecord
100
AcDbLayerTableRecord
  2
19_DATUM_FUNCTIONAL
 70
0
 62
7
  6
CONTINUOUS
370
-3
390
F
  0
LAYER
  5
20D
100
AcDbSymbolTableRecord
100
AcDbLayerTableRecord
  2
20_DATUM_KINEMATIC_SCHEME
 70
0
 62
7
  6
CONTINUOUS
370
-3
390
F
  0
ENDTAB
  0
TABLE
  2
STYLE
  5
3
100
AcDbSymbolTable
 70
1
  0
STYLE
  5
11
100
AcDbSymbolTableRecord
100
AcDbTextStyleTableRecord
  2
STANDARD
 70
0
 40
0.0
 41
0.8
 50
0.0
 71
0
 42
0.2
  3
txt
  4

  0
STYLE
  5
20E
100
AcDbSymbolTableRecord
100
AcDbTextStyleTableRecord
  2
TEXTSTYLE_1
 70
0
 40
0.0
 41
0.8
 50
0.0
 71
0
 42
0.2
  3
gdt
  4

  0
ENDTAB
  0
TABLE
  2
VIEW
  5
6
100
AcDbSymbolTable
 70
0
  0
ENDTAB
  0
TABLE
  2
UCS
  5
7
100
AcDbSymbolTable
 70
0
  0
ENDTAB
  0
TABLE
  2
APPID
  5
9
100
AcDbSymbolTable
 70
1
  0
APPID
  5
20F
100
AcDbSymbolTableRecord
100
AcDbRegAppTableRecord
  2
ACAD
 70
0
  0
ENDTAB
  0
TABLE
  2
BLOCK_RECORD
  5
1
100
AcDbSymbolTable
 70
0
  0
BLOCK_RECORD
  5
210
100
AcDbSymbolTableRecord
100
AcDbBlockTableRecord
  2
*Model_Space
  0
BLOCK_RECORD
  5
211
100
AcDbSymbolTableRecord
100
AcDbBlockTableRecord
  2
*Paper_Space
  0
BLOCK_RECORD
  5
212
100
AcDbSymbolTableRecord
100
AcDbBlockTableRecord
  2
_FILLED
  0
ENDTAB
  0
TABLE
  2
DIMSTYLE
  5
A
100
AcDbSymbolTable
 70
1
100
AcDbDimStyleTable
 71
0
  0
DIMSTYLE
105
213
100
AcDbSymbolTableRecord
100
AcDbDimStyleTableRecord
  2
STANDARD
 70
0
  3

  4

 40
1.0
 41
4.2887543494
 42
1.0
 43
0.38
 44
1.0
 45
0.0
 46
0.0
 47
0.01
 48
0.01
140
6.0042560891
141
0.09
142
0.0
143
25.4
144
1.0
145
0.0
146
1.0
147
0.625
 71
1
 72
0
 73
0
 74
0
 75
0
 76
0
 77
1
 78
8
 79
2
170
0
171
1
172
0
173
0
174
0
175
0
176
0
177
0
178
0
270
2
179
2
271
2
272
2
273
2
274
2
275
0
280
0
281
0
282
0
283
1
284
8
285
0
286
0
287
3
288
0
340
11
278
46
341
212
342
212
343
212
344
212
  0
ENDTAB
  0
ENDSEC
  0
SECTION
  2
BLOCKS
  0
BLOCK
  5
20
100
AcDbEntity
  8
0
100
AcDbBlockBegin
  2
*Model_Space
 70
0
 10
0.0
 20
0.0
 30
0.0
  3
*Model_Space
  1

  0
ENDBLK
  5
21
100
AcDbEntity
  8
0
100
AcDbBlockEnd
  0
BLOCK
  5
1C
100
AcDbEntity
  8
0
100
AcDbBlockBegin
  2
*Paper_Space
 70
0
 10
0.0
 20
0.0
 30
0.0
  3
*Paper_Space
  1

  0
ENDBLK
  5
1D
100
AcDbEntity
  8
0
100
AcDbBlockEnd
  0
BLOCK
  5
214
100
AcDbEntity
  8
0
100
AcDbBlockBegin
  2
_FILLED
 70
64
 10
0.0
 20
0.0
  3
_FILLED
  1

  0
SOLID
  5
215
100
AcDbEntity
  8
0
  6
BYBLOCK
 62
0
100
AcDbTrace
 10
0.0
 20
0.0
 11
-1.0
 21
0.25
 12
-1.0
 22
-0.25
 13
-1.0
 23
-0.25
  0
ENDBLK
  5
216
100
AcDbEntity
  8
0
  6
BYBLOCK
 62
0
100
AcDbBlockEnd
  0
ENDSEC
  0
SECTION
  2
ENTITIES
  0
LINE
  5
217
100
AcDbEntity
  8
0
100
AcDbLine
 62
7
  6
CONTINUOUS
 10
126.9964367231
 20
43.6637428561
 11
130.9763563723
 21
43.6637373033
  0
LINE
  5
218
100
AcDbEntity
  8
0
100
AcDbLine
 62
7
  6
CONTINUOUS
 10
129.6976153517
 20
45.1637384519
 11
127.2035641661
 21
45.1637373033
  0
LINE
  5
219
100
AcDbEntity
  8
0
100
AcDbLine
 62
7
  6
CONTINUOUS
 10
124.4409879276
 20
43.3351517056
 11
124.738051702
 21
43.2531894522
  0
LINE
  5
21A
100
AcDbEntity
  8
0
100
AcDbLine
 62
7
  6
CONTINUOUS
 10
174.0869550347
 20
51.6719406558
 11
174.3840188091
 21
51.5899784024
  0
LINE
  5
21B
100
AcDbEntity
  8
0
100
AcDbLine
 62
7
  6
CONTINUOUS
 10
143.1898002511
 20
78.9091372052
 11
153.9788573432
 21
78.9091320522
  0
LINE
  5
21C
100
AcDbEntity
  8
0
100
AcDbLine
 62
7
  6
CONTINUOUS
 10
178.5077951227
 20
63.4838923897
 11
179.9019916901
 21
63.1103210559
  0
LINE
  5
21D
100
AcDbEntity
  8
0
100
AcDbLine
 62
7
  6
CONTINUOUS
 10
167.5476400143
 20
73.7369407169
 11
168.9418365817
 21
73.3633693831
  0
LINE
  5
21E
100
AcDbEntity
  8
0
100
AcDbLine
 62
7
  6
CONTINUOUS
 10
167.9011934049
 20
74.0904941075
 11
169.2953899723
 21
73.7169227737
  0
LINE
  5
21F
100
AcDbEntity
  8
0
100
AcDbLine
 62
7
  6
CONTINUOUS
 10
120.1947539325
 20
87.0861140051
 11
142.1670227523
 21
79.0990916052
  0
LINE
  5
220
100
AcDbEntity
  8
0
100
AcDbLine
 62
7
  6
CONTINUOUS
 10
124.440974324
 20
43.3351653093
 11
124.4011903334
 21
43.3749492998
  0
LINE
  5
221
100
AcDbEntity
  8
0
100
AcDbLine
 62
7
  6
CONTINUOUS
 10
119.9181014642
 20
47.858038169
 11
119.8783174736
 21
47.8978221596
  0
LINE
  5
222
100
AcDbEntity
  8
0
100
AcDbLine
 62
7
  6
CONTINUOUS
 10
124.738051702
 20
43.2531894522
 11
119.7963416166
 21
48.1948995376
  0
LINE
  5
223
100
AcDbEntity
  8
0
100
AcDbLine
 62
7
  6
CONTINUOUS
 10
125.6882720333
 20
43.4882657722
 11
120.0314179366
 21
49.145119869
  0
LINE
  5
224
100
AcDbEntity
  8
0
100
AcDbLine
 62
7
  6
CONTINUOUS
 10
118.9776676976
 20
50.9339390431
 11
127.4629490718
 21
42.4486576688
  0
LINE
  5
225
100
AcDbEntity
  8
0
100
AcDbLine
 62
7
  6
CONTINUOUS
 10
120.6324904437
 20
49.4063821593
 11
125.9357972132
 21
44.1030771315
  0
LINE
  5
226
100
AcDbEntity
  8
0
100
AcDbLine
 62
7
  6
CONTINUOUS
 10
126.850014853
 20
45.3101870575
 11
121.8396037097
 21
50.3205982009
  0
LINE
  5
227
100
AcDbEntity
  8
0
100
AcDbLine
 62
7
  6
CONTINUOUS
 10
132.7664644654
 20
42.0948894222
 11
118.6243311698
 21
56.2370227178
  0
LINE
  5
228
100
AcDbEntity
  8
0
100
AcDbLine
 62
7
  6
CONTINUOUS
 10
121.0227834361
 20
58.0670693244
 11
121.2364684546
 21
57.8533843059
  0
LINE
  5
229
100
AcDbEntity
  8
0
100
AcDbLine
 62
7
  6
CONTINUOUS
 10
121.2435350403
 20
57.8604508917
 11
134.8877804876
 21
44.2162054445
  0
LINE
  5
22A
100
AcDbEntity
  8
0
100
AcDbLine
 62
7
  6
CONTINUOUS
 10
281.0708230848
 20
97.4091316023
 11
299.07082231
 21
97.4091316023
  0
LINE
  5
22B
100
AcDbEntity
  8
0
100
AcDbLine
 62
7
  6
CONTINUOUS
 10
154.92082231
 20
105.4091331521
 11
153.42082231
 21
105.4091331521
  0
LINE
  5
22C
100
AcDbEntity
  8
0
100
AcDbLine
 62
7
  6
CONTINUOUS
 10
153.42082231
 20
106.9091331521
 11
153.17082231
 21
106.9091331521
  0
LINE
  5
22D
100
AcDbEntity
  8
0
100
AcDbLine
 62
7
  6
CONTINUOUS
 10
152.70082231
 20
107.4091369668
 11
164.6708271022
 21
107.4091369668
  0
LINE
  5
22E
100
AcDbEntity
  8
0
100
AcDbLine
 62
7
  6
CONTINUOUS
 10
166.5093852063
 20
57.1423362593
 11
174.9946665806
 21
48.657054885
  0
LINE
  5
22F
100
AcDbEntity
  8
0
100
AcDbLine
 62
7
  6
CONTINUOUS
 10
167.2672602929
 20
57.9002113458
 11
169.9347900055
 21
55.2326816332
  0
LINE
  5
230
100
AcDbEntity
  8
0
100
AcDbLine
 62
7
  6
CONTINUOUS
 10
173.0850119545
 20
52.0824596842
 11
175.7525416671
 21
49.4149299716
  0
LINE
  5
231
100
AcDbEntity
  8
0
100
AcDbLine
 62
7
  6
CONTINUOUS
 10
174.0869414311
 20
51.6719542594
 11
174.0471574405
 21
51.71173825
  0
LINE
  5
232
100
AcDbEntity
  8
0
100
AcDbLine
 62
7
  6
CONTINUOUS
 10
169.5640685713
 20
56.1948271192
 11
169.5242845807
 21
56.2346111098
  0
LINE
  5
233
100
AcDbEntity
  8
0
100
AcDbLine
 62
7
  6
CONTINUOUS
 10
174.3840188091
 20
51.5899784024
 11
169.4423087237
 21
56.5316884878
  0
LINE
  5
234
100
AcDbEntity
  8
0
100
AcDbLine
 62
7
  6
CONTINUOUS
 10
175.3342391405
 20
51.8250547224
 11
169.6773850437
 21
57.4819088192
  0
LINE
  5
235
100
AcDbEntity
  8
0
100
AcDbLine
 62
7
  6
CONTINUOUS
 10
177.3206566446
 20
50.9830449491
 11
175.9064430059
 21
52.3972585878
  0
LINE
  5
236
100
AcDbEntity
  8
0
100
AcDbLine
 62
7
  6
CONTINUOUS
 10
170.2495889091
 20
58.0541126846
 11
168.8353752704
 21
59.4683263233
  0
LINE
  5
237
100
AcDbEntity
  8
0
100
AcDbLine
 62
7
  6
CONTINUOUS
 10
167.4322894964
 20
61.1691634637
 11
157.5327924624
 21
71.0686604976
  0
LINE
  5
238
100
AcDbEntity
  8
0
100
AcDbLine
 62
7
  6
CONTINUOUS
 10
170.5328205055
 20
58.3373440438
 11
176.1896743651
 21
52.6804901842
  0
LINE
  5
239
100
AcDbEntity
  8
0
100
AcDbLine
 62
7
  6
CONTINUOUS
 10
169.1991115535
 20
59.8320626065
 11
171.1202827512
 21
57.9108914087
  0
LINE
  5
23A
100
AcDbEntity
  8
0
100
AcDbLine
 62
7
  6
CONTINUOUS
 10
175.76322173
 20
53.2679524299
 11
177.6843929278
 21
51.3467812322
  0
LINE
  5
23B
100
AcDbEntity
  8
0
100
AcDbLine
 62
7
  6
CONTINUOUS
 10
176.7553634223
 20
53.2461792413
 11
171.0985095626
 21
58.903033101
  0
LINE
  5
23C
100
AcDbEntity
  8
0
100
AcDbLine
 62
7
  6
CONTINUOUS
 10
178.7890198542
 20
52.4514081587
 11
177.3748060969
 21
53.865621916
  0
LINE
  5
23D
100
AcDbEntity
  8
0
100
AcDbLine
 62
7
  6
CONTINUOUS
 10
171.7179522373
 20
59.5224757756
 11
170.30373848
 21
60.9366895329
  0
LINE
  5
23E
100
AcDbEntity
  8
0
100
AcDbLine
 62
7
  6
CONTINUOUS
 10
170.3984724904
 20
61.0314235433
 11
178.8837538646
 21
52.5461421691
  0
LINE
  5
23F
100
AcDbEntity
  8
0
100
AcDbLine
 62
7
  6
CONTINUOUS
 10
154.1765461941
 20
78.6675504799
 11
181.7121745035
 21
51.1319221705
  0
LINE
  5
240
100
AcDbEntity
  8
0
100
AcDbLine
 62
7
  6
CONTINUOUS
 10
182.7657651457
 20
52.1855202136
 11
155.5421557578
 21
79.4091370521
  0
LINE
  5
241
100
AcDbEntity
  8
0
100
AcDbLine
 62
7
  6
CONTINUOUS
 10
187.1309095946
 20
457.4091316023
 11
187.5309095946
 21
457.8091316023
  0
LINE
  5
242
100
AcDbEntity
  8
0
100
AcDbLine
 62
7
  6
CONTINUOUS
 10
180.4582768098
 20
447.1591317599
 11
180.8371518098
 21
447.5380067599
  0
LINE
  5
243
100
AcDbEntity
  8
0
100
AcDbLine
 62
7
  6
CONTINUOUS
 10
226.2469970548
 20
117.4041332415
 11
233.953776073
 21
117.4091348806
  0
LINE
  5
244
100
AcDbEntity
  8
0
100
AcDbLine
 62
7
  6
CONTINUOUS
 10
152.70082231
 20
112.4091316023
 11
128.5708269591
 21
112.4091316023
  0
LINE
  5
245
100
AcDbEntity
  8
0
100
AcDbLine
 62
7
  6
CONTINUOUS
 10
150.8019764097
 20
112.7584957748
 11
128.6619764097
 21
112.7584957748
  0
LINE
  5
246
100
AcDbEntity
  8
0
100
AcDbLine
 62
7
  6
CONTINUOUS
 10
220.5425714571
 20
113.4091342249
 11
225.542569768
 21
113.4091342249
  0
LINE
  5
247
100
AcDbEntity
  8
0
100
AcDbLine
 62
7
  6
CONTINUOUS
 10
220.6211856122
 20
114.9091372648
 11
224.283920836
 21
114.9091372648
  0
LINE
  5
248
100
AcDbEntity
  8
0
100
AcDbLine
 62
7
  6
CONTINUOUS
 10
238.665487725
 20
115.4091316023
 11
235.54462231
 21
115.4091316023
  0
LINE
  5
249
100
AcDbEntity
  8
0
100
AcDbLine
 62
7
  6
CONTINUOUS
 10
226.2478789802
 20
117.3991316023
 11
224.7247418876
 21
117.3991316023
  0
LINE
  5
24A
100
AcDbEntity
  8
0
100
AcDbLine
 62
7
  6
CONTINUOUS
 10
174.670825016
 20
117.3991316023
 11
174.4625058475
 21
117.3991316023
  0
LINE
  5
24B
100
AcDbEntity
  8
0
100
AcDbLine
 62
7
  6
CONTINUOUS
 10
174.6658233769
 20
117.4041332415
 11
224.7238599556
 21
117.4041332415
  0
LINE
  5
24C
100
AcDbEntity
  8
0
100
AcDbLine
 62
7
  6
CONTINUOUS
 10
164.3102927719
 20
72.0552283847
 11
168.6943552704
 21
67.6711658862
  0
LINE
  5
24D
100
AcDbEntity
  8
0
100
AcDbLine
 62
7
  6
CONTINUOUS
 10
164.6638461625
 20
72.4087817753
 11
165.4416636176
 21
71.6309643202
  0
LINE
  5
24E
100
AcDbEntity
  8
0
100
AcDbLine
 62
7
  6
CONTINUOUS
 10
168.2700912059
 20
68.8025367319
 11
169.047908661
 21
68.0247192768
  0
LINE
  5
24F
100
AcDbEntity
  8
0
100
AcDbLine
 62
7
  6
CONTINUOUS
 10
175.2704478803
 20
61.8021800575
 11
179.6545103788
 21
57.418117559
  0
LINE
  5
250
100
AcDbEntity
  8
0
100
AcDbLine
 62
7
  6
CONTINUOUS
 10
164.4813575863
 20
74.9132985125
 11
166.6026776981
 21
72.7919784007
  0
LINE
  5
251
100
AcDbEntity
  8
0
100
AcDbLine
 62
7
  6
CONTINUOUS
 10
169.4311052864
 20
69.9635508124
 11
171.5524253982
 21
67.8422307006
  0
LINE
  5
252
100
AcDbEntity
  8
0
100
AcDbLine
 62
7
  6
CONTINUOUS
 10
174.3808525229
 20
65.0138035759
 11
177.2092794159
 21
62.1853766829
  0
LINE
  5
253
100
AcDbEntity
  8
0
100
AcDbLine
 62
7
  6
CONTINUOUS
 10
180.0377070042
 20
59.3569490946
 11
182.8661338972
 21
56.5285222016
  0
LINE
  5
254
100
AcDbEntity
  8
0
100
AcDbLine
 62
7
  6
CONTINUOUS
 10
165.4118806102
 20
75.8438215364
 11
167.5332007219
 21
73.7225014246
  0
LINE
  5
255
100
AcDbEntity
  8
0
100
AcDbLine
 62
7
  6
CONTINUOUS
 10
170.3616283103
 20
70.8940738362
 11
172.4829484221
 21
68.7727537245
  0
LINE
  5
256
100
AcDbEntity
  8
0
100
AcDbLine
 62
7
  6
CONTINUOUS
 10
175.3113755088
 20
65.9443265617
 11
178.1398024017
 21
63.1158996688
  0
LINE
  5
257
100
AcDbEntity
  8
0
100
AcDbLine
 62
7
  6
CONTINUOUS
 10
180.9682299901
 20
60.2874720804
 11
183.796656883
 21
57.4590451875
  0
LINE
  5
258
100
AcDbEntity
  8
0
100
AcDbLine
 62
7
  6
CONTINUOUS
 10
167.5476400143
 20
73.7369407169
 11
170.3760676026
 21
70.9085131286
  0
LINE
  5
259
100
AcDbEntity
  8
0
100
AcDbLine
 62
7
  6
CONTINUOUS
 10
167.9011934049
 20
74.0904941075
 11
168.5135634646
 21
73.4781240478
  0
LINE
  5
25A
100
AcDbEntity
  8
0
100
AcDbLine
 62
7
  6
CONTINUOUS
 10
170.1172509335
 20
71.8744365789
 11
170.7296209932
 21
71.2620665192
  0
LINE
  5
25B
100
AcDbEntity
  8
0
100
AcDbLine
 62
7
  6
CONTINUOUS
 10
178.5077951227
 20
63.4838923897
 11
181.336222711
 21
60.6554648014
  0
LINE
  5
25C
100
AcDbEntity
  8
0
100
AcDbLine
 62
7
  6
CONTINUOUS
 10
168.9418365817
 20
73.3633693831
 11
170.0024962688
 21
72.302709696
  0
LINE
  5
25D
100
AcDbEntity
  8
0
100
AcDbLine
 62
7
  6
CONTINUOUS
 10
169.2953899723
 20
73.7169227737
 11
170.3560496594
 21
72.6562630866
  0
LINE
  5
25E
100
AcDbEntity
  8
0
100
AcDbLine
 62
7
  6
CONTINUOUS
 10
179.9019916901
 20
63.1103210559
 11
180.9626513772
 21
62.0496613688
  0
LINE
  5
25F
100
AcDbEntity
  8
0
100
AcDbLine
 62
7
  6
CONTINUOUS
 10
176.1989293824
 20
66.8318804353
 11
184.6842107566
 21
58.3465990611
  0
LINE
  5
260
100
AcDbEntity
  8
0
100
AcDbLine
 62
7
  6
CONTINUOUS
 10
177.1294534195
 20
67.7624044724
 11
185.6147347937
 21
59.2771230982
  0
LINE
  5
261
100
AcDbEntity
  8
0
100
AcDbLine
 62
7
  6
CONTINUOUS
 10
67.42082231
 20
179.4691316023
 11
67.42082231
 21
179.9591316023
  0
LINE
  5
262
100
AcDbEntity
  8
0
100
AcDbLine
 62
7
  6
CONTINUOUS
 10
67.5992883236
 20
179.4691316023
 11
67.5992883236
 21
179.9591316023
  0
LINE
  5
263
100
AcDbEntity
  8
0
100
AcDbLine
 62
7
  6
CONTINUOUS
 10
67.720777432
 20
210.2221125257
 11
67.720777432
 21
179.9591316023
  0
LINE
  5
264
100
AcDbEntity
  8
0
100
AcDbLine
 62
7
  6
CONTINUOUS
 10
67.720777432
 20
179.4691316023
 11
67.720777432
 21
135.1453967973
  0
LINE
  5
265
100
AcDbEntity
  8
0
100
AcDbLine
 62
7
  6
CONTINUOUS
 10
67.8993002327
 20
179.9591316023
 11
67.8993002327
 21
179.4691316023
  0
LINE
  5
266
100
AcDbEntity
  8
0
100
AcDbLine
 62
7
  6
CONTINUOUS
 10
68.6260417142
 20
212.8396014882
 11
68.6260417142
 21
135.1826945451
  0
LINE
  5
267
100
AcDbEntity
  8
0
100
AcDbLine
 62
7
  6
CONTINUOUS
 10
69.4318218039
 20
214.725197825
 11
69.4318218039
 21
135.2158934497
  0
LINE
  5
268
100
AcDbEntity
  8
0
100
AcDbLine
 62
7
  6
CONTINUOUS
 10
70.3487424697
 20
135.2536714516
 11
70.3487424697
 21
216.7401674765
  0
LINE
  5
269
100
AcDbEntity
  8
0
100
AcDbLine
 62
7
  6
CONTINUOUS
 10
71.9707521507
 20
285.8025408835
 11
71.9707521507
 21
285.7191316023
  0
LINE
  5
26A
100
AcDbEntity
  8
0
100
AcDbLine
 62
7
  6
CONTINUOUS
 10
71.9707521507
 20
249.0491316023
 11
71.9707521507
 21
222.2122118258
  0
LINE
  5
26B
100
AcDbEntity
  8
0
100
AcDbLine
 62
7
  6
CONTINUOUS
 10
72.07082231
 20
265.3104504791
 11
72.07082231
 21
277.5078127255
  0
LINE
  5
26C
100
AcDbEntity
  8
0
100
AcDbLine
 62
7
  6
CONTINUOUS
 10
72.07082231
 20
277.5078127255
 11
72.6240441679
 21
282.6472884846
  0
LINE
  5
26D
100
AcDbEntity
  8
0
100
AcDbLine
 62
7
  6
CONTINUOUS
 10
70.3487424697
 20
135.2536714516
 11
73.1708279367
 21
135.3836382189
  0
LINE
  5
26E
100
AcDbEntity
  8
0
100
AcDbLine
 62
7
  6
CONTINUOUS
 10
67.720777432
 20
135.1453967973
 11
70.3487424697
 21
135.2536714516
  0
LINE
  5
26F
100
AcDbEntity
  8
0
100
AcDbLine
 62
7
  6
CONTINUOUS
 10
120.3208177562
 20
133.4091377416
 11
118.2208120103
 21
133.3829340497
  0
LINE
  5
270
100
AcDbEntity
  8
0
100
AcDbLine
 62
7
  6
CONTINUOUS
 10
120.3208177562
 20
133.4091377416
 11
127.6708266254
 21
133.4091375032
  0
LINE
  5
271
100
AcDbEntity
  8
0
100
AcDbLine
 62
7
  6
CONTINUOUS
 10
73.4365901466
 20
135.4091341057
 11
118.070828032
 21
135.4091341057
  0
LINE
  5
272
100
AcDbEntity
  8
0
100
AcDbLine
 62
7
  6
CONTINUOUS
 10
118.070828032
 20
133.892411963
 11
120.1440928769
 21
133.8562260762
  0
LINE
  5
273
100
AcDbEntity
  8
0
100
AcDbLine
 62
7
  6
CONTINUOUS
 10
119.87830387
 20
47.8978357632
 11
119.7963416166
 21
48.1948995376
  0
LINE
  5
274
100
AcDbEntity
  8
0
100
AcDbLine
 62
7
  6
CONTINUOUS
 10
72.07082231
 20
265.3104504791
 11
72.6240441679
 21
260.17097472
  0
LINE
  5
275
100
AcDbEntity
  8
0
100
AcDbLine
 62
7
  6
CONTINUOUS
 10
72.6240441679
 20
282.6472884846
 11
72.6240441679
 21
260.17097472
  0
LINE
  5
276
100
AcDbEntity
  8
0
100
AcDbLine
 62
7
  6
CONTINUOUS
 10
72.6480208163
 20
286.5885829834
 11
72.6480208163
 21
285.7191316023
  0
LINE
  5
277
100
AcDbEntity
  8
0
100
AcDbLine
 62
7
  6
CONTINUOUS
 10
72.6480208163
 20
249.0491316023
 11
72.6480208163
 21
222.2122118258
  0
LINE
  5
278
100
AcDbEntity
  8
0
100
AcDbLine
 62
7
  6
CONTINUOUS
 10
72.7708211656
 20
222.2122118258
 11
72.7708211656
 21
221.5281293178
  0
LINE
  5
279
100
AcDbEntity
  8
0
100
AcDbLine
 62
7
  6
CONTINUOUS
 10
72.8115901827
 20
259.9993431454
 11
72.8115901827
 21
282.8189200593
  0
LINE
  5
27A
100
AcDbEntity
  8
0
100
AcDbLine
 62
7
  6
CONTINUOUS
 10
73.82082231
 20
285.7191316023
 11
73.82082231
 21
249.0491316023
  0
LINE
  5
27B
100
AcDbEntity
  8
0
100
AcDbLine
 62
7
  6
CONTINUOUS
 10
73.8889910708
 20
287.2514079485
 11
73.8889910708
 21
221.4091316023
  0
LINE
  5
27C
100
AcDbEntity
  8
0
100
AcDbLine
 62
7
  6
CONTINUOUS
 10
74.4310866682
 20
221.4091316023
 11
74.4310866682
 21
287.5170365387
  0
LINE
  5
27D
100
AcDbEntity
  8
0
100
AcDbLine
 62
7
  6
CONTINUOUS
 10
79.18132231
 20
401.2645592068
 11
79.18132231
 21
427.6637039979
  0
LINE
  5
27E
100
AcDbEntity
  8
0
100
AcDbLine
 62
7
  6
CONTINUOUS
 10
79.273108933
 20
349.4091316023
 11
79.273108933
 21
350.0584875991
  0
LINE
  5
27F
100
AcDbEntity
  8
0
100
AcDbLine
 62
7
  6
CONTINUOUS
 10
79.7514521723
 20
349.4091316023
 11
79.7514521723
 21
289.8591371635
  0
LINE
  5
280
100
AcDbEntity
  8
0
100
AcDbLine
 62
7
  6
CONTINUOUS
 10
79.7514521723
 20
289.5104817538
 11
79.7514521723
 21
289.4091316023
  0
LINE
  5
281
100
AcDbEntity
  8
0
100
AcDbLine
 62
7
  6
CONTINUOUS
 10
80.5830114916
 20
348.4456906585
 11
80.5830114916
 21
289.4091316023
  0
LINE
  5
282
100
AcDbEntity
  8
0
100
AcDbLine
 62
7
  6
CONTINUOUS
 10
81.7035244895
 20
347.314047316
 11
81.7035244895
 21
289.4091316023
  0
LINE
  5
283
100
AcDbEntity
  8
0
100
AcDbLine
 62
7
  6
CONTINUOUS
 10
82.8645673458
 20
289.4091316023
 11
82.8645673458
 21
347.1091316023
  0
LINE
  5
284
100
AcDbEntity
  8
0
100
AcDbLine
 62
7
  6
CONTINUOUS
 10
122.83772231
 20
348.6091316023
 11
123.13772231
 21
349.1287468446
  0
LINE
  5
285
100
AcDbEntity
  8
0
100
AcDbLine
 62
7
  6
CONTINUOUS
 10
173.93772231
 20
390.6091316023
 11
173.53772231
 21
390.2091316023
  0
LINE
  5
286
100
AcDbEntity
  8
0
100
AcDbLine
 62
7
  6
CONTINUOUS
 10
73.1708279367
 20
135.3836382189
 11
73.4365901466
 21
135.4091341057
  0
LINE
  5
287
100
AcDbEntity
  8
0
100
AcDbLine
 62
7
  6
CONTINUOUS
 10
233.953776073
 20
117.4091348806
 11
281.0708230848
 21
97.4091316023
  0
LINE
  5
288
100
AcDbEntity
  8
0
100
AcDbLine
 62
7
  6
CONTINUOUS
 10
101.2534472206
 20
436.3245043912
 11
101.28772231
 21
429.6544366564
  0
LINE
  5
289
100
AcDbEntity
  8
0
100
AcDbLine
 62
7
  6
CONTINUOUS
 10
90.98132231
 20
428.1641320369
 11
90.98132231
 21
400.7641568711
  0
LINE
  5
28A
100
AcDbEntity
  8
0
100
AcDbLine
 62
7
  6
CONTINUOUS
 10
91.48132231
 20
400.2641311678
 11
91.48132231
 21
428.6641320369
  0
LINE
  5
28B
100
AcDbEntity
  8
0
100
AcDbLine
 62
7
  6
CONTINUOUS
 10
94.8822473511
 20
428.6641320369
 11
94.8822473511
 21
400.2641311678
  0
LINE
  5
28C
100
AcDbEntity
  8
0
100
AcDbLine
 62
7
  6
CONTINUOUS
 10
96.43772231
 20
428.8332197458
 11
96.43772231
 21
385.5641316023
  0
LINE
  5
28D
100
AcDbEntity
  8
0
100
AcDbLine
 62
7
  6
CONTINUOUS
 10
101.43772231
 20
384.7641316023
 11
101.43772231
 21
377.5071805708
  0
LINE
  5
28E
100
AcDbEntity
  8
0
100
AcDbLine
 62
7
  6
CONTINUOUS
 10
158.7689114261
 20
347.4091390529
 11
159.2196034355
 21
347.6693462059
  0
LINE
  5
28F
100
AcDbEntity
  8
0
100
AcDbLine
 62
7
  6
CONTINUOUS
 10
168.7808003718
 20
348.2875925714
 11
167.2592742457
 21
347.4091390529
  0
LINE
  5
290
100
AcDbEntity
  8
0
100
AcDbLine
 62
7
  6
CONTINUOUS
 10
169.7894795781
 20
347.4266150899
 11
169.5672833905
 21
347.2983300611
  0
LINE
  5
291
100
AcDbEntity
  8
0
100
AcDbLine
 62
7
  6
CONTINUOUS
 10
112.87082231
 20
347.1091316023
 11
112.87082231
 21
347.5018316023
  0
LINE
  5
292
100
AcDbEntity
  8
0
100
AcDbLine
 62
7
  6
CONTINUOUS
 10
118.070828032
 20
135.4091341057
 11
118.070828032
 21
133.892411963
  0
LINE
  5
293
100
AcDbEntity
  8
0
100
AcDbLine
 62
7
  6
CONTINUOUS
 10
118.2208120103
 20
133.3829340497
 11
118.2208120103
 21
89.9052109968
  0
LINE
  5
294
100
AcDbEntity
  8
0
100
AcDbLine
 62
7
  6
CONTINUOUS
 10
119.785639326
 20
347.5018316023
 11
119.785639326
 21
348.4091336289
  0
LINE
  5
295
100
AcDbEntity
  8
0
100
AcDbLine
 62
7
  6
CONTINUOUS
 10
119.98772231
 20
362.6091316023
 11
119.98772231
 21
348.6091316023
  0
LINE
  5
296
100
AcDbEntity
  8
0
100
AcDbLine
 62
7
  6
CONTINUOUS
 10
120.193156526
 20
54.4469371495
 11
120.1931595082
 21
50.4670286752
  0
LINE
  5
297
100
AcDbEntity
  8
0
100
AcDbLine
 62
7
  6
CONTINUOUS
 10
67.8993002327
 20
179.4691316023
 11
67.42082231
 21
179.4691316023
  0
LINE
  5
298
100
AcDbEntity
  8
0
100
AcDbLine
 62
7
  6
CONTINUOUS
 10
67.42082231
 20
179.9591316023
 11
67.8993002327
 21
179.9591316023
  0
LINE
  5
299
100
AcDbEntity
  8
0
100
AcDbLine
 62
7
  6
CONTINUOUS
 10
169.5242709771
 20
56.2346247134
 11
169.4423087237
 21
56.5316884878
  0
LINE
  5
29A
100
AcDbEntity
  8
0
100
AcDbLine
 62
7
  6
CONTINUOUS
 10
121.9292663853
 20
437.9641316023
 11
121.9349303064
 21
437.6396457768
  0
LINE
  5
29B
100
AcDbEntity
  8
0
100
AcDbLine
 62
7
  6
CONTINUOUS
 10
121.693156526
 20
50.6741382707
 11
121.693156526
 21
53.1681972775
  0
LINE
  5
29C
100
AcDbEntity
  8
0
100
AcDbLine
 62
7
  6
CONTINUOUS
 10
121.7457714645
 20
347.5018316023
 11
121.7457714645
 21
348.4091336289
  0
LINE
  5
29D
100
AcDbEntity
  8
0
100
AcDbLine
 62
7
  6
CONTINUOUS
 10
121.8557669002
 20
362.6091316023
 11
121.8557669002
 21
348.6091316023
  0
LINE
  5
29E
100
AcDbEntity
  8
0
100
AcDbLine
 62
7
  6
CONTINUOUS
 10
122.2105281355
 20
347.5018316023
 11
122.2105281355
 21
348.4091336289
  0
LINE
  5
29F
100
AcDbEntity
  8
0
100
AcDbLine
 62
7
  6
CONTINUOUS
 10
122.23772231
 20
450.9641316023
 11
122.23772231
 21
437.9641316023
  0
LINE
  5
2A0
100
AcDbEntity
  8
0
100
AcDbLine
 62
7
  6
CONTINUOUS
 10
122.23772231
 20
376.5326127523
 11
122.23772231
 21
363.5641316023
  0
LINE
  5
2A1
100
AcDbEntity
  8
0
100
AcDbLine
 62
7
  6
CONTINUOUS
 10
122.7424701576
 20
348.6091316023
 11
122.7424701576
 21
362.6091316023
  0
LINE
  5
2A2
100
AcDbEntity
  8
0
100
AcDbLine
 62
7
  6
CONTINUOUS
 10
122.7424701576
 20
362.820608794
 11
122.7424701576
 21
368.7091316023
  0
LINE
  5
2A3
100
AcDbEntity
  8
0
100
AcDbLine
 62
7
  6
CONTINUOUS
 10
123.13772231
 20
349.1287468446
 11
123.13772231
 21
354.0091316023
  0
LINE
  5
2A4
100
AcDbEntity
  8
0
100
AcDbLine
 62
7
  6
CONTINUOUS
 10
124.07082231
 20
348.9091369668
 11
124.0708252902
 21
348.4091336289
  0
LINE
  5
2A5
100
AcDbEntity
  8
0
100
AcDbLine
 62
7
  6
CONTINUOUS
 10
126.13772231
 20
352.5091316023
 11
126.13772231
 21
354.0091316023
  0
LINE
  5
2A6
100
AcDbEntity
  8
0
100
AcDbLine
 62
7
  6
CONTINUOUS
 10
128.5708269591
 20
132.7275867799
 11
128.5708269591
 21
112.4091316023
  0
LINE
  5
2A7
100
AcDbEntity
  8
0
100
AcDbLine
 62
7
  6
CONTINUOUS
 10
128.6619764097
 20
112.7584957748
 11
128.6619764097
 21
132.5184957748
  0
LINE
  5
2A8
100
AcDbEntity
  8
0
100
AcDbLine
 62
7
  6
CONTINUOUS
 10
129.73772231
 20
354.0091316023
 11
129.73772231
 21
352.9091368499
  0
LINE
  5
2A9
100
AcDbEntity
  8
0
100
AcDbLine
 62
7
  6
CONTINUOUS
 10
132.53772231
 20
352.9091366537
 11
132.53772231
 21
354.0091316023
  0
LINE
  5
2AA
100
AcDbEntity
  8
0
100
AcDbLine
 62
7
  6
CONTINUOUS
 10
136.43772231
 20
354.0091316023
 11
136.43772231
 21
352.9091363803
  0
LINE
  5
2AB
100
AcDbEntity
  8
0
100
AcDbLine
 62
7
  6
CONTINUOUS
 10
80.5830114916
 20
348.445588173
 11
80.0782077359
 21
349.4091316023
  0
LINE
  5
2AC
100
AcDbEntity
  8
0
100
AcDbLine
 62
7
  6
CONTINUOUS
 10
170.0024962688
 20
72.302709696
 11
170.3760676026
 21
70.9085131286
  0
LINE
  5
2AD
100
AcDbEntity
  8
0
100
AcDbLine
 62
7
  6
CONTINUOUS
 10
170.3560496594
 20
72.6562630866
 11
170.7296209932
 21
71.2620665192
  0
LINE
  5
2AE
100
AcDbEntity
  8
0
100
AcDbLine
 62
7
  6
CONTINUOUS
 10
180.9626513772
 20
62.0496613688
 11
181.336222711
 21
60.6554648014
  0
LINE
  5
2AF
100
AcDbEntity
  8
0
100
AcDbLine
 62
7
  6
CONTINUOUS
 10
139.18772231
 20
354.0091316023
 11
139.18772231
 21
352.9091361876
  0
LINE
  5
2B0
100
AcDbEntity
  8
0
100
AcDbLine
 62
7
  6
CONTINUOUS
 10
139.48772231
 20
451.5141316023
 11
139.48772231
 21
451.7641316023
  0
LINE
  5
2B1
100
AcDbEntity
  8
0
100
AcDbLine
 62
7
  6
CONTINUOUS
 10
139.88772231
 20
451.6091316023
 11
139.88772231
 21
451.5141316023
  0
LINE
  5
2B2
100
AcDbEntity
  8
0
100
AcDbLine
 62
7
  6
CONTINUOUS
 10
140.98772231
 20
352.9091360614
 11
140.98772231
 21
354.0091316023
  0
LINE
  5
2B3
100
AcDbEntity
  8
0
100
AcDbLine
 62
7
  6
CONTINUOUS
 10
144.58772231
 20
354.0091316023
 11
144.58772231
 21
352.9091358091
  0
LINE
  5
2B4
100
AcDbEntity
  8
0
100
AcDbLine
 62
7
  6
CONTINUOUS
 10
145.23772231
 20
352.9091357636
 11
145.23772231
 21
354.0091316023
  0
LINE
  5
2B5
100
AcDbEntity
  8
0
100
AcDbLine
 62
7
  6
CONTINUOUS
 10
148.83772231
 20
354.0091316023
 11
148.83772231
 21
352.9091355112
  0
LINE
  5
2B6
100
AcDbEntity
  8
0
100
AcDbLine
 62
7
  6
CONTINUOUS
 10
152.70082231
 20
107.4091369668
 11
152.70082231
 21
112.4091316023
  0
LINE
  5
2B7
100
AcDbEntity
  8
0
100
AcDbLine
 62
7
  6
CONTINUOUS
 10
152.8019764097
 20
107.3916252267
 11
152.8019764097
 21
110.7584957748
  0
LINE
  5
2B8
100
AcDbEntity
  8
0
100
AcDbLine
 62
7
  6
CONTINUOUS
 10
72.7063023916
 20
221.4091316023
 11
74.4337342993
 21
221.4091316023
  0
LINE
  5
2B9
100
AcDbEntity
  8
0
100
AcDbLine
 62
7
  6
CONTINUOUS
 10
72.7708211656
 20
222.2122118258
 11
71.9707521507
 21
222.2122118258
  0
LINE
  5
2BA
100
AcDbEntity
  8
0
100
AcDbLine
 62
7
  6
CONTINUOUS
 10
152.170824122
 20
347.4091390529
 11
151.8825760598
 21
352.9091352978
  0
LINE
  5
2BB
100
AcDbEntity
  8
0
100
AcDbLine
 62
7
  6
CONTINUOUS
 10
153.33772231
 20
354.0091316023
 11
153.33772231
 21
349.1287468446
  0
LINE
  5
2BC
100
AcDbEntity
  8
0
100
AcDbLine
 62
7
  6
CONTINUOUS
 10
153.42082231
 20
105.4091331521
 11
153.42082231
 21
106.9091331521
  0
LINE
  5
2BD
100
AcDbEntity
  8
0
100
AcDbLine
 62
7
  6
CONTINUOUS
 10
154.92082231
 20
80.6518408198
 11
154.92082231
 21
105.4091331521
  0
LWPOLYLINE
  5
2BE
100
AcDbEntity
  8
0
100
AcDbPolyline
 62
7
  6
CONTINUOUS
 90
3
 70
0
 10
81.2190132246
 20
350.0585820268
 10
82.0288922915
 20
348.9186648387
 10
83.0280750297
 20
347.5018316023
  0
LINE
  5
2BF
100
AcDbEntity
  8
0
100
AcDbLine
 62
7
  6
CONTINUOUS
 10
81.2190132246
 20
350.0585820268
 11
83.0280750297
 21
347.5018316023
  0
LINE
  5
2C0
100
AcDbEntity
  8
0
100
AcDbLine
 62
7
  6
CONTINUOUS
 10
172.3376944519
 20
456.3983125277
 11
172.3290842927
 21
463.419950677
  0
LINE
  5
2C1
100
AcDbEntity
  8
0
100
AcDbLine
 62
7
  6
CONTINUOUS
 10
170.3366599989
 20
451.6091316023
 11
170.3365867626
 21
451.9814104127
  0
LINE
  5
2C2
100
AcDbEntity
  8
0
100
AcDbLine
 62
7
  6
CONTINUOUS
 10
170.6303456097
 20
451.6091316023
 11
170.6303456097
 21
452.2839529504
  0
LINE
  5
2C3
100
AcDbEntity
  8
0
100
AcDbLine
 62
7
  6
CONTINUOUS
 10
171.33772231
 20
452.300131839
 11
171.33772231
 21
452.3251046293
  0
LINE
  5
2C4
100
AcDbEntity
  8
0
100
AcDbLine
 62
7
  6
CONTINUOUS
 10
171.97772231
 20
426.9091316023
 11
171.97772231
 21
423.8091316023
  0
LINE
  5
2C5
100
AcDbEntity
  8
0
100
AcDbLine
 62
7
  6
CONTINUOUS
 10
172.23772231
 20
423.8091316023
 11
172.23772231
 21
410.8091316023
  0
LINE
  5
2C6
100
AcDbEntity
  8
0
100
AcDbLine
 62
7
  6
CONTINUOUS
 10
172.23772231
 20
403.4091316023
 11
172.23772231
 21
389.6091316023
  0
LINE
  5
2C7
100
AcDbEntity
  8
0
100
AcDbLine
 62
7
  6
CONTINUOUS
 10
172.8371518098
 20
452.3591314447
 11
172.8371518098
 21
451.6091316023
  0
LINE
  5
2C8
100
AcDbEntity
  8
0
100
AcDbLine
 62
7
  6
CONTINUOUS
 10
173.0150284611
 20
455.6824805448
 11
173.0150284611
 21
464.1357826599
  0
LINE
  5
2C9
100
AcDbEntity
  8
0
100
AcDbLine
 62
7
  6
CONTINUOUS
 10
173.13772231
 20
422.3091316023
 11
173.13772231
 21
425.4091316023
  0
LINE
  5
2CA
100
AcDbEntity
  8
0
100
AcDbLine
 62
7
  6
CONTINUOUS
 10
173.33772231
 20
455.6566095674
 11
173.33772231
 21
455.6754637295
  0
LINE
  5
2CB
100
AcDbEntity
  8
0
100
AcDbLine
 62
7
  6
CONTINUOUS
 10
173.33772231
 20
464.1427994752
 11
173.33772231
 21
464.1616536372
  0
LINE
  5
2CC
100
AcDbEntity
  8
0
100
AcDbLine
 62
7
  6
CONTINUOUS
 10
173.43772231
 20
410.8091316023
 11
173.43772231
 21
403.4091316023
  0
LINE
  5
2CD
100
AcDbEntity
  8
0
100
AcDbLine
 62
7
  6
CONTINUOUS
 10
173.53772231
 20
426.9091316023
 11
173.53772231
 21
425.2991316023
  0
LINE
  5
2CE
100
AcDbEntity
  8
0
100
AcDbLine
 62
7
  6
CONTINUOUS
 10
173.53772231
 20
389.6091316023
 11
173.53772231
 21
390.2091316023
  0
LINE
  5
2CF
100
AcDbEntity
  8
0
100
AcDbLine
 62
7
  6
CONTINUOUS
 10
173.6371518098
 20
451.6091316023
 11
173.6371518098
 21
452.5591314447
  0
LINE
  5
2D0
100
AcDbEntity
  8
0
100
AcDbLine
 62
7
  6
CONTINUOUS
 10
173.63772231
 20
426.8091316023
 11
173.63772231
 21
426.9091316023
  0
LINE
  5
2D1
100
AcDbEntity
  8
0
100
AcDbLine
 62
7
  6
CONTINUOUS
 10
174.4371518098
 20
452.5591314447
 11
174.4371518098
 21
451.6091316023
  0
LINE
  5
2D2
100
AcDbEntity
  8
0
100
AcDbLine
 62
7
  6
CONTINUOUS
 10
174.43772231
 20
352.7447853552
 11
174.43772231
 21
348.6091316023
  0
LINE
  5
2D3
100
AcDbEntity
  8
0
100
AcDbLine
 62
7
  6
CONTINUOUS
 10
174.4637155288
 20
117.3991316023
 11
174.4637155288
 21
117.2020253933
  0
LINE
  5
2D4
100
AcDbEntity
  8
0
100
AcDbLine
 62
7
  6
CONTINUOUS
 10
174.549492611
 20
117.2873398632
 11
174.549492611
 21
117.3991316023
  0
LINE
  5
2D5
100
AcDbEntity
  8
0
100
AcDbLine
 62
7
  6
CONTINUOUS
 10
175.5309095946
 20
464.2091316023
 11
175.5309095946
 21
455.6091316023
  0
LINE
  5
2D6
100
AcDbEntity
  8
0
100
AcDbLine
 62
7
  6
CONTINUOUS
 10
176.8309095946
 20
455.0091316023
 11
176.8309095946
 21
464.8091316023
  0
LINE
  5
2D7
100
AcDbEntity
  8
0
100
AcDbLine
 62
7
  6
CONTINUOUS
 10
177.73772231
 20
383.1019519254
 11
177.73772231
 21
362.6091316023
  0
LINE
  5
2D8
100
AcDbEntity
  8
0
100
AcDbLine
 62
7
  6
CONTINUOUS
 10
177.73772231
 20
388.1589454012
 11
177.73772231
 21
426.8091316023
  0
LINE
  5
2D9
100
AcDbEntity
  8
0
100
AcDbLine
 62
7
  6
CONTINUOUS
 10
177.73772231
 20
451.6091316023
 11
177.73772231
 21
467.4091316023
  0
LINE
  5
2DA
100
AcDbEntity
  8
0
100
AcDbLine
 62
7
  6
CONTINUOUS
 10
178.93772231
 20
383.1019519254
 11
178.93772231
 21
467.4091316023
  0
LINE
  5
2DB
100
AcDbEntity
  8
0
100
AcDbLine
 62
7
  6
CONTINUOUS
 10
180.3371618098
 20
451.8591314447
 11
180.3371618098
 21
446.3591317599
  0
LINE
  5
2DC
100
AcDbEntity
  8
0
100
AcDbLine
 62
7
  6
CONTINUOUS
 10
180.4582768098
 20
451.0591314447
 11
180.4582768098
 21
447.1591317599
  0
LINE
  5
2DD
100
AcDbEntity
  8
0
100
AcDbLine
 62
7
  6
CONTINUOUS
 10
180.6309095946
 20
464.2591316023
 11
180.6309095946
 21
455.5591316023
  0
LINE
  5
2DE
100
AcDbEntity
  8
0
100
AcDbLine
 62
7
  6
CONTINUOUS
 10
180.8309095946
 20
464.05910782
 11
180.8309095946
 21
455.7591316023
  0
LINE
  5
2DF
100
AcDbEntity
  8
0
100
AcDbLine
 62
7
  6
CONTINUOUS
 10
180.8371518098
 20
450.6802564448
 11
180.8371518098
 21
447.5380067599
  0
LINE
  5
2E0
100
AcDbEntity
  8
0
100
AcDbLine
 62
7
  6
CONTINUOUS
 10
71.9707521507
 20
249.0491316023
 11
73.82082231
 21
249.0491316023
  0
LINE
  5
2E1
100
AcDbEntity
  8
0
100
AcDbLine
 62
7
  6
CONTINUOUS
 10
72.8115901827
 20
259.9993431454
 11
73.82082231
 21
259.9443619423
  0
LINE
  5
2E2
100
AcDbEntity
  8
0
100
AcDbLine
 62
7
  6
CONTINUOUS
 10
187.1309095946
 20
462.4091316023
 11
187.1309095946
 21
457.4091316023
  0
LINE
  5
2E3
100
AcDbEntity
  8
0
100
AcDbLine
 62
7
  6
CONTINUOUS
 10
187.5309095946
 20
462.0091316024
 11
187.5309095946
 21
457.8091316023
  0
LINE
  5
2E4
100
AcDbEntity
  8
0
100
AcDbLine
 62
7
  6
CONTINUOUS
 10
193.23772231
 20
362.6091316023
 11
193.23772231
 21
348.6091316023
  0
LINE
  5
2E5
100
AcDbEntity
  8
0
100
AcDbLine
 62
7
  6
CONTINUOUS
 10
203.13772231
 20
347.5761013244
 11
203.13772231
 21
347.4091390529
  0
LINE
  5
2E6
100
AcDbEntity
  8
0
100
AcDbLine
 62
7
  6
CONTINUOUS
 10
203.13772231
 20
349.4091316023
 11
203.13772231
 21
366.3587941189
  0
LINE
  5
2E7
100
AcDbEntity
  8
0
100
AcDbLine
 62
7
  6
CONTINUOUS
 10
204.33772231
 20
347.4091390529
 11
204.33772231
 21
366.3587941189
  0
LINE
  5
2E8
100
AcDbEntity
  8
0
100
AcDbLine
 62
7
  6
CONTINUOUS
 10
72.8115901827
 20
282.8189200593
 11
73.82082231
 21
282.8739012624
  0
LINE
  5
2E9
100
AcDbEntity
  8
0
100
AcDbLine
 62
7
  6
CONTINUOUS
 10
73.82082231
 20
285.7191316023
 11
71.9707521507
 21
285.7191316023
  0
LINE
  5
2EA
100
AcDbEntity
  8
0
100
AcDbLine
 62
7
  6
CONTINUOUS
 10
153.33772231
 20
349.1287468446
 11
153.63772231
 21
348.6091316023
  0
LINE
  5
2EB
100
AcDbEntity
  8
0
100
AcDbLine
 62
7
  6
CONTINUOUS
 10
221.0510472509
 20
113.4091342249
 11
221.0510472509
 21
114.9091372648
  0
LINE
  5
2EC
100
AcDbEntity
  8
0
100
AcDbLine
 62
7
  6
CONTINUOUS
 10
220.6211856122
 20
114.9091372648
 11
220.5425714571
 21
113.4090754683
  0
LINE
  5
2ED
100
AcDbEntity
  8
0
100
AcDbLine
 62
7
  6
CONTINUOUS
 10
79.6319074442
 20
289.4091316023
 11
82.8645673458
 21
289.4091316023
  0
LINE
  5
2EE
100
AcDbEntity
  8
0
100
AcDbLine
 62
7
  6
CONTINUOUS
 10
79.8708221431
 20
289.8591371635
 11
79.7514521723
 21
289.8591371635
  0
LINE
  5
2EF
100
AcDbEntity
  8
0
100
AcDbLine
 62
7
  6
CONTINUOUS
 10
169.1851203356
 20
348.4733960039
 11
169.7894795781
 21
347.4266150899
  0
LINE
  5
2F0
100
AcDbEntity
  8
0
100
AcDbLine
 62
7
  6
CONTINUOUS
 10
173.53772231
 20
425.2991316023
 11
174.1781208799
 21
422.9091316023
  0
LINE
  5
2F1
100
AcDbEntity
  8
0
100
AcDbLine
 62
7
  6
CONTINUOUS
 10
235.54462231
 20
115.4091316023
 11
235.54462231
 21
116.7338606015
  0
LINE
  5
2F2
100
AcDbEntity
  8
0
100
AcDbLine
 62
7
  6
CONTINUOUS
 10
224.7229780236
 20
117.3991316023
 11
224.283920836
 21
114.9091372648
  0
LINE
  5
2F3
100
AcDbEntity
  8
0
100
AcDbLine
 62
7
  6
CONTINUOUS
 10
225.542569768
 20
113.4091342249
 11
226.2461151294
 21
117.3991316023
  0
LINE
  5
2F4
100
AcDbEntity
  8
0
100
AcDbLine
 62
7
  6
CONTINUOUS
 10
281.1536683448
 20
366.6815459768
 11
209.9208256717
 21
347.4091390529
  0
LINE
  5
2F5
100
AcDbEntity
  8
0
100
AcDbLine
 62
7
  6
CONTINUOUS
 10
281.07082231
 20
366.6591315618
 11
281.07082231
 21
366.2099922846
  0
LINE
  5
2F6
100
AcDbEntity
  8
0
100
AcDbLine
 62
7
  6
CONTINUOUS
 10
155.4781851049
 20
107.4091369668
 11
154.2994725666
 21
106.2304244285
  0
LINE
  5
2F7
100
AcDbEntity
  8
0
100
AcDbLine
 62
7
  6
CONTINUOUS
 10
155.3601591371
 20
105.169797377
 11
157.5994973195
 21
107.4091369668
  0
LINE
  5
2F8
100
AcDbEntity
  8
0
100
AcDbLine
 62
7
  6
CONTINUOUS
 10
164.6708271022
 20
107.4091369668
 11
174.6367125734
 21
117.375022438
  0
LINE
  5
2F9
100
AcDbEntity
  8
0
100
AcDbLine
 62
7
  6
CONTINUOUS
 10
118.6243311698
 20
56.2370227178
 11
119.6779217872
 21
57.2906133352
  0
LINE
  5
2FA
100
AcDbEntity
  8
0
100
AcDbLine
 62
7
  6
CONTINUOUS
 10
118.9778490757
 20
50.9341204212
 11
120.1931582476
 21
52.1494295931
  0
LINE
  5
2FB
100
AcDbEntity
  8
0
100
AcDbLine
 62
7
  6
CONTINUOUS
 10
169.5672833905
 20
347.2983300611
 11
169.9808003718
 21
347.4091316023
  0
LINE
  5
2FC
100
AcDbEntity
  8
0
100
AcDbLine
 62
7
  6
CONTINUOUS
 10
82.8645673458
 20
347.1091316023
 11
112.87082231
 21
347.1091316023
  0
LINE
  5
2FD
100
AcDbEntity
  8
0
100
AcDbLine
 62
7
  6
CONTINUOUS
 10
209.9208256717
 20
347.4091390529
 11
152.170824122
 21
347.4091390529
  0
LINE
  5
2FE
100
AcDbEntity
  8
0
100
AcDbLine
 62
7
  6
CONTINUOUS
 10
83.0281313124
 20
347.5018316023
 11
122.2105281355
 21
347.5018316023
  0
LINE
  5
2FF
100
AcDbEntity
  8
0
100
AcDbLine
 62
7
  6
CONTINUOUS
 10
119.785639326
 20
348.4091336289
 11
124.0708252902
 21
348.4091336289
  0
LINE
  5
300
100
AcDbEntity
  8
0
100
AcDbLine
 62
7
  6
CONTINUOUS
 10
119.98772231
 20
348.6091316023
 11
122.83772231
 21
348.6091316023
  0
LINE
  5
301
100
AcDbEntity
  8
0
100
AcDbLine
 62
7
  6
CONTINUOUS
 10
153.63772231
 20
348.6091316023
 11
169.9808003718
 21
348.6091316023
  0
LINE
  5
302
100
AcDbEntity
  8
0
100
AcDbLine
 62
7
  6
CONTINUOUS
 10
174.43772231
 20
348.6091316023
 11
202.33772231
 21
348.6091316023
  0
LINE
  5
303
100
AcDbEntity
  8
0
100
AcDbLine
 62
7
  6
CONTINUOUS
 10
174.43772231
 20
349.1395973465
 11
193.23772231
 21
349.1395973465
  0
LINE
  5
304
100
AcDbEntity
  8
0
100
AcDbLine
 62
7
  6
CONTINUOUS
 10
79.273108933
 20
349.4091316023
 11
80.0782391073
 21
349.4091316023
  0
LINE
  5
305
100
AcDbEntity
  8
0
100
AcDbLine
 62
7
  6
CONTINUOUS
 10
193.23772231
 20
349.5390096531
 11
174.43772231
 21
349.5390096531
  0
LINE
  5
306
100
AcDbEntity
  8
0
100
AcDbLine
 62
7
  6
CONTINUOUS
 10
79.273108933
 20
350.0585820268
 11
81.2190132246
 21
350.0585820268
  0
LINE
  5
307
100
AcDbEntity
  8
0
100
AcDbLine
 62
7
  6
CONTINUOUS
 10
174.43772231
 20
351.0357957514
 11
193.23772231
 21
351.0357957514
  0
LINE
  5
308
100
AcDbEntity
  8
0
100
AcDbLine
 62
7
  6
CONTINUOUS
 10
174.43772231
 20
351.5428794531
 11
193.23772231
 21
351.5428794531
  0
LINE
  5
309
100
AcDbEntity
  8
0
100
AcDbLine
 62
7
  6
CONTINUOUS
 10
193.23772231
 20
351.6104270361
 11
174.43772231
 21
351.6104270361
  0
LINE
  5
30A
100
AcDbEntity
  8
0
100
AcDbLine
 62
7
  6
CONTINUOUS
 10
174.43772231
 20
352.0175264331
 11
193.23772231
 21
352.0175264331
  0
LINE
  5
30B
100
AcDbEntity
  8
0
100
AcDbLine
 62
7
  6
CONTINUOUS
 10
193.23772231
 20
352.7447853552
 11
174.43772231
 21
352.7447853552
  0
LINE
  5
30C
100
AcDbEntity
  8
0
100
AcDbLine
 62
7
  6
CONTINUOUS
 10
127.5819158495
 20
352.7501313247
 11
126.13772231
 21
352.7501313247
  0
LINE
  5
30D
100
AcDbEntity
  8
0
100
AcDbLine
 62
7
  6
CONTINUOUS
 10
151.8825760598
 20
352.9091352978
 11
128.07082231
 21
352.9091369668
  0
LINE
  5
30E
100
AcDbEntity
  8
0
100
AcDbLine
 62
7
  6
CONTINUOUS
 10
132.3047096081
 20
362.7641316023
 11
132.8831774833
 21
362.6091316023
  0
LINE
  5
30F
100
AcDbEntity
  8
0
100
AcDbLine
 62
7
  6
CONTINUOUS
 10
282.3128982003
 20
360.4091430464
 11
282.3136730607
 21
359.1388041535
  0
LINE
  5
310
100
AcDbEntity
  8
0
100
AcDbLine
 62
7
  6
CONTINUOUS
 10
287.8476420905
 20
97.4091316023
 11
287.844594803
 21
102.4091417351
  0
LINE
  5
311
100
AcDbEntity
  8
0
100
AcDbLine
 62
7
  6
CONTINUOUS
 10
291.07082231
 20
366.788181255
 11
291.07082231
 21
367.4122979338
  0
LINE
  5
312
100
AcDbEntity
  8
0
100
AcDbLine
 62
7
  6
CONTINUOUS
 10
282.2970508154
 20
102.4091417351
 11
282.2940016653
 21
97.4091316023
  0
LINE
  5
313
100
AcDbEntity
  8
0
100
AcDbLine
 62
7
  6
CONTINUOUS
 10
287.8279716264
 20
359.1388041535
 11
287.8287464867
 21
360.4091430464
  0
LINE
  5
314
100
AcDbEntity
  8
0
100
AcDbLine
 62
7
  6
CONTINUOUS
 10
125.6648356228
 20
43.4639240659
 11
125.6882721519
 21
43.4882656537
  0
LINE
  5
315
100
AcDbEntity
  8
0
100
AcDbLine
 62
7
  6
CONTINUOUS
 10
120.0314179366
 20
49.145119869
 11
120.3989524042
 21
49.5126543365
  0
LINE
  5
316
100
AcDbEntity
  8
0
100
AcDbLine
 62
7
  6
CONTINUOUS
 10
126.0558065009
 20
43.8558002398
 11
125.6882720333
 21
43.4882657722
  0
LINE
  5
317
100
AcDbEntity
  8
0
100
AcDbLine
 62
7
  6
CONTINUOUS
 10
128.6780319129
 20
43.6637405099
 11
127.4631304257
 21
42.4488390227
  0
LINE
  5
318
100
AcDbEntity
  8
0
100
AcDbLine
 62
7
  6
CONTINUOUS
 10
162.2596750227
 20
72.6916159488
 11
165.411717115
 21
75.8436580412
  0
LINE
  5
319
100
AcDbEntity
  8
0
100
AcDbLine
 62
7
  6
CONTINUOUS
 10
132.7664644654
 20
42.0948894222
 11
142.9184284362
 21
52.2468533931
  0
LINE
  5
31A
100
AcDbEntity
  8
0
100
AcDbLine
 62
7
  6
CONTINUOUS
 10
120.0070762303
 20
49.1216834584
 11
120.0314178181
 21
49.1451199875
  0
LINE
  5
31B
100
AcDbEntity
  8
0
100
AcDbLine
 62
7
  6
CONTINUOUS
 10
290.9112107918
 20
366.7817383058
 11
291.07082231
 21
366.7975280021
  0
LINE
  5
31C
100
AcDbEntity
  8
0
100
AcDbLine
 62
7
  6
CONTINUOUS
 10
291.07082231
 20
366.788181255
 11
290.9112107918
 21
366.7770649322
  0
LINE
  5
31D
100
AcDbEntity
  8
0
100
AcDbLine
 62
7
  6
CONTINUOUS
 10
290.9112107918
 20
366.7817383058
 11
281.4656293507
 21
366.7659486094
  0
LINE
  5
31E
100
AcDbEntity
  8
0
100
AcDbLine
 62
7
  6
CONTINUOUS
 10
123.13772231
 20
354.0091316023
 11
153.33772231
 21
354.0091316023
  0
LINE
  5
31F
100
AcDbEntity
  8
0
100
AcDbLine
 62
7
  6
CONTINUOUS
 10
119.98772231
 20
362.6091316023
 11
132.8831774833
 21
362.6091316023
  0
LINE
  5
320
100
AcDbEntity
  8
0
100
AcDbLine
 62
7
  6
CONTINUOUS
 10
177.73772231
 20
362.6091316023
 11
193.23772231
 21
362.6091316023
  0
LINE
  5
321
100
AcDbEntity
  8
0
100
AcDbLine
 62
7
  6
CONTINUOUS
 10
123.03772231
 20
362.7641316023
 11
132.3047096081
 21
362.7641316023
  0
LINE
  5
322
100
AcDbEntity
  8
0
100
AcDbLine
 62
7
  6
CONTINUOUS
 10
281.07082231
 20
366.2259181952
 11
299.07082231
 21
366.2259181952
  0
LINE
  5
323
100
AcDbEntity
  8
0
100
AcDbLine
 62
7
  6
CONTINUOUS
 10
299.07082231
 20
366.6814652479
 11
281.1563626748
 21
366.6814652479
  0
LINE
  5
324
100
AcDbEntity
  8
0
100
AcDbLine
 62
7
  6
CONTINUOUS
 10
290.9112107918
 20
366.7659486094
 11
281.4656293507
 21
366.7659486094
  0
LINE
  5
325
100
AcDbEntity
  8
0
100
AcDbLine
 62
7
  6
CONTINUOUS
 10
291.07082231
 20
367.4123203325
 11
299.07082231
 21
367.4123203325
  0
LINE
  5
326
100
AcDbEntity
  8
0
100
AcDbLine
 62
7
  6
CONTINUOUS
 10
122.7424701576
 20
368.7091316023
 11
122.23772231
 21
368.7091316023
  0
LINE
  5
327
100
AcDbEntity
  8
0
100
AcDbLine
 62
7
  6
CONTINUOUS
 10
178.93772231
 20
381.0234909563
 11
202.53772231
 21
367.3980246034
  0
LINE
  5
328
100
AcDbEntity
  8
0
100
AcDbLine
 62
7
  6
CONTINUOUS
 10
203.13772231
 20
368.437255088
 11
179.53772231
 21
382.0627214408
  0
LINE
  5
329
100
AcDbEntity
  8
0
100
AcDbLine
 62
7
  6
CONTINUOUS
 10
177.73772231
 20
388.1589454012
 11
174.23772231
 21
390.6091316023
  0
LINE
  5
32A
100
AcDbEntity
  8
0
100
AcDbLine
 62
7
  6
CONTINUOUS
 10
299.07082231
 20
97.4091316023
 11
299.07082231
 21
367.4123319964
  0
LINE
  5
32B
100
AcDbEntity
  8
0
100
AcDbLine
 62
7
  6
CONTINUOUS
 10
171.0397742206
 20
57.8303828781
 11
171.6001900859
 21
58.4013525777
  0
LINE
  5
32C
100
AcDbEntity
  8
0
100
AcDbLine
 62
7
  6
CONTINUOUS
 10
163.6031771955
 20
71.3481128084
 11
164.6638424372
 21
72.40877805
  0
LINE
  5
32D
100
AcDbEntity
  8
0
100
AcDbLine
 62
7
  6
CONTINUOUS
 10
165.0881139523
 20
71.2774146549
 11
167.9011934049
 21
74.0904941075
  0
LINE
  5
32E
100
AcDbEntity
  8
0
100
AcDbLine
 62
7
  6
CONTINUOUS
 10
170.7296209932
 20
71.2620665192
 11
167.9165415406
 21
68.4489870666
  0
LINE
  5
32F
100
AcDbEntity
  8
0
100
AcDbLine
 62
7
  6
CONTINUOUS
 10
169.0479049357
 20
68.0247155515
 11
167.9872396941
 21
66.9640503098
  0
LINE
  5
330
100
AcDbEntity
  8
0
100
AcDbLine
 62
7
  6
CONTINUOUS
 10
172.4827849269
 20
68.7725902293
 11
169.3307418669
 21
65.6205471693
  0
LINE
  5
331
100
AcDbEntity
  8
0
100
AcDbLine
 62
7
  6
CONTINUOUS
 10
166.5095253647
 20
57.1424764176
 11
171.1055772925
 21
61.7385283455
  0
LINE
  5
332
100
AcDbEntity
  8
0
100
AcDbLine
 62
7
  6
CONTINUOUS
 10
172.1591686046
 20
62.7921196576
 11
177.1292899265
 21
67.7622409794
  0
LINE
  5
333
100
AcDbEntity
  8
0
100
AcDbLine
 62
7
  6
CONTINUOUS
 10
169.6773850437
 20
57.4819088192
 11
170.5328241123
 21
58.3373478877
  0
LINE
  5
334
100
AcDbEntity
  8
0
100
AcDbLine
 62
7
  6
CONTINUOUS
 10
171.0985095626
 20
58.903033101
 11
171.8126893183
 21
59.6172128567
  0
LINE
  5
335
100
AcDbEntity
  8
0
100
AcDbLine
 62
7
  6
CONTINUOUS
 10
174.2097774619
 20
60.7415096391
 11
175.270444155
 21
61.8021763322
  0
LINE
  5
336
100
AcDbEntity
  8
0
100
AcDbLine
 62
7
  6
CONTINUOUS
 10
121.0227813873
 20
58.0670681415
 11
120.0309077468
 21
57.4190899295
  0
LINE
  5
337
100
AcDbEntity
  8
0
100
AcDbLine
 62
7
  6
CONTINUOUS
 10
97.23772231
 20
384.7641316023
 11
101.43772231
 21
384.7641316023
  0
LINE
  5
338
100
AcDbEntity
  8
0
100
AcDbLine
 62
7
  6
CONTINUOUS
 10
102.2378810621
 20
376.7071487227
 11
122.23772231
 21
376.5326127523
  0
LINE
  5
339
100
AcDbEntity
  8
0
100
AcDbLine
 62
7
  6
CONTINUOUS
 10
175.3108027299
 20
51.8007130161
 11
175.334239259
 21
51.8250546039
  0
LINE
  5
33A
100
AcDbEntity
  8
0
100
AcDbLine
 62
7
  6
CONTINUOUS
 10
176.0482690607
 20
61.0243663277
 11
178.5077951227
 21
63.4838923897
  0
LINE
  5
33B
100
AcDbEntity
  8
0
100
AcDbLine
 62
7
  6
CONTINUOUS
 10
181.336222711
 20
60.6554648014
 11
178.876696649
 21
58.1959387394
  0
LINE
  5
33C
100
AcDbEntity
  8
0
100
AcDbLine
 62
7
  6
CONTINUOUS
 10
179.6545066535
 20
57.4181138337
 11
178.5938399604
 21
56.3574471406
  0
LINE
  5
33D
100
AcDbEntity
  8
0
100
AcDbLine
 62
7
  6
CONTINUOUS
 10
177.469543178
 20
53.960358997
 11
176.7553634223
 21
53.2461792413
  0
LINE
  5
33E
100
AcDbEntity
  8
0
100
AcDbLine
 62
7
  6
CONTINUOUS
 10
176.189678209
 20
52.680493791
 11
175.3342391405
 21
51.8250547224
  0
LINE
  5
33F
100
AcDbEntity
  8
0
100
AcDbLine
 62
7
  6
CONTINUOUS
 10
185.6145713007
 20
59.2769596052
 11
180.6444488177
 21
54.3068371222
  0
LINE
  5
340
100
AcDbEntity
  8
0
100
AcDbLine
 62
7
  6
CONTINUOUS
 10
174.9948068721
 20
48.6571951766
 11
179.5908586668
 21
53.2532469712
  0
LINE
  5
341
100
AcDbEntity
  8
0
100
AcDbLine
 62
7
  6
CONTINUOUS
 10
181.7121745035
 20
51.1319221705
 11
182.7657651457
 21
52.1855202136
  0
LINE
  5
342
100
AcDbEntity
  8
0
100
AcDbLine
 62
7
  6
CONTINUOUS
 10
176.253682899
 20
53.7478597646
 11
175.6827131994
 21
53.1874438993
  0
LINE
  5
343
100
AcDbEntity
  8
0
100
AcDbLine
 62
7
  6
CONTINUOUS
 10
169.6530433374
 20
57.4584724086
 11
169.6773849252
 21
57.4819089377
  0
LINE
  5
344
100
AcDbEntity
  8
0
100
AcDbLine
 62
7
  6
CONTINUOUS
 10
153.7636004165
 20
76.9699972539
 11
121.0227834361
 21
58.0670693244
  0
LINE
  5
345
100
AcDbEntity
  8
0
100
AcDbLine
 62
7
  6
CONTINUOUS
 10
172.23772231
 20
389.6091316023
 11
173.53772231
 21
389.6091316023
  0
LINE
  5
346
100
AcDbEntity
  8
0
100
AcDbLine
 62
7
  6
CONTINUOUS
 10
173.93772231
 20
390.6091316023
 11
174.23772231
 21
390.6091316023
  0
LINE
  5
347
100
AcDbEntity
  8
0
100
AcDbLine
 62
7
  6
CONTINUOUS
 10
94.8825763037
 20
400.2641311678
 11
91.48132231
 21
400.2641311678
  0
LINE
  5
348
100
AcDbEntity
  8
0
100
AcDbLine
 62
7
  6
CONTINUOUS
 10
90.98132231
 20
401.2641316023
 11
79.18132231
 21
401.2641316023
  0
LINE
  5
349
100
AcDbEntity
  8
0
100
AcDbLine
 62
7
  6
CONTINUOUS
 10
180.8371518098
 20
450.6802564448
 11
180.4582768098
 21
451.0591314447
  0
LINE
  5
34A
100
AcDbEntity
  8
0
100
AcDbLine
 62
7
  6
CONTINUOUS
 10
173.43772231
 20
403.4091316023
 11
172.23772231
 21
403.4091316023
  0
LINE
  5
34B
100
AcDbEntity
  8
0
100
AcDbLine
 62
7
  6
CONTINUOUS
 10
90.98132231
 20
404.4641316023
 11
79.18132231
 21
404.4641316023
  0
LINE
  5
34C
100
AcDbEntity
  8
0
100
AcDbLine
 62
7
  6
CONTINUOUS
 10
96.43772231
 20
407.7141311678
 11
94.8819183985
 21
407.7141311678
  0
LINE
  5
34D
100
AcDbEntity
  8
0
100
AcDbLine
 62
7
  6
CONTINUOUS
 10
172.23772231
 20
410.8091316023
 11
173.43772231
 21
410.8091316023
  0
LINE
  5
34E
100
AcDbEntity
  8
0
100
AcDbLine
 62
7
  6
CONTINUOUS
 10
187.5309095946
 20
462.0091316024
 11
187.1309095946
 21
462.4091316023
  0
LINE
  5
34F
100
AcDbEntity
  8
0
100
AcDbLine
 62
7
  6
CONTINUOUS
 10
119.6779217872
 20
57.2906133352
 11
121.2331708822
 21
57.8566786466
  0
LINE
  5
350
100
AcDbEntity
  8
0
100
AcDbLine
 62
7
  6
CONTINUOUS
 10
157.5327924624
 20
71.0686604976
 11
121.2435350403
 21
57.8604508917
  0
LINE
  5
351
100
AcDbEntity
  8
0
100
AcDbLine
 62
7
  6
CONTINUOUS
 10
142.9184284362
 20
52.2468533931
 11
167.4322894964
 21
61.1691634637
  0
LINE
  5
352
100
AcDbEntity
  8
0
100
AcDbLine
 62
7
  6
CONTINUOUS
 10
101.28772231
 20
429.6544366564
 11
97.2377784385
 21
429.6332310061
  0
LINE
  5
353
100
AcDbEntity
  8
0
100
AcDbLine
 62
7
  6
CONTINUOUS
 10
174.3358452099
 20
419.9091316023
 11
176.53772231
 21
419.9091316023
  0
LINE
  5
354
100
AcDbEntity
  8
0
100
AcDbLine
 62
7
  6
CONTINUOUS
 10
176.5372932457
 20
421.1091316023
 11
174.33772231
 21
421.1091316023
  0
LINE
  5
355
100
AcDbEntity
  8
0
100
AcDbLine
 62
7
  6
CONTINUOUS
 10
94.8819183985
 20
421.2141320369
 11
96.43772231
 21
421.2141320369
  0
LINE
  5
356
100
AcDbEntity
  8
0
100
AcDbLine
 62
7
  6
CONTINUOUS
 10
177.73772231
 20
422.9091316023
 11
174.1781208799
 21
422.9091316023
  0
LINE
  5
357
100
AcDbEntity
  8
0
100
AcDbLine
 62
7
  6
CONTINUOUS
 10
171.97772231
 20
423.8091316023
 11
172.23772231
 21
423.8091316023
  0
LINE
  5
358
100
AcDbEntity
  8
0
100
AcDbLine
 62
7
  6
CONTINUOUS
 10
79.18132231
 20
424.4641316023
 11
90.98132231
 21
424.4641316023
  0
LINE
  5
359
100
AcDbEntity
  8
0
100
AcDbLine
 62
7
  6
CONTINUOUS
 10
173.13772231
 20
425.4091316023
 11
171.97772231
 21
425.4091316023
  0
LINE
  5
35A
100
AcDbEntity
  8
0
100
AcDbLine
 62
7
  6
CONTINUOUS
 10
177.73772231
 20
426.8091316023
 11
173.63772231
 21
426.8091316023
  0
LINE
  5
35B
100
AcDbEntity
  8
0
100
AcDbLine
 62
7
  6
CONTINUOUS
 10
173.63772231
 20
426.9091316023
 11
171.97772231
 21
426.9091316023
  0
LINE
  5
35C
100
AcDbEntity
  8
0
100
AcDbLine
 62
7
  6
CONTINUOUS
 10
90.98132231
 20
427.6641316023
 11
79.18132231
 21
427.6641316023
  0
LINE
  5
35D
100
AcDbEntity
  8
0
100
AcDbLine
 62
7
  6
CONTINUOUS
 10
91.48132231
 20
428.6641320369
 11
94.8825763037
 21
428.6641320369
  0
LINE
  5
35E
100
AcDbEntity
  8
0
100
AcDbLine
 62
7
  6
CONTINUOUS
 10
121.9349303064
 20
437.6396457768
 11
102.0737603921
 21
437.2929677664
  0
LINE
  5
35F
100
AcDbEntity
  8
0
100
AcDbLine
 62
7
  6
CONTINUOUS
 10
122.23772231
 20
437.9641316023
 11
121.9292663853
 21
437.9641316023
  0
LINE
  5
360
100
AcDbEntity
  8
0
100
AcDbLine
 62
7
  6
CONTINUOUS
 10
178.93772231
 20
446.3591317599
 11
180.3371518098
 21
446.3591317599
  0
LINE
  5
361
100
AcDbEntity
  8
0
100
AcDbLine
 62
7
  6
CONTINUOUS
 10
180.3371718098
 20
447.1591317599
 11
180.4582768098
 21
447.1591317599
  0
LINE
  5
362
100
AcDbEntity
  8
0
100
AcDbLine
 62
7
  6
CONTINUOUS
 10
170.6304115664
 20
452.2839544589
 11
171.33772231
 21
452.300131839
  0
LINE
  5
363
100
AcDbEntity
  8
0
100
AcDbLine
 62
7
  6
CONTINUOUS
 10
172.8371518098
 20
452.3591314447
 11
171.33772231
 21
452.3251046293
  0
LINE
  5
364
100
AcDbEntity
  8
0
100
AcDbLine
 62
7
  6
CONTINUOUS
 10
173.0152288622
 20
464.1357870175
 11
173.33772231
 21
464.1427994752
  0
LINE
  5
365
100
AcDbEntity
  8
0
100
AcDbLine
 62
7
  6
CONTINUOUS
 10
175.5309095946
 20
464.2091316023
 11
173.33772231
 21
464.1616536372
  0
LINE
  5
366
100
AcDbEntity
  8
0
100
AcDbLine
 62
7
  6
CONTINUOUS
 10
180.4582768098
 20
451.0591314447
 11
180.3371718098
 21
451.0591314447
  0
LINE
  5
367
100
AcDbEntity
  8
0
100
AcDbLine
 62
7
  6
CONTINUOUS
 10
139.88772231
 20
451.5141316023
 11
139.48772231
 21
451.5141316023
  0
LINE
  5
368
100
AcDbEntity
  8
0
100
AcDbLine
 62
7
  6
CONTINUOUS
 10
177.73772231
 20
451.6091316023
 11
139.88772231
 21
451.6091316023
  0
LINE
  5
369
100
AcDbEntity
  8
0
100
AcDbLine
 62
7
  6
CONTINUOUS
 10
139.48772231
 20
451.7641316023
 11
123.03772231
 21
451.7641316023
  0
LINE
  5
36A
100
AcDbEntity
  8
0
100
AcDbLine
 62
7
  6
CONTINUOUS
 10
180.3371518098
 20
451.8591314447
 11
178.93772231
 21
451.8591314447
  0
LINE
  5
36B
100
AcDbEntity
  8
0
100
AcDbLine
 62
7
  6
CONTINUOUS
 10
173.6371518098
 20
452.1490343558
 11
172.8371518098
 21
452.1490343558
  0
LINE
  5
36C
100
AcDbEntity
  8
0
100
AcDbLine
 62
7
  6
CONTINUOUS
 10
174.4371518098
 20
452.5591314447
 11
173.6371518098
 21
452.5591314447
  0
LINE
  5
36D
100
AcDbEntity
  8
0
100
AcDbLine
 62
7
  6
CONTINUOUS
 10
176.8309095946
 20
455.0091316023
 11
177.73772231
 21
455.0091316023
  0
LINE
  5
36E
100
AcDbEntity
  8
0
100
AcDbLine
 62
7
  6
CONTINUOUS
 10
178.93772231
 20
455.5591316023
 11
180.6309095946
 21
455.5591316023
  0
LINE
  5
36F
100
AcDbEntity
  8
0
100
AcDbLine
 62
7
  6
CONTINUOUS
 10
175.5309095946
 20
455.9591316023
 11
176.8309095946
 21
455.9591316023
  0
LINE
  5
370
100
AcDbEntity
  8
0
100
AcDbLine
 62
7
  6
CONTINUOUS
 10
180.8309095946
 20
457.4091316023
 11
187.1309095946
 21
457.4091316023
  0
LINE
  5
371
100
AcDbEntity
  8
0
100
AcDbLine
 62
7
  6
CONTINUOUS
 10
187.1309095946
 20
462.4091316023
 11
180.8309095946
 21
462.4091316023
  0
LINE
  5
372
100
AcDbEntity
  8
0
100
AcDbLine
 62
7
  6
CONTINUOUS
 10
177.73772231
 20
462.4091316023
 11
178.93772231
 21
462.4091316023
  0
LINE
  5
373
100
AcDbEntity
  8
0
100
AcDbLine
 62
7
  6
CONTINUOUS
 10
176.8309095946
 20
463.8591316023
 11
175.5309095946
 21
463.8591316023
  0
LINE
  5
374
100
AcDbEntity
  8
0
100
AcDbLine
 62
7
  6
CONTINUOUS
 10
180.6309095946
 20
464.2591316023
 11
178.93772231
 21
464.2591316023
  0
LINE
  5
375
100
AcDbEntity
  8
0
100
AcDbLine
 62
7
  6
CONTINUOUS
 10
177.73772231
 20
464.8091316023
 11
176.8309095946
 21
464.8091316023
  0
LINE
  5
376
100
AcDbEntity
  8
0
100
AcDbLine
 62
7
  6
CONTINUOUS
 10
173.33772231
 20
455.6566095674
 11
175.5309095946
 21
455.6091316023
  0
LINE
  5
377
100
AcDbEntity
  8
0
100
AcDbLine
 62
7
  6
CONTINUOUS
 10
173.33772231
 20
455.6754637295
 11
173.0152286017
 21
455.6824761928
  0
LINE
  5
378
100
AcDbEntity
  8
0
100
AcDbLine
 62
7
  6
CONTINUOUS
 10
178.93772231
 20
467.4091316023
 11
177.73772231
 21
467.4091316023
  0
ARC
  5
379
100
AcDbEntity
  8
0
100
AcDbCircle
 62
7
  6
CONTINUOUS
 10
121.2208381079
 20
89.9052109974
 40
3.0000260977
100
AcDbArc
 50
180.0000000111
 51
249.999698806
  0
ARC
  5
37A
100
AcDbEntity
  8
0
100
AcDbCircle
 62
7
  6
CONTINUOUS
 10
121.6931480091
 20
50.4670286752
 40
1.4999885009
100
AcDbArc
 50
180.0000000016
 51
224.9997015572
  0
ARC
  5
37B
100
AcDbEntity
  8
0
100
AcDbCircle
 62
7
  6
CONTINUOUS
 10
120.6378550777
 20
48.490904611
 40
0.8920560009
100
AcDbArc
 50
135.0
 51
199.379487109
  0
ARC
  5
37C
100
AcDbEntity
  8
0
100
AcDbCircle
 62
7
  6
CONTINUOUS
 10
119.693156526
 20
54.4469371495
 40
0.5
100
AcDbArc
 50
0.0
 51
45.0
  0
ARC
  5
37D
100
AcDbEntity
  8
0
100
AcDbCircle
 62
7
  6
CONTINUOUS
 10
122.193122982
 20
50.6741382711
 40
0.499966456
100
AcDbArc
 50
180.0000000391
 51
225.001685337
  0
ARC
  5
37E
100
AcDbEntity
  8
0
100
AcDbCircle
 62
7
  6
CONTINUOUS
 10
103.27082231
 20
134.9091316023
 40
8.4975289205
100
AcDbArc
 50
176.6267146131
 51
3.3732853869
  0
ARC
  5
37F
100
AcDbEntity
  8
0
100
AcDbCircle
 62
7
  6
CONTINUOUS
 10
103.27082231
 20
134.9091316023
 40
4.2695732975
100
AcDbArc
 50
173.2743273706
 51
6.7256726295
  0
ARC
  5
380
100
AcDbEntity
  8
0
100
AcDbCircle
 62
7
  6
CONTINUOUS
 10
121.5708219725
 20
135.9091358898
 40
2.499998923
100
AcDbArc
 50
235.2015129616
 51
270.0000077347
  0
ARC
  5
381
100
AcDbEntity
  8
0
100
AcDbCircle
 62
7
  6
CONTINUOUS
 10
70.0120055197
 20
210.156936762
 40
2.2921548879
100
AcDbArc
 50
154.3951387041
 51
178.3706164038
  0
ARC
  5
382
100
AcDbEntity
  8
0
100
AcDbCircle
 62
7
  6
CONTINUOUS
 10
165.4507990403
 20
61.2652762285
 40
12.6052147019
100
AcDbArc
 50
114.9422608781
 51
128.9745604853
  0
ARC
  5
383
100
AcDbEntity
  8
0
100
AcDbCircle
 62
7
  6
CONTINUOUS
 10
173.9727064165
 20
53.5478742407
 40
10.0468542236
100
AcDbArc
 50
113.0572961497
 51
130.6942916877
  0
ARC
  5
384
100
AcDbEntity
  8
0
100
AcDbCircle
 62
7
  6
CONTINUOUS
 10
157.9667334022
 20
81.9707779684
 40
5.0276068774
100
AcDbArc
 50
217.5148365964
 51
221.0728321115
  0
ARC
  5
385
100
AcDbEntity
  8
0
100
AcDbCircle
 62
7
  6
CONTINUOUS
 10
156.4206744191
 20
104.109222584
 40
2.999832423
100
AcDbArc
 50
135.000000108
 51
154.3210691606
  0
ARC
  5
386
100
AcDbEntity
  8
0
100
AcDbCircle
 62
7
  6
CONTINUOUS
 10
143.1647352251
 20
81.6226426482
 40
2.7136212051
100
AcDbArc
 50
248.4281135206
 51
270.5292340064
  0
ARC
  5
387
100
AcDbEntity
  8
0
100
AcDbCircle
 62
7
  6
CONTINUOUS
 10
154.7635956438
 20
75.2379362545
 40
2.00000644
100
AcDbArc
 50
45.0000626268
 51
119.9998201326
  0
ARC
  5
388
100
AcDbEntity
  8
0
100
AcDbCircle
 62
7
  6
CONTINUOUS
 10
150.8019764097
 20
110.7584957748
 40
2.0
100
AcDbArc
 50
0.0
 51
90.0
  0
ARC
  5
389
100
AcDbEntity
  8
0
100
AcDbCircle
 62
7
  6
CONTINUOUS
 10
156.523396915
 20
80.6764100186
 40
1.6027523141
100
AcDbArc
 50
180.8783373443
 51
232.249615932
  0
ARC
  5
38A
100
AcDbEntity
  8
0
100
AcDbCircle
 62
7
  6
CONTINUOUS
 10
156.4208193089
 20
104.1091372052
 40
1.5
100
AcDbArc
 50
134.9999999999
 51
179.9991292843
  0
ARC
  5
38B
100
AcDbEntity
  8
0
100
AcDbCircle
 62
7
  6
CONTINUOUS
 10
126.9964367252
 20
45.1637063838
 40
1.4999635279
100
AcDbArc
 50
224.9997228822
 51
269.99999992
  0
ARC
  5
38C
100
AcDbEntity
  8
0
100
AcDbCircle
 62
7
  6
CONTINUOUS
 10
170.2838221848
 20
56.8276935612
 40
0.8920560009
100
AcDbArc
 50
135.0
 51
199.379487109
  0
ARC
  5
38D
100
AcDbEntity
  8
0
100
AcDbCircle
 62
7
  6
CONTINUOUS
 10
174.6800238825
 20
52.4314918635
 40
0.8920560009
100
AcDbArc
 50
250.6205128908
 51
315.0
  0
ARC
  5
38E
100
AcDbEntity
  8
0
100
AcDbCircle
 62
7
  6
CONTINUOUS
 10
125.0340567754
 20
44.0947029133
 40
0.8920560009
100
AcDbArc
 50
250.6205128908
 51
315.0
  0
ARC
  5
38F
100
AcDbEntity
  8
0
100
AcDbCircle
 62
7
  6
CONTINUOUS
 10
152.67082231
 20
106.9091331521
 40
0.5
100
AcDbArc
 50
0.0
 51
74.7929332782
  0
ARC
  5
390
100
AcDbEntity
  8
0
100
AcDbCircle
 62
7
  6
CONTINUOUS
 10
130.9763563723
 20
43.1637373033
 40
0.5
100
AcDbArc
 50
45.0
 51
90.0000000001
  0
ARC
  5
391
100
AcDbEntity
  8
0
100
AcDbCircle
 62
7
  6
CONTINUOUS
 10
127.2035574939
 20
45.66370376
 40
0.4999664568
100
AcDbArc
 50
224.9978981067
 51
270.0007646276
  0
ARC
  5
392
100
AcDbEntity
  8
0
100
AcDbCircle
 62
7
  6
CONTINUOUS
 10
153.4397544457
 20
177.7136559423
 40
91.7996997474
100
AcDbArc
 50
151.4918732166
 51
158.641365577
  0
ARC
  5
393
100
AcDbEntity
  8
0
100
AcDbCircle
 62
7
  6
CONTINUOUS
 10
127.6645522294
 20
132.4053126156
 40
1.0038253947
100
AcDbArc
 50
6.4739714755
 51
89.9274319173
  0
ARC
  5
394
100
AcDbEntity
  8
0
100
AcDbCircle
 62
7
  6
CONTINUOUS
 10
127.7009374453
 20
132.513890494
 40
0.8957532411
100
AcDbArc
 50
13.8019211746
 51
91.9263653128
  0
ARC
  5
395
100
AcDbEntity
  8
0
100
AcDbCircle
 62
7
  6
CONTINUOUS
 10
86.7584809395
 20
261.6737194788
 40
28.6328777139
100
AcDbArc
 50
104.388969714
 51
119.6059129607
  0
ARC
  5
396
100
AcDbEntity
  8
0
100
AcDbCircle
 62
7
  6
CONTINUOUS
 10
128.07082231
 20
348.9091369668
 40
4.0
100
AcDbArc
 50
90.0
 51
180.0
  0
ARC
  5
397
100
AcDbEntity
  8
0
100
AcDbCircle
 62
7
  6
CONTINUOUS
 10
176.5372929965
 20
418.7058706425
 40
2.4032609982
100
AcDbArc
 50
64.586355318
 51
89.9999940594
  0
ARC
  5
398
100
AcDbEntity
  8
0
100
AcDbCircle
 62
7
  6
CONTINUOUS
 10
169.9808003718
 20
346.2091316023
 40
2.4
100
AcDbArc
 50
89.9999999997
 51
120.0000000003
  0
ARC
  5
399
100
AcDbEntity
  8
0
100
AcDbCircle
 62
7
  6
CONTINUOUS
 10
174.3358506332
 20
422.3022716764
 40
2.393140806
100
AcDbArc
 50
208.7501120766
 51
269.9998701577
  0
ARC
  5
39A
100
AcDbEntity
  8
0
100
AcDbCircle
 62
7
  6
CONTINUOUS
 10
73.5483514602
 20
285.1942793864
 40
1.6622932491
100
AcDbArc
 50
124.2247675812
 51
158.5359358763
  0
ARC
  5
39B
100
AcDbEntity
  8
0
100
AcDbCircle
 62
7
  6
CONTINUOUS
 10
174.33772231
 20
422.3091316023
 40
1.2
100
AcDbArc
 50
180.0
 51
270.0
  0
ARC
  5
39C
100
AcDbEntity
  8
0
100
AcDbCircle
 62
7
  6
CONTINUOUS
 10
176.53772231
 20
418.7091316023
 40
1.2
100
AcDbArc
 50
0.0
 51
90.0
  0
ARC
  5
39D
100
AcDbEntity
  8
0
100
AcDbCircle
 62
7
  6
CONTINUOUS
 10
102.1089161503
 20
436.4315451694
 40
0.8621396743
100
AcDbArc
 50
92.3370171528
 51
187.1320830939
  0
ARC
  5
39E
100
AcDbEntity
  8
0
100
AcDbCircle
 62
7
  6
CONTINUOUS
 10
102.23772231
 20
377.5071805708
 40
0.8
100
AcDbArc
 50
180.0
 51
269.4999999999
  0
ARC
  5
39F
100
AcDbEntity
  8
0
100
AcDbCircle
 62
7
  6
CONTINUOUS
 10
97.23772231
 20
385.5641316023
 40
0.8
100
AcDbArc
 50
180.0
 51
269.9999999997
  0
ARC
  5
3A0
100
AcDbEntity
  8
0
100
AcDbCircle
 62
7
  6
CONTINUOUS
 10
97.23772231
 20
428.8332197458
 40
0.8000000001
100
AcDbArc
 50
90.3000000147
 51
179.9999999983
  0
ARC
  5
3A1
100
AcDbEntity
  8
0
100
AcDbCircle
 62
7
  6
CONTINUOUS
 10
123.03772231
 20
450.9641316023
 40
0.8
100
AcDbArc
 50
90.0
 51
180.0
  0
ARC
  5
3A2
100
AcDbEntity
  8
0
100
AcDbCircle
 62
7
  6
CONTINUOUS
 10
123.03772231
 20
363.5641316023
 40
0.8
100
AcDbArc
 50
180.0
 51
269.9999999998
  0
ARC
  5
3A3
100
AcDbEntity
  8
0
100
AcDbCircle
 62
7
  6
CONTINUOUS
 10
173.0755720559
 20
463.3977543568
 40
0.7425125001
100
AcDbArc
 50
136.4256277466
 51
178.2921961528
  0
ARC
  5
3A4
100
AcDbEntity
  8
0
100
AcDbCircle
 62
7
  6
CONTINUOUS
 10
173.0755581665
 20
456.4205030922
 40
0.7424984415
100
AcDbArc
 50
181.7073819825
 51
223.5747893486
  0
ARC
  5
3A5
100
AcDbEntity
  8
0
100
AcDbCircle
 62
7
  6
CONTINUOUS
 10
173.07031414
 20
456.4160198059
 40
0.7356090326
100
AcDbArc
 50
223.6033498014
 51
265.7054277949
  0
ARC
  5
3A6
100
AcDbEntity
  8
0
100
AcDbCircle
 62
7
  6
CONTINUOUS
 10
173.0703108659
 20
463.4022501727
 40
0.7356020187
100
AcDbArc
 50
94.2943371535
 51
136.3968564743
  0
ARC
  5
3A7
100
AcDbEntity
  8
0
100
AcDbCircle
 62
7
  6
CONTINUOUS
 10
159.5727985164
 20
347.0587123713
 40
0.7054221751
100
AcDbArc
 50
75.8499390101
 51
120.045402696
  0
ARC
  5
3A8
100
AcDbEntity
  8
0
100
AcDbCircle
 62
7
  6
CONTINUOUS
 10
159.5743314249
 20
347.0654522961
 40
0.698512028
100
AcDbArc
 50
31.3279170546
 51
75.8367116295
  0
ARC
  5
3A9
100
AcDbEntity
  8
0
100
AcDbCircle
 62
7
  6
CONTINUOUS
 10
91.48132231
 20
400.7641311678
 40
0.5
100
AcDbArc
 50
180.0
 51
270.0
  0
ARC
  5
3AA
100
AcDbEntity
  8
0
100
AcDbCircle
 62
7
  6
CONTINUOUS
 10
91.48132231
 20
428.1641320369
 40
0.5
100
AcDbArc
 50
90.0
 51
180.0
  0
ARC
  5
3AB
100
AcDbEntity
  8
0
100
AcDbCircle
 62
7
  6
CONTINUOUS
 10
79.3740523814
 20
289.8344551992
 40
0.4973825444
100
AcDbArc
 50
319.3560316062
 51
2.8363641009
  0
ARC
  5
3AC
100
AcDbEntity
  8
0
100
AcDbCircle
 62
7
  6
CONTINUOUS
 10
170.6387507537
 20
451.9836349297
 40
0.3010626215
100
AcDbArc
 50
134.1153683024
 51
150.6387481198
  0
ARC
  5
3AD
100
AcDbEntity
  8
0
100
AcDbCircle
 62
7
  6
CONTINUOUS
 10
170.6359793643
 20
451.9863795795
 40
0.2971629601
100
AcDbArc
 50
121.4366180173
 51
134.100112347
  0
ARC
  5
3AE
100
AcDbEntity
  8
0
100
AcDbCircle
 62
7
  6
CONTINUOUS
 10
72.8220465418
 20
282.6192102967
 40
0.199983311
100
AcDbArc
 50
92.9971428828
 51
171.9288531616
  0
ARC
  5
3AF
100
AcDbEntity
  8
0
100
AcDbCircle
 62
7
  6
CONTINUOUS
 10
72.8220465418
 20
260.1990529079
 40
0.199983311
100
AcDbArc
 50
188.0711468384
 51
267.0028571172
  0
ARC
  5
3B0
100
AcDbEntity
  8
0
100
AcDbCircle
 62
7
  6
CONTINUOUS
 10
223.6281595542
 20
141.0852854277
 40
24.6757914297
100
AcDbArc
 50
276.4629974347
 51
286.3644435988
  0
ARC
  5
3B1
100
AcDbEntity
  8
0
100
AcDbCircle
 62
7
  6
CONTINUOUS
 10
223.6413087555
 20
141.0224000701
 40
24.6120237328
100
AcDbArc
 50
253.6215079446
 51
269.9988675748
  0
ARC
  5
3B2
100
AcDbEntity
  8
0
100
AcDbCircle
 62
7
  6
CONTINUOUS
 10
223.6408155693
 20
141.0139049448
 40
24.6035286027
100
AcDbArc
 50
270.0000156974
 51
272.135092401
  0
ARC
  5
3B3
100
AcDbEntity
  8
0
100
AcDbCircle
 62
7
  6
CONTINUOUS
 10
223.6413918548
 20
140.9843569364
 40
24.5740149806
100
AcDbArc
 50
275.7335040893
 51
276.4588296759
  0
ARC
  5
3B4
100
AcDbEntity
  8
0
100
AcDbCircle
 62
7
  6
CONTINUOUS
 10
285.07082231
 20
102.4091316023
 40
3.6
100
AcDbArc
 50
218.8819413285
 51
321.2096315868
  0
ARC
  5
3B5
100
AcDbEntity
  8
0
100
AcDbCircle
 62
7
  6
CONTINUOUS
 10
285.0708228092
 20
102.4085052533
 40
2.7737720668
100
AcDbArc
 50
359.9999633454
 51
180.000036866
  0
ARC
  5
3B6
100
AcDbEntity
  8
0
100
AcDbCircle
 62
7
  6
CONTINUOUS
 10
285.0708223435
 20
354.9613655356
 40
5.0052837656
100
AcDbArc
 50
123.4251913773
 51
56.5748086227
  0
ARC
  5
3B7
100
AcDbEntity
  8
0
100
AcDbCircle
 62
7
  6
CONTINUOUS
 10
285.07082231
 20
360.4091316023
 40
3.455
100
AcDbArc
 50
206.5693535072
 51
333.3695790468
  0
ARC
  5
3B8
100
AcDbEntity
  8
0
100
AcDbCircle
 62
7
  6
CONTINUOUS
 10
285.0708223435
 20
360.4018377314
 40
2.7579338185
100
AcDbArc
 50
0.0016431475
 51
179.9983486822
  0
ARC
  5
3B9
100
AcDbEntity
  8
0
100
AcDbCircle
 62
7
  6
CONTINUOUS
 10
201.93772231
 20
366.3587941189
 40
2.4
100
AcDbArc
 50
0.0
 51
60.0
  0
ARC
  5
3BA
100
AcDbEntity
  8
0
100
AcDbCircle
 62
7
  6
CONTINUOUS
 10
180.13772231
 20
383.1019519254
 40
2.4
100
AcDbArc
 50
179.9999999994
 51
240.0000000001
  0
ARC
  5
3BB
100
AcDbEntity
  8
0
100
AcDbCircle
 62
7
  6
CONTINUOUS
 10
202.33772231
 20
349.4091316023
 40
2.0
100
AcDbArc
 50
270.0
 51
359.9999999998
  0
ARC
  5
3BC
100
AcDbEntity
  8
0
100
AcDbCircle
 62
7
  6
CONTINUOUS
 10
180.13772231
 20
383.1019519254
 40
1.2
100
AcDbArc
 50
180.0000000002
 51
240.0000000002
  0
ARC
  5
3BD
100
AcDbEntity
  8
0
100
AcDbCircle
 62
7
  6
CONTINUOUS
 10
201.93772231
 20
366.3587941189
 40
1.2
100
AcDbArc
 50
0.0
 51
59.9999999992
  0
ARC
  5
3BE
100
AcDbEntity
  8
0
100
AcDbCircle
 62
7
  6
CONTINUOUS
 10
202.33772231
 20
349.4091316023
 40
0.8
100
AcDbArc
 50
269.9999999999
 51
360.0
  0
ARC
  5
3BF
100
AcDbEntity
  8
0
100
AcDbCircle
 62
7
  6
CONTINUOUS
 10
180.6309095946
 20
464.0591316023
 40
0.2
100
AcDbArc
 50
0.0
 51
90.0
  0
ARC
  5
3C0
100
AcDbEntity
  8
0
100
AcDbCircle
 62
7
  6
CONTINUOUS
 10
180.6309095946
 20
455.7591316023
 40
0.2
100
AcDbArc
 50
270.0
 51
360.0
  0
SPLINE
  5
3C1
100
AcDbEntity
  8
0
100
AcDbSpline
 62
7
  6
CONTINUOUS
 70
0
 71
3
 72
11
 73
7
 74
0
 42
0.0000001
 43
0.0000001
 44
0.0000000001
 40
0.0
 40
0.0
 40
0.0
 40
0.0
 40
0.2498829893
 40
0.4999032097
 40
0.7499454595
 40
1.0
 40
1.0
 40
1.0
 40
1.0
 10
121.5414382394
 20
44.998286075
 30
0.0
 10
121.7367400717
 20
44.8029842427
 30
0.0
 10
122.1678406757
 20
44.4527501575
 30
0.0
 10
122.8699182016
 20
44.0098181928
 30
0.0
 10
123.6161860749
 20
43.6448194885
 30
0.0
 10
124.1368096991
 20
43.4555752653
 30
0.0
 10
124.4011797904
 20
43.3749598428
 30
0.0
  0
SPLINE
  5
3C2
100
AcDbEntity
  8
0
100
AcDbSpline
 62
7
  6
CONTINUOUS
 70
0
 71
3
 72
11
 73
7
 74
0
 42
0.0000001
 43
0.0000001
 44
0.0000000001
 40
0.0
 40
0.0
 40
0.0
 40
0.0
 40
0.2500545405
 40
0.5000967903
 40
0.7501170106
 40
1.0
 40
1.0
 40
1.0
 40
1.0
 10
119.9181120072
 20
47.858027626
 30
0.0
 10
119.9987274297
 20
47.5936575348
 30
0.0
 10
120.1879716529
 20
47.0730339106
 30
0.0
 10
120.5529703571
 20
46.3267660373
 30
0.0
 10
120.9959023218
 20
45.6246885114
 30
0.0
 10
121.346136407
 20
45.1935879074
 30
0.0
 10
121.5414382394
 20
44.998286075
 30
0.0
  0
SPLINE
  5
3C3
100
AcDbEntity
  8
0
100
AcDbSpline
 62
7
  6
CONTINUOUS
 70
0
 71
3
 72
11
 73
7
 74
0
 42
0.0000001
 43
0.0000001
 44
0.0000000001
 40
0.0
 40
0.0
 40
0.0
 40
0.0
 40
0.2498829893
 40
0.4999032097
 40
0.7499454595
 40
1.0
 40
1.0
 40
1.0
 40
1.0
 10
171.1874053465
 20
53.3350750252
 30
0.0
 10
171.3827071788
 20
53.1397731928
 30
0.0
 10
171.8138077828
 20
52.7895391077
 30
0.0
 10
172.5158853087
 20
52.346607143
 30
0.0
 10
173.2621531821
 20
51.9816084387
 30
0.0
 10
173.7827768062
 20
51.7923642155
 30
0.0
 10
174.0471468975
 20
51.711748793
 30
0.0
  0
SPLINE
  5
3C4
100
AcDbEntity
  8
0
100
AcDbSpline
 62
7
  6
CONTINUOUS
 70
0
 71
3
 72
11
 73
7
 74
0
 42
0.0000001
 43
0.0000001
 44
0.0000000001
 40
0.0
 40
0.0
 40
0.0
 40
0.0
 40
0.2500545405
 40
0.5000967903
 40
0.7501170106
 40
1.0
 40
1.0
 40
1.0
 40
1.0
 10
169.5640791143
 20
56.1948165762
 30
0.0
 10
169.6446945368
 20
55.930446485
 30
0.0
 10
169.83393876
 20
55.4098228608
 30
0.0
 10
170.1989374642
 20
54.6635549875
 30
0.0
 10
170.641869429
 20
53.9614774615
 30
0.0
 10
170.9921035141
 20
53.5303768576
 30
0.0
 10
171.1874053465
 20
53.3350750252
 30
0.0
  0
SPLINE
  5
3C5
100
AcDbEntity
  8
0
100
AcDbSpline
 62
7
  6
CONTINUOUS
 70
0
 71
3
 72
8
 73
4
 74
0
 42
0.0000001
 43
0.0000001
 44
0.0000000001
 40
0.0
 40
0.0
 40
0.0
 40
0.0
 40
1.0
 40
1.0
 40
1.0
 40
1.0
 10
170.3371518098
 20
451.9814105239
 30
0.0
 10
170.3371518098
 20
452.0330388006
 30
0.0
 10
170.3510944324
 20
452.086227157
 30
0.0
 10
170.3763609501
 20
452.1312502848
 30
0.0
  0
SPLINE
  5
3C6
100
AcDbEntity
  8
0
100
AcDbSpline
 62
7
  6
CONTINUOUS
 70
0
 71
3
 72
8
 73
4
 74
0
 42
0.0000001
 43
0.0000001
 44
0.0000000001
 40
0.0
 40
0.0
 40
0.0
 40
0.0
 40
1.0
 40
1.0
 40
1.0
 40
1.0
 10
170.4809925266
 20
452.23992426
 30
0.0
 10
170.5253183701
 20
452.2669667867
 30
0.0
 10
170.5785013658
 20
452.2827671387
 30
0.0
 10
170.6304115664
 20
452.2839544589
 30
0.0
  0
SPLINE
  5
3C7
100
AcDbEntity
  8
0
100
AcDbSpline
 62
7
  6
CONTINUOUS
 70
0
 71
3
 72
10
 73
6
 74
0
 42
0.0000001
 43
0.0000001
 44
0.0000000001
 40
0.0
 40
0.0
 40
0.0
 40
0.0
 40
0.588549256
 40
0.8237109279
 40
1.0
 40
1.0
 40
1.0
 40
1.0
 10
82.8645673458
 20
347.1091475054
 30
0.0
 10
82.6317319091
 20
347.1117598838
 30
0.0
 10
82.3043903237
 20
347.1356498773
 30
0.0
 10
81.918260819
 20
347.2225312863
 30
0.0
 10
81.7642419824
 20
347.2797270088
 30
0.0
 10
81.7035244895
 20
347.314047316
 30
0.0
  0
SPLINE
  5
3C8
100
AcDbEntity
  8
0
100
AcDbSpline
 62
7
  6
CONTINUOUS
 70
0
 71
3
 72
9
 73
5
 74
0
 42
0.0000001
 43
0.0000001
 44
0.0000000001
 40
0.0
 40
0.0
 40
0.0
 40
0.0
 40
0.584477862
 40
1.0
 40
1.0
 40
1.0
 40
1.0
 10
81.7035244895
 20
347.3138639618
 30
0.0
 10
81.4472606069
 20
347.4929441794
 30
0.0
 10
81.0259263986
 20
347.8217232829
 30
0.0
 10
80.6741915214
 20
348.2429928945
 30
0.0
 10
80.5830114916
 20
348.4456906585
 30
0.0
  0
ENDSEC
  0
SECTION
  2
OBJECTS
  0
DICTIONARY
  5
C
100
AcDbDictionary
280
0
281
1
  3
ACAD_GROUP
350
D
  3
ACAD_MLINESTYLE
350
17
  3
ACAD_LAYOUT
350
1A
  3
ACAD_PLOTSETTINGS
350
19
  3
ACAD_PLOTSTYLENAME
350
E
  0
DICTIONARY
  5
D
102
{ACAD_REACTORS
330
C
102
}
100
AcDbDictionary
280
0
281
1
  0
ACDBDICTIONARYWDFLT
  5
E
102
{ACAD_REACTORS
330
C
102
}
100
AcDbDictionary
281
1
  3
Normal
350
F
100
AcDbDictionaryWithDefault
340
F
  0
DICTIONARY
  5
17
102
{ACAD_REACTORS
330
C
102
}
100
AcDbDictionary
280
0
281
1
  3
Standard
350
18
  0
DICTIONARY
  5
19
102
{ACAD_REACTORS
330
C
102
}
100
AcDbDictionary
281
1
  0
DICTIONARY
  5
1A
102
{ACAD_REACTORS
330
C
102
}
100
AcDbDictionary
281
1
  3
Model
350
3C9
  3
Layout1
350
3CA
  0
ACDBPLACEHOLDER
  5
F
102
{ACAD_REACTORS
330
E
102
}
  0
MLINESTYLE
  5
18
102
{ACAD_REACTORS
330
17
102
}
100
AcDbMlineStyle
  2
STANDARD
 70
0
  3

 62
256
 51
90.0
 52
90.0
 71
2
 49
0.5
 62
256
  6
BYLAYER
 49
-0.5
 62
256
  6
BYLAYER
  0
LAYOUT
  5
3C9
102
{ACAD_REACTORS
330
1A
102
}
100
AcDbPlotSettings
  1

  2
none_device
  4

  6

 40
0.0
 41
0.0
 42
0.0
 43
0.0
 44
210.0
 45
297.0
 46
0.0
 47
0.0
 48
0.0
 49
0.0
140
0.0
141
0.0
142
1.0
143
1.0
 70
1024
 72
1
 73
0
 74
0
  7

 75
0
147
1.0
148
0.0
149
0.0
100
AcDbLayout
  1
Model
 70
0
 71
0
 10
0.0
 20
0.0
 11
210.0
 21
297.0
 12
0.0
 22
0.0
 32
0.0
 14
0.0
 24
0.0
 34
0.0
 15
0.0
 25
0.0
 35
0.0
146
0.0
 13
0.0
 23
0.0
 33
0.0
 16
1.0
 26
0.0
 36
0.0
 17
0.0
 27
1.0
 37
0.0
 76
0
330
210
345
0
346
0
  0
LAYOUT
  5
3CA
102
{ACAD_REACTORS
330
1A
102
}
100
AcDbPlotSettings
  1

  2
none_device
  4

  6

 40
0.0
 41
0.0
 42
0.0
 43
0.0
 44
210.0
 45
297.0
 46
0.0
 47
0.0
 48
0.0
 49
0.0
140
0.0
141
0.0
142
1.0
143
1.0
 70
0
 72
1
 73
0
 74
0
  7

 75
0
147
1.0
148
0.0
149
0.0
100
AcDbLayout
  1
Layout1
 70
0
 71
1
 10
0.0
 20
0.0
 11
210.0
 21
297.0
 12
0.0
 22
0.0
 32
0.0
 14
0.0
 24
0.0
 34
0.0
 15
0.0
 25
0.0
 35
0.0
146
0.0
 13
0.0
 23
0.0
 33
0.0
 16
1.0
 26
0.0
 36
0.0
 17
0.0
 27
1.0
 37
0.0
 76
0
330
211
345
0
346
0
  0
ENDSEC
  0
EOF
