999
DXF file: C:\Users\sesa63760\Dev\_Creo\CAD\MCADID0005795_3D-CAD\mcadid0005795_3d-simplified_2.dxf
999
Pro/ENGINEER 2019471 by Parametric Technology Corporation
  0
SECTION
  2
HEADER
  9
$ACADVER
  1
AC1024
  9
$DWGCODEPAGE
  3
ANSI_1252
  9
$EXTMAX
 10
37.6307959772
 20
53.2206971678
 30
0.0
  9
$EXTMIN
 10
0.0
 20
0.0
 30
0.0
  9
$LIMMIN
 10
0.0
 20
0.0
  9
$LIMMAX
 10
37.6307959772
 20
53.2206971678
  9
$VIEWCTR
 10
18.8153979886
 20
26.6103485839
  9
$VIEWSIZE
 40
53.2206971678
  9
$CLAYER
  8
0
  9
$LTSCALE
 40
3.4692010006
  9
$CELTYPE
  6
BYLAYER
  9
$DIMSCALE
 40
1.0
  9
$DIMASZ
 40
0.4479856664
  9
$DIMEXO
 40
1.0
  9
$DIMDLI
 40
2.3969025095
  9
$DIMEXE
 40
1.0
  9
$DIMCEN
 40
0.5676874365
  9
$DIMLFAC
 40
1.0
  9
$DIMBLK
  1
_FILLED
  9
$DIMALT
 70
0
  9
$DIMALTF
 40
0.0393700787
  9
$DIMTXT
 40
0.627179933
  9
$DIMTOL
 70
1
  9
$DIMLIM
 70
0
  9
$DIMTFAC
 40
1.0
  9
$DIMTP
 40
0.01
  9
$DIMTM
 40
0.01
  9
$DIMGAP
 40
0.625
  9
$DIMDSEP
 70
46
  9
$AUNITS
 70
0
  9
$PDMODE
 70
3
  9
$PDSIZE
 40
0.3125
  9
$HANDSEED
  5
2AD
  9
$TILEMODE
 70
1
  9
$MEASUREMENT
 70
1
  9
$INSUNITS
 70
4
  0
ENDSEC
  0
SECTION
  2
CLASSES
  0
CLASS
  1
ACDBDICTIONARYWDFLT
  2
AcDbDictionaryWithDefault
  3
AutoCAD 2000
 90
0
 91
1
280
0
281
0
  0
CLASS
  1
ACDBPLACEHOLDER
  2
AcDbPlaceHolder
  3
AutoCAD 2000
 90
0
 91
1
280
0
281
0
  0
CLASS
  1
LAYOUT
  2
AcDbLayout
  3
AutoCAD 2000
 90
0
 91
0
280
0
281
0
  0
ENDSEC
  0
SECTION
  2
TABLES
  0
TABLE
  2
VPORT
  5
8
100
AcDbSymbolTable
 70
2
  0
VPORT
  5
1F4
100
AcDbSymbolTableRecord
100
AcDbViewportTableRecord
  2
*ACTIVE
 70
0
 10
0.0
 20
0.0
 11
1.0
 21
1.0
 12
18.8153979886
 22
26.6103485839
 13
0.0
 23
0.0
 14
1.0
 24
1.0
 15
0.0
 25
0.0
 16
0.0
 26
0.0
 36
1.0
 17
0.0
 27
0.0
 37
0.0
 40
53.2206971678
 41
0.7070707071
 42
50.0
 43
0.0
 44
0.0
 50
0.0
 51
0.0
 71
0
 72
100
 73
1
 74
1
 75
0
 76
0
 77
0
 78
0
  0
ENDTAB
  0
TABLE
  2
LTYPE
  5
5
100
AcDbSymbolTable
 70
6
  0
LTYPE
  5
14
100
AcDbSymbolTableRecord
100
AcDbLinetypeTableRecord
  2
BYBLOCK
 70
0
  3

 72
65
 73
0
 40
0.0
  0
LTYPE
  5
15
100
AcDbSymbolTableRecord
100
AcDbLinetypeTableRecord
  2
BYLAYER
 70
0
  3

 72
65
 73
0
 40
0.0
  0
LTYPE
  5
16
100
AcDbSymbolTableRecord
100
AcDbLinetypeTableRecord
  2
CONTINUOUS
 70
64
  3
Solid line
 72
65
 73
0
 40
0.0
  0
LTYPE
  5
1F5
100
AcDbSymbolTableRecord
100
AcDbLinetypeTableRecord
  2
CENTER
 70
64
  3
____ _ ____ _ ____ _ ____ _ ____ _ ____ _ ____
 72
65
 73
4
 40
0.6
 49
0.375
 74
0
 49
-0.075
 74
0
 49
0.075
 74
0
 49
-0.075
 74
0
  0
LTYPE
  5
1F6
100
AcDbSymbolTableRecord
100
AcDbLinetypeTableRecord
  2
HIDDEN
 70
64
  3
- - - - - - - - - - - - - - - - - - - -
 72
65
 73
2
 40
0.2
 49
0.1
 74
0
 49
-0.1
 74
0
  0
LTYPE
  5
1F7
100
AcDbSymbolTableRecord
100
AcDbLinetypeTableRecord
  2
PHANTOM
 70
64
  3
_____ _ _ _____ _ _ _____ _ _ _____
 72
65
 73
6
 40
0.8
 49
0.45
 74
0
 49
-0.05
 74
0
 49
0.1
 74
0
 49
-0.05
 74
0
 49
0.1
 74
0
 49
-0.05
 74
0
  0
LTYPE
  5
1F8
100
AcDbSymbolTableRecord
100
AcDbLinetypeTableRecord
  2
DOT
 70
64
  3
. . . . . . . . . . . . . . . . . . . .
 72
65
 73
2
 40
0.2
 49
0.1
 74
0
 49
-0.1
 74
0
  0
LTYPE
  5
1F9
100
AcDbSymbolTableRecord
100
AcDbLinetypeTableRecord
  2
DASHED
 70
64
  3
- - - - - - - - - - - - - - - - - - - -
 72
65
 73
2
 40
0.2
 49
0.1
 74
0
 49
-0.1
 74
0
  0
ENDTAB
  0
TABLE
  2
LAYER
  5
2
100
AcDbSymbolTable
 70
36
  0
LAYER
  5
10
100
AcDbSymbolTableRecord
100
AcDbLayerTableRecord
  2
0
 70
0
 62
7
  6
CONTINUOUS
370
-3
390
F
  0
LAYER
  5
1FA
100
AcDbSymbolTableRecord
100
AcDbLayerTableRecord
  2
DEFAULT_1
 70
0
 62
7
  6
CENTER
370
-3
390
F
  0
LAYER
  5
1FB
100
AcDbSymbolTableRecord
100
AcDbLayerTableRecord
  2
DEFAULT_2
 70
0
 62
7
  6
HIDDEN
370
-3
390
F
  0
LAYER
  5
1FC
100
AcDbSymbolTableRecord
100
AcDbLayerTableRecord
  2
DEFAULT_3
 70
0
 62
7
  6
PHANTOM
370
-3
390
F
  0
LAYER
  5
1FD
100
AcDbSymbolTableRecord
100
AcDbLayerTableRecord
  2
00_COMPONENTS
 70
0
 62
7
  6
CONTINUOUS
370
-3
390
F
  0
LAYER
  5
1FE
100
AcDbSymbolTableRecord
100
AcDbLayerTableRecord
  2
01_1_DEFAULT_DATUMS
 70
0
 62
7
  6
CONTINUOUS
370
-3
390
F
  0
LAYER
  5
1FF
100
AcDbSymbolTableRecord
100
AcDbLayerTableRecord
  2
01_PLANES
 70
0
 62
7
  6
CONTINUOUS
370
-3
390
F
  0
LAYER
  5
200
100
AcDbSymbolTableRecord
100
AcDbLayerTableRecord
  2
02_COORD_SYS
 70
0
 62
7
  6
CONTINUOUS
370
-3
390
F
  0
LAYER
  5
201
100
AcDbSymbolTableRecord
100
AcDbLayerTableRecord
  2
03_AXES
 70
0
 62
7
  6
CONTINUOUS
370
-3
390
F
  0
LAYER
  5
202
100
AcDbSymbolTableRecord
100
AcDbLayerTableRecord
  2
04_POINTS
 70
0
 62
7
  6
CONTINUOUS
370
-3
390
F
  0
LAYER
  5
203
100
AcDbSymbolTableRecord
100
AcDbLayerTableRecord
  2
05_CURVES
 70
0
 62
7
  6
CONTINUOUS
370
-3
390
F
  0
LAYER
  5
204
100
AcDbSymbolTableRecord
100
AcDbLayerTableRecord
  2
06_SURFS
 70
0
 62
7
  6
CONTINUOUS
370
-3
390
F
  0
LAYER
  5
205
100
AcDbSymbolTableRecord
100
AcDbLayerTableRecord
  2
07_COSMETICS
 70
0
 62
7
  6
CONTINUOUS
370
-3
390
F
  0
LAYER
  5
206
100
AcDbSymbolTableRecord
100
AcDbLayerTableRecord
  2
10_NOTES
 70
0
 62
7
  6
CONTINUOUS
370
-3
390
F
  0
LAYER
  5
207
100
AcDbSymbolTableRecord
100
AcDbLayerTableRecord
  2
11_NOTES_PUB
 70
0
 62
7
  6
CONTINUOUS
370
-3
390
F
  0
LAYER
  5
208
100
AcDbSymbolTableRecord
100
AcDbLayerTableRecord
  2
13_REF_GTOL
 70
0
 62
7
  6
CONTINUOUS
370
-3
390
F
  0
LAYER
  5
209
100
AcDbSymbolTableRecord
100
AcDbLayerTableRecord
  2
16_MISC
 70
0
 62
7
  6
CONTINUOUS
370
-3
390
F
  0
LAYER
  5
20A
100
AcDbSymbolTableRecord
100
AcDbLayerTableRecord
  2
17_NO_PRINT
 70
0
 62
7
  6
CONTINUOUS
370
-3
390
F
  0
LAYER
  5
20B
100
AcDbSymbolTableRecord
100
AcDbLayerTableRecord
  2
18_DATUM_CAMS_JOINTS
 70
0
 62
7
  6
CONTINUOUS
370
-3
390
F
  0
LAYER
  5
20C
100
AcDbSymbolTableRecord
100
AcDbLayerTableRecord
  2
19_DATUM_FUNCTIONAL
 70
0
 62
7
  6
CONTINUOUS
370
-3
390
F
  0
LAYER
  5
20D
100
AcDbSymbolTableRecord
100
AcDbLayerTableRecord
  2
20_DATUM_KINEMATIC_SCHEME
 70
0
 62
7
  6
CONTINUOUS
370
-3
390
F
  0
ENDTAB
  0
TABLE
  2
STYLE
  5
3
100
AcDbSymbolTable
 70
1
  0
STYLE
  5
11
100
AcDbSymbolTableRecord
100
AcDbTextStyleTableRecord
  2
STANDARD
 70
0
 40
0.0
 41
1.0
 50
0.0
 71
0
 42
0.2
  3
ARIAL.TTF
  4

  0
STYLE
  5
20E
100
AcDbSymbolTableRecord
100
AcDbTextStyleTableRecord
  2
TEXTSTYLE_1
 70
0
 40
0.0
 41
0.8
 50
0.0
 71
0
 42
0.2
  3
gdt
  4

  0
ENDTAB
  0
TABLE
  2
VIEW
  5
6
100
AcDbSymbolTable
 70
0
  0
ENDTAB
  0
TABLE
  2
UCS
  5
7
100
AcDbSymbolTable
 70
0
  0
ENDTAB
  0
TABLE
  2
APPID
  5
9
100
AcDbSymbolTable
 70
1
  0
APPID
  5
20F
100
AcDbSymbolTableRecord
100
AcDbRegAppTableRecord
  2
ACAD
 70
0
  0
ENDTAB
  0
TABLE
  2
BLOCK_RECORD
  5
1
100
AcDbSymbolTable
 70
0
  0
BLOCK_RECORD
  5
210
100
AcDbSymbolTableRecord
100
AcDbBlockTableRecord
  2
*Model_Space
  0
BLOCK_RECORD
  5
211
100
AcDbSymbolTableRecord
100
AcDbBlockTableRecord
  2
*Paper_Space
  0
BLOCK_RECORD
  5
212
100
AcDbSymbolTableRecord
100
AcDbBlockTableRecord
  2
_FILLED
  0
ENDTAB
  0
TABLE
  2
DIMSTYLE
  5
A
100
AcDbSymbolTable
 70
1
100
AcDbDimStyleTable
 71
0
  0
DIMSTYLE
105
213
100
AcDbSymbolTableRecord
100
AcDbDimStyleTableRecord
  2
STANDARD
 70
0
  3

  4

 40
1.0
 41
0.4479856664
 42
1.0
 43
0.38
 44
1.0
 45
0.0
 46
0.0
 47
0.01
 48
0.01
140
0.627179933
141
0.09
142
0.0
143
25.4
144
1.0
145
0.0
146
1.0
147
0.625
 71
1
 72
0
 73
0
 74
0
 75
0
 76
0
 77
1
 78
8
 79
2
170
0
171
1
172
0
173
0
174
0
175
0
176
0
177
0
178
0
270
2
179
2
271
2
272
2
273
2
274
2
275
0
280
0
281
0
282
0
283
1
284
8
285
0
286
0
287
3
288
0
340
11
278
46
341
212
342
212
343
212
344
212
  0
ENDTAB
  0
ENDSEC
  0
SECTION
  2
BLOCKS
  0
BLOCK
  5
20
100
AcDbEntity
  8
0
100
AcDbBlockBegin
  2
*Model_Space
 70
0
 10
0.0
 20
0.0
 30
0.0
  3
*Model_Space
  1

  0
ENDBLK
  5
21
100
AcDbEntity
  8
0
100
AcDbBlockEnd
  0
BLOCK
  5
1C
100
AcDbEntity
  8
0
100
AcDbBlockBegin
  2
*Paper_Space
 70
0
 10
0.0
 20
0.0
 30
0.0
  3
*Paper_Space
  1

  0
ENDBLK
  5
1D
100
AcDbEntity
  8
0
100
AcDbBlockEnd
  0
BLOCK
  5
214
100
AcDbEntity
  8
0
100
AcDbBlockBegin
  2
_FILLED
 70
64
 10
0.0
 20
0.0
  3
_FILLED
  1

  0
SOLID
  5
215
100
AcDbEntity
  8
0
  6
BYBLOCK
 62
0
100
AcDbTrace
 10
0.0
 20
0.0
 11
-1.0
 21
0.25
 12
-1.0
 22
-0.25
 13
-1.0
 23
-0.25
  0
ENDBLK
  5
216
100
AcDbEntity
  8
0
  6
BYBLOCK
 62
0
100
AcDbBlockEnd
  0
ENDSEC
  0
SECTION
  2
ENTITIES
  0
LINE
  5
217
100
AcDbEntity
  8
0
100
AcDbLine
 62
7
  6
BYLAYER
 10
22.0259644374
 20
3.7705309024
 11
16.1259644374
 21
3.7705309024
  0
LINE
  5
218
100
AcDbEntity
  8
0
100
AcDbLine
 62
7
  6
BYLAYER
 10
15.3259644374
 20
5.5547414287
 11
17.3095885419
 21
5.5547414287
  0
LINE
  5
219
100
AcDbEntity
  8
0
100
AcDbLine
 62
7
  6
BYLAYER
 10
20.0413897425
 20
5.5547414287
 11
22.8259644374
 21
5.5547414287
  0
LINE
  5
21A
100
AcDbEntity
  8
0
100
AcDbLine
 62
7
  6
BYLAYER
 10
21.3025616018
 20
6.6046144098
 11
21.0282027148
 21
6.6046144098
  0
LINE
  5
21B
100
AcDbEntity
  8
0
100
AcDbLine
 62
7
  6
BYLAYER
 10
16.1670919183
 20
6.9208305228
 11
12.4259644374
 21
8.6547414287
  0
LINE
  5
21C
100
AcDbEntity
  8
0
100
AcDbLine
 62
7
  6
BYLAYER
 10
12.4259644374
 20
8.6547414287
 11
10.4259644374
 21
8.6547414287
  0
LINE
  5
21D
100
AcDbEntity
  8
0
100
AcDbLine
 62
7
  6
BYLAYER
 10
27.7259644374
 20
9.6547414287
 11
25.7259644374
 21
9.6547414287
  0
LINE
  5
21E
100
AcDbEntity
  8
0
100
AcDbLine
 62
7
  6
BYLAYER
 10
34.0259644374
 20
10.1547414287
 11
27.7259644374
 21
10.1547414287
  0
LINE
  5
21F
100
AcDbEntity
  8
0
100
AcDbLine
 62
7
  6
BYLAYER
 10
10.4259644374
 20
10.1547414287
 11
4.1259644374
 21
10.1547414287
  0
LINE
  5
220
100
AcDbEntity
  8
0
100
AcDbLine
 62
7
  6
BYLAYER
 10
33.9009644374
 20
10.3547414287
 11
24.1009644374
 21
10.3547414287
  0
LINE
  5
221
100
AcDbEntity
  8
0
100
AcDbLine
 62
7
  6
BYLAYER
 10
23.9759644374
 20
10.3547414287
 11
14.1759644374
 21
10.3547414287
  0
LINE
  5
222
100
AcDbEntity
  8
0
100
AcDbLine
 62
7
  6
BYLAYER
 10
14.0509644374
 20
10.3547414287
 11
4.2509644374
 21
10.3547414287
  0
LINE
  5
223
100
AcDbEntity
  8
0
100
AcDbLine
 62
7
  6
BYLAYER
 10
4.1259644374
 20
42.8547414287
 11
4.1259644374
 21
10.1547414287
  0
LINE
  5
224
100
AcDbEntity
  8
0
100
AcDbLine
 62
7
  6
BYLAYER
 10
4.2509644374
 20
42.3547414287
 11
4.2509644374
 21
10.3547414287
  0
LINE
  5
225
100
AcDbEntity
  8
0
100
AcDbLine
 62
7
  6
BYLAYER
 10
4.4109644374
 20
49.2547414287
 11
4.4109644374
 21
42.8547414287
  0
LINE
  5
226
100
AcDbEntity
  8
0
100
AcDbLine
 62
7
  6
BYLAYER
 10
34.0259644374
 20
10.9347414287
 11
33.9009644374
 21
10.9347414287
  0
LINE
  5
227
100
AcDbEntity
  8
0
100
AcDbLine
 62
7
  6
BYLAYER
 10
24.1009644374
 20
10.9347414287
 11
23.9759644374
 21
10.9347414287
  0
LINE
  5
228
100
AcDbEntity
  8
0
100
AcDbLine
 62
7
  6
BYLAYER
 10
14.1759644374
 20
10.9347414287
 11
14.0509644374
 21
10.9347414287
  0
LINE
  5
229
100
AcDbEntity
  8
0
100
AcDbLine
 62
7
  6
BYLAYER
 10
4.2509644374
 20
10.9347414287
 11
4.1259644374
 21
10.9347414287
  0
LINE
  5
22A
100
AcDbEntity
  8
0
100
AcDbLine
 62
7
  6
BYLAYER
 10
33.9009644374
 20
11.8547414287
 11
24.1009644374
 21
11.8547414287
  0
LINE
  5
22B
100
AcDbEntity
  8
0
100
AcDbLine
 62
7
  6
BYLAYER
 10
23.9759644374
 20
11.8547414287
 11
14.1759644374
 21
11.8547414287
  0
LINE
  5
22C
100
AcDbEntity
  8
0
100
AcDbLine
 62
7
  6
BYLAYER
 10
14.0509644374
 20
11.8547414287
 11
4.2509644374
 21
11.8547414287
  0
LINE
  5
22D
100
AcDbEntity
  8
0
100
AcDbLine
 62
7
  6
BYLAYER
 10
14.0509644374
 20
13.0547414287
 11
14.1759644374
 21
13.0547414287
  0
LINE
  5
22E
100
AcDbEntity
  8
0
100
AcDbLine
 62
7
  6
BYLAYER
 10
23.9759644374
 20
13.0547414287
 11
24.1009644374
 21
13.0547414287
  0
LINE
  5
22F
100
AcDbEntity
  8
0
100
AcDbLine
 62
7
  6
BYLAYER
 10
6.9109644374
 20
42.8547414287
 11
6.9109644374
 21
49.2547414287
  0
LINE
  5
230
100
AcDbEntity
  8
0
100
AcDbLine
 62
7
  6
BYLAYER
 10
14.0509644374
 20
14.2547414287
 11
14.1759644374
 21
14.2547414287
  0
LINE
  5
231
100
AcDbEntity
  8
0
100
AcDbLine
 62
7
  6
BYLAYER
 10
23.9759644374
 20
14.2547414287
 11
24.1009644374
 21
14.2547414287
  0
LINE
  5
232
100
AcDbEntity
  8
0
100
AcDbLine
 62
7
  6
BYLAYER
 10
10.4259644374
 20
10.1547414287
 11
10.4259644374
 21
8.6547414287
  0
LINE
  5
233
100
AcDbEntity
  8
0
100
AcDbLine
 62
7
  6
BYLAYER
 10
4.1259644374
 20
19.1547414287
 11
4.2509644374
 21
19.1547414287
  0
LINE
  5
234
100
AcDbEntity
  8
0
100
AcDbLine
 62
7
  6
BYLAYER
 10
33.9009644374
 20
19.1547414287
 11
34.0259644374
 21
19.1547414287
  0
LINE
  5
235
100
AcDbEntity
  8
0
100
AcDbLine
 62
7
  6
BYLAYER
 10
12.3259644374
 20
7.5705309024
 11
12.3259644374
 21
8.6547414287
  0
LWPOLYLINE
  5
236
100
AcDbEntity
  8
0
100
AcDbPolyline
 62
7
  6
BYLAYER
 90
3
 70
0
 10
21.3388464466
 20
8.86301356
 10
20.8151280914
 20
9.9412996748
 10
20.2917150556
 20
10.3547414287
  0
LINE
  5
237
100
AcDbEntity
  8
0
100
AcDbLine
 62
7
  6
BYLAYER
 10
14.0509644374
 20
10.3547414287
 11
14.0509644374
 21
42.3547414287
  0
LINE
  5
238
100
AcDbEntity
  8
0
100
AcDbLine
 62
7
  6
BYLAYER
 10
14.1759644374
 20
42.3547414287
 11
14.1759644374
 21
10.3547414287
  0
LINE
  5
239
100
AcDbEntity
  8
0
100
AcDbLine
 62
7
  6
BYLAYER
 10
14.8259644374
 20
7.5424066592
 11
14.8259644374
 21
6.0547414287
  0
LINE
  5
23A
100
AcDbEntity
  8
0
100
AcDbLine
 62
7
  6
BYLAYER
 10
34.0259644374
 20
22.6047414287
 11
33.9009644374
 21
22.6047414287
  0
LINE
  5
23B
100
AcDbEntity
  8
0
100
AcDbLine
 62
7
  6
BYLAYER
 10
4.2509644374
 20
22.6047414287
 11
4.1259644374
 21
22.6047414287
  0
LINE
  5
23C
100
AcDbEntity
  8
0
100
AcDbLine
 62
7
  6
BYLAYER
 10
15.9439611605
 20
8.2706671064
 11
15.9439611605
 21
7.8365466623
  0
LWPOLYLINE
  5
23D
100
AcDbEntity
  8
0
100
AcDbPolyline
 62
7
  6
BYLAYER
 90
5
 70
0
 10
15.9439694536
 20
7.8365466627
 10
16.0110303486
 20
8.4288931159
 10
16.5347487039
 20
9.5071792306
 10
17.4834859213
 20
10.2565827655
 10
17.9175209988
 20
10.3547414287
  0
LINE
  5
23E
100
AcDbEntity
  8
0
100
AcDbLine
 62
7
  6
BYLAYER
 10
20.6749383976
 20
10.3547414287
 11
20.6749383976
 21
10.0520349238
  0
LINE
  5
23F
100
AcDbEntity
  8
0
100
AcDbLine
 62
7
  6
BYLAYER
 10
21.4059073416
 20
8.2706671069
 11
21.3388464466
 21
8.86301356
  0
LINE
  5
240
100
AcDbEntity
  8
0
100
AcDbLine
 62
7
  6
BYLAYER
 10
21.4059156347
 20
8.2706671064
 11
21.4059156347
 21
7.8365466623
  0
LINE
  5
241
100
AcDbEntity
  8
0
100
AcDbLine
 62
7
  6
BYLAYER
 10
34.0259644374
 20
29.5233000823
 11
33.9009644374
 21
29.5233000823
  0
LINE
  5
242
100
AcDbEntity
  8
0
100
AcDbLine
 62
7
  6
BYLAYER
 10
4.2509644374
 20
29.5233000823
 11
4.1259644374
 21
29.5233000823
  0
LINE
  5
243
100
AcDbEntity
  8
0
100
AcDbLine
 62
7
  6
BYLAYER
 10
34.0259644374
 20
30.235046884
 11
33.9009644374
 21
30.235046884
  0
LINE
  5
244
100
AcDbEntity
  8
0
100
AcDbLine
 62
7
  6
BYLAYER
 10
4.2509644374
 20
30.235046884
 11
4.1259644374
 21
30.235046884
  0
LINE
  5
245
100
AcDbEntity
  8
0
100
AcDbLine
 62
7
  6
BYLAYER
 10
23.3259644374
 20
6.0547414287
 11
23.3259644374
 21
7.542406643
  0
LINE
  5
246
100
AcDbEntity
  8
0
100
AcDbLine
 62
7
  6
BYLAYER
 10
23.9759644374
 20
10.3547414287
 11
23.9759644374
 21
42.3547414287
  0
LINE
  5
247
100
AcDbEntity
  8
0
100
AcDbLine
 62
7
  6
BYLAYER
 10
24.1009644374
 20
42.3547414287
 11
24.1009644374
 21
10.3547414287
  0
LINE
  5
248
100
AcDbEntity
  8
0
100
AcDbLine
 62
7
  6
BYLAYER
 10
25.7259644374
 20
8.6547414287
 11
25.7259644374
 21
9.6547414287
  0
LINE
  5
249
100
AcDbEntity
  8
0
100
AcDbLine
 62
7
  6
BYLAYER
 10
25.8259644374
 20
9.6547414287
 11
25.8259644374
 21
7.5705309024
  0
LINE
  5
24A
100
AcDbEntity
  8
0
100
AcDbLine
 62
7
  6
BYLAYER
 10
27.7259644374
 20
9.6547414287
 11
27.7259644374
 21
10.1547414287
  0
LINE
  5
24B
100
AcDbEntity
  8
0
100
AcDbLine
 62
7
  6
BYLAYER
 10
34.0259644374
 20
36.5547414287
 11
33.9009644374
 21
36.5547414287
  0
LINE
  5
24C
100
AcDbEntity
  8
0
100
AcDbLine
 62
7
  6
BYLAYER
 10
24.1009644374
 20
36.5547414287
 11
23.9759644374
 21
36.5547414287
  0
LINE
  5
24D
100
AcDbEntity
  8
0
100
AcDbLine
 62
7
  6
BYLAYER
 10
14.1759644374
 20
36.5547414287
 11
14.0509644374
 21
36.5547414287
  0
LINE
  5
24E
100
AcDbEntity
  8
0
100
AcDbLine
 62
7
  6
BYLAYER
 10
4.2509644374
 20
36.5547414287
 11
4.1259644374
 21
36.5547414287
  0
LINE
  5
24F
100
AcDbEntity
  8
0
100
AcDbLine
 62
7
  6
BYLAYER
 10
31.2409644374
 20
49.2547414287
 11
31.2409644374
 21
42.8547414287
  0
LINE
  5
250
100
AcDbEntity
  8
0
100
AcDbLine
 62
7
  6
BYLAYER
 10
33.7409644374
 20
42.8547414287
 11
33.7409644374
 21
49.2547414287
  0
LINE
  5
251
100
AcDbEntity
  8
0
100
AcDbLine
 62
7
  6
BYLAYER
 10
4.2509644374
 20
40.8547414287
 11
14.0509644374
 21
40.8547414287
  0
LINE
  5
252
100
AcDbEntity
  8
0
100
AcDbLine
 62
7
  6
BYLAYER
 10
14.1759644374
 20
40.8547414287
 11
23.9759644374
 21
40.8547414287
  0
LINE
  5
253
100
AcDbEntity
  8
0
100
AcDbLine
 62
7
  6
BYLAYER
 10
24.1009644374
 20
40.8547414287
 11
33.9009644374
 21
40.8547414287
  0
LINE
  5
254
100
AcDbEntity
  8
0
100
AcDbLine
 62
7
  6
BYLAYER
 10
33.9009644374
 20
10.3547414287
 11
33.9009644374
 21
42.3547414287
  0
LINE
  5
255
100
AcDbEntity
  8
0
100
AcDbLine
 62
7
  6
BYLAYER
 10
34.0259644374
 20
10.1547414287
 11
34.0259644374
 21
42.8547414287
  0
LINE
  5
256
100
AcDbEntity
  8
0
100
AcDbLine
 62
7
  6
BYLAYER
 10
33.9009644374
 20
42.3547414287
 11
24.1009644374
 21
42.3547414287
  0
LINE
  5
257
100
AcDbEntity
  8
0
100
AcDbLine
 62
7
  6
BYLAYER
 10
23.9759644374
 20
42.3547414287
 11
14.1759644374
 21
42.3547414287
  0
LINE
  5
258
100
AcDbEntity
  8
0
100
AcDbLine
 62
7
  6
BYLAYER
 10
14.0509644374
 20
42.3547414287
 11
4.2509644374
 21
42.3547414287
  0
LINE
  5
259
100
AcDbEntity
  8
0
100
AcDbLine
 62
7
  6
BYLAYER
 10
4.1259644374
 20
42.8547414287
 11
34.0259644374
 21
42.8547414287
  0
LINE
  5
25A
100
AcDbEntity
  8
0
100
AcDbLine
 62
7
  6
BYLAYER
 10
4.4109644374
 20
44.2547414287
 11
6.9109644374
 21
44.2547414287
  0
LINE
  5
25B
100
AcDbEntity
  8
0
100
AcDbLine
 62
7
  6
BYLAYER
 10
31.2409644374
 20
44.2547414287
 11
33.7409644374
 21
44.2547414287
  0
LINE
  5
25C
100
AcDbEntity
  8
0
100
AcDbLine
 62
7
  6
BYLAYER
 10
25.7259644374
 20
8.6547414287
 11
20.9485014743
 21
6.4405171615
  0
LINE
  5
25D
100
AcDbEntity
  8
0
100
AcDbLine
 62
7
  6
BYLAYER
 10
33.7409644374
 20
49.2547414287
 11
31.2409644374
 21
49.2547414287
  0
LINE
  5
25E
100
AcDbEntity
  8
0
100
AcDbLine
 62
7
  6
BYLAYER
 10
6.9109644374
 20
49.2547414287
 11
4.4109644374
 21
49.2547414287
  0
ARC
  5
25F
100
AcDbEntity
  8
0
100
AcDbCircle
 62
7
  6
BYLAYER
 10
19.0759644374
 20
26.3547414287
 40
11.2
100
AcDbArc
 50
115.8107234997
 51
116.4547123582
  0
ARC
  5
260
100
AcDbEntity
  8
0
100
AcDbCircle
 62
7
  6
BYLAYER
 10
19.0759644374
 20
26.3547414287
 40
11.2
100
AcDbArc
 50
243.2921943496
 51
243.966918979
  0
ARC
  5
261
100
AcDbEntity
  8
0
100
AcDbCircle
 62
7
  6
BYLAYER
 10
19.0759644374
 20
26.3547414287
 40
11.2
100
AcDbArc
 50
296.0353426917
 51
296.7103034699
  0
ARC
  5
262
100
AcDbEntity
  8
0
100
AcDbCircle
 62
7
  6
BYLAYER
 10
19.0759644374
 20
26.3547414287
 40
11.2
100
AcDbArc
 50
63.5452876418
 51
64.1892765003
  0
ARC
  5
263
100
AcDbEntity
  8
0
100
AcDbCircle
 62
7
  6
BYLAYER
 10
19.0759644372
 20
26.3547414287
 40
10.5
100
AcDbArc
 50
118.1681316682
 51
118.9360688196
  0
ARC
  5
264
100
AcDbEntity
  8
0
100
AcDbCircle
 62
7
  6
BYLAYER
 10
19.0759644372
 20
26.3547414287
 40
10.5
100
AcDbArc
 50
298.1681316703
 51
298.9360688216
  0
ARC
  5
265
100
AcDbEntity
  8
0
100
AcDbCircle
 62
7
  6
BYLAYER
 10
19.0759644373
 20
26.3547414287
 40
10.1
100
AcDbArc
 50
119.3727703153
 51
120.1719010301
  0
ARC
  5
266
100
AcDbEntity
  8
0
100
AcDbCircle
 62
7
  6
BYLAYER
 10
19.0759644373
 20
26.3547414287
 40
10.1
100
AcDbArc
 50
299.372770316
 51
300.1719010308
  0
ARC
  5
267
100
AcDbEntity
  8
0
100
AcDbCircle
 62
7
  6
BYLAYER
 10
19.0759644374
 20
26.3547414287
 40
9.2
100
AcDbArc
 50
122.4319321902
 51
123.3109373106
  0
ARC
  5
268
100
AcDbEntity
  8
0
100
AcDbCircle
 62
7
  6
BYLAYER
 10
19.0759644374
 20
26.3547414287
 40
9.2
100
AcDbArc
 50
56.6830201018
 51
57.5624486525
  0
ARC
  5
269
100
AcDbEntity
  8
0
100
AcDbCircle
 62
7
  6
BYLAYER
 10
19.0759644374
 20
26.3547414287
 40
9.2
100
AcDbArc
 50
302.4319321908
 51
303.3109373112
  0
ARC
  5
26A
100
AcDbEntity
  8
0
100
AcDbCircle
 62
7
  6
BYLAYER
 10
19.0759644374
 20
26.3547414287
 40
9.2
100
AcDbArc
 50
236.6830201024
 51
237.5624486531
  0
ARC
  5
26B
100
AcDbEntity
  8
0
100
AcDbCircle
 62
7
  6
BYLAYER
 10
22.0259644374
 20
7.5705309024
 40
3.8
100
AcDbArc
 50
270.0
 51
360.0
  0
ARC
  5
26C
100
AcDbEntity
  8
0
100
AcDbCircle
 62
7
  6
BYLAYER
 10
16.1259644374
 20
7.5705309024
 40
3.8
100
AcDbArc
 50
180.0
 51
270.0
  0
ARC
  5
26D
100
AcDbEntity
  8
0
100
AcDbCircle
 62
7
  6
BYLAYER
 10
19.0836399662
 20
35.2889442074
 40
3.0487331969
100
AcDbArc
 50
238.240689978
 51
269.8573084906
  0
ARC
  5
26E
100
AcDbEntity
  8
0
100
AcDbCircle
 62
7
  6
BYLAYER
 10
29.0086399662
 20
35.2889442074
 40
3.0487331969
100
AcDbArc
 50
238.240689978
 51
269.8573084906
  0
ARC
  5
26F
100
AcDbEntity
  8
0
100
AcDbCircle
 62
7
  6
BYLAYER
 10
9.1432889588
 20
35.2889441213
 40
3.0487331007
100
AcDbArc
 50
270.1426900693
 51
301.7593100722
  0
ARC
  5
270
100
AcDbEntity
  8
0
100
AcDbCircle
 62
7
  6
BYLAYER
 10
19.0459081952
 20
34.8008288459
 40
2.9483406026
100
AcDbArc
 50
85.4913867914
 51
90.0060331641
  0
ARC
  5
271
100
AcDbEntity
  8
0
100
AcDbCircle
 62
7
  6
BYLAYER
 10
28.9709081952
 20
34.8008288459
 40
2.9483406027
100
AcDbArc
 50
85.4913867914
 51
90.0060331641
  0
ARC
  5
272
100
AcDbEntity
  8
0
100
AcDbCircle
 62
7
  6
BYLAYER
 10
9.1807731693
 20
34.8012960556
 40
2.9478534011
100
AcDbArc
 50
89.9893202526
 51
94.5049301356
  0
ARC
  5
273
100
AcDbEntity
  8
0
100
AcDbCircle
 62
7
  6
BYLAYER
 10
28.9532696014
 20
34.5795847079
 40
2.9455301209
100
AcDbArc
 50
265.4895941942
 51
269.9991069908
  0
ARC
  5
274
100
AcDbEntity
  8
0
100
AcDbCircle
 62
7
  6
BYLAYER
 10
19.0282696014
 20
34.5795847078
 40
2.9455301208
100
AcDbArc
 50
265.4895941934
 51
269.9991069902
  0
ARC
  5
275
100
AcDbEntity
  8
0
100
AcDbCircle
 62
7
  6
BYLAYER
 10
9.1988989095
 20
34.5793081465
 40
2.9452360283
100
AcDbArc
 50
269.9966691676
 51
274.5060911679
  0
ARC
  5
276
100
AcDbEntity
  8
0
100
AcDbCircle
 62
7
  6
BYLAYER
 10
18.9667006426
 20
35.1934756067
 40
2.8907454344
100
AcDbArc
 50
180.8259334769
 51
185.2275589496
  0
ARC
  5
277
100
AcDbEntity
  8
0
100
AcDbCircle
 62
7
  6
BYLAYER
 10
28.8917006426
 20
35.1934756067
 40
2.8907454344
100
AcDbArc
 50
180.8259334767
 51
185.2275589496
  0
ARC
  5
278
100
AcDbEntity
  8
0
100
AcDbCircle
 62
7
  6
BYLAYER
 10
9.2604637729
 20
35.1934572755
 40
2.8905094096
100
AcDbArc
 50
354.772526552
 51
359.2868171406
  0
ARC
  5
279
100
AcDbEntity
  8
0
100
AcDbCircle
 62
7
  6
BYLAYER
 10
19.1866518174
 20
35.1759391267
 40
2.8895003712
100
AcDbArc
 50
345.7566515477
 51
349.8151453766
  0
ARC
  5
27A
100
AcDbEntity
  8
0
100
AcDbCircle
 62
7
  6
BYLAYER
 10
29.1116518174
 20
35.1759391267
 40
2.8895003712
100
AcDbArc
 50
345.7566515477
 51
349.8151453761
  0
ARC
  5
27B
100
AcDbEntity
  8
0
100
AcDbCircle
 62
7
  6
BYLAYER
 10
9.0401797004
 20
35.175878763
 40
2.8893910205
100
AcDbArc
 50
188.9357371461
 51
194.2433923805
  0
ARC
  5
27C
100
AcDbEntity
  8
0
100
AcDbCircle
 62
7
  6
BYLAYER
 10
15.3259644374
 20
6.0547414287
 40
0.5
100
AcDbArc
 50
180.0
 51
270.0
  0
ARC
  5
27D
100
AcDbEntity
  8
0
100
AcDbCircle
 62
7
  6
BYLAYER
 10
22.8259644374
 20
6.0547414287
 40
0.5
100
AcDbArc
 50
270.0
 51
360.0
  0
SPLINE
  5
27E
100
AcDbEntity
  8
0
100
AcDbSpline
 62
7
  6
BYLAYER
 70
0
 71
3
 72
15
 73
11
 74
0
 42
0.0000001
 43
0.0000001
 44
0.0000000001
 40
0.0
 40
0.0
 40
0.0
 40
0.0
 40
0.1249916895
 40
0.2499885527
 40
0.3749874718
 40
0.4999831456
 40
0.6249827998
 40
0.7499867753
 40
0.8749936781
 40
1.0
 40
1.0
 40
1.0
 40
1.0
 10
19.0455977391
 20
37.7491694322
 30
0.0
 10
18.8573000405
 20
37.749150575
 30
0.0
 10
18.4797131803
 20
37.7126928053
 30
0.0
 10
17.9348857034
 20
37.5514508875
 30
0.0
 10
17.4301889969
 20
37.2901209797
 30
0.0
 10
16.983418264
 20
36.9390153119
 30
0.0
 10
16.6094273194
 20
36.511298302
 30
0.0
 10
16.3202012021
 20
36.022262283
 30
0.0
 10
16.1247273015
 20
35.4890138446
 30
0.0
 10
16.0608336834
 20
35.1153474849
 30
0.0
 10
16.0460123757
 20
34.9276118878
 30
0.0
  0
SPLINE
  5
27F
100
AcDbEntity
  8
0
100
AcDbSpline
 62
7
  6
BYLAYER
 70
0
 71
3
 72
19
 73
15
 74
0
 42
0.0000001
 43
0.0000001
 44
0.0000000001
 40
0.0
 40
0.0
 40
0.0
 40
0.0
 40
0.1249042887
 40
0.1874458058
 40
0.2499603526
 40
0.3124871259
 40
0.3750323692
 40
0.437559375
 40
0.5000760815
 40
0.5626144734
 40
0.6251641588
 40
0.7501070192
 40
0.875050285
 40
1.0
 40
1.0
 40
1.0
 40
1.0
 10
19.0759644374
 20
14.9221157128
 30
0.0
 10
19.2734721098
 20
14.9221157128
 30
0.0
 10
19.5709435588
 20
14.9524674438
 30
0.0
 10
19.9543334697
 20
15.0503389328
 30
0.0
 10
20.2333888321
 20
15.1525593627
 30
0.0
 10
20.500413408
 20
15.2828479503
 30
0.0
 10
20.7534799238
 20
15.4384871973
 30
0.0
 10
20.9905790916
 20
15.6175088272
 30
0.0
 10
21.2088423978
 20
15.8190928836
 30
0.0
 10
21.4058703264
 20
16.0415479698
 30
0.0
 10
21.6381377254
 20
16.3621253986
 30
0.0
 10
21.8684247933
 20
16.8030743661
 30
0.0
 10
22.0378906337
 20
17.3746055164
 30
0.0
 10
22.0760693064
 20
17.7708158349
 30
0.0
 10
22.0760653662
 20
17.9683953386
 30
0.0
  0
SPLINE
  5
280
100
AcDbEntity
  8
0
100
AcDbSpline
 62
7
  6
BYLAYER
 70
0
 71
3
 72
15
 73
11
 74
0
 42
0.0000001
 43
0.0000001
 44
0.0000000001
 40
0.0
 40
0.0
 40
0.0
 40
0.0
 40
0.125017753
 40
0.2500160019
 40
0.3750116244
 40
0.5000101462
 40
0.6250008917
 40
0.7500149234
 40
0.8750149018
 40
1.0
 40
1.0
 40
1.0
 40
1.0
 10
16.0758635086
 20
17.9683957582
 30
0.0
 10
16.0758674486
 20
17.7708298192
 30
0.0
 10
16.1140411038
 20
17.3746952699
 30
0.0
 10
16.2834452575
 20
16.8031212085
 30
0.0
 10
16.5595022812
 20
16.2745740821
 30
0.0
 10
16.9321743107
 20
15.8088018663
 30
0.0
 10
17.3902430022
 20
15.4269293692
 30
0.0
 10
17.9124624244
 20
15.1386431937
 30
0.0
 10
18.4823523492
 20
14.9623861674
 30
0.0
 10
18.8784501027
 20
14.9221157128
 30
0.0
 10
19.0759644374
 20
14.9221157128
 30
0.0
  0
SPLINE
  5
281
100
AcDbEntity
  8
0
100
AcDbSpline
 62
7
  6
BYLAYER
 70
0
 71
3
 72
15
 73
11
 74
0
 42
0.0000001
 43
0.0000001
 44
0.0000000001
 40
0.0
 40
0.0
 40
0.0
 40
0.0
 40
0.1250036992
 40
0.250009266
 40
0.375013468
 40
0.5000146926
 40
0.6250120748
 40
0.7500126818
 40
0.8750062226
 40
1.0
 40
1.0
 40
1.0
 40
1.0
 10
22.0282926773
 20
34.4556110118
 30
0.0
 10
22.0438720331
 20
34.6529475892
 30
0.0
 10
22.0372597553
 20
35.0516455918
 30
0.0
 10
21.9139708975
 20
35.6361150284
 30
0.0
 10
21.6811779393
 20
36.1865060474
 30
0.0
 10
21.3465605151
 20
36.6816538348
 30
0.0
 10
20.921771756
 20
37.1021167151
 30
0.0
 10
20.4223038547
 20
37.4306312635
 30
0.0
 10
19.8676233887
 20
37.6531295034
 30
0.0
 10
19.474996015
 20
37.7244793797
 30
0.0
 10
19.2776741845
 20
37.7400458905
 30
0.0
  0
SPLINE
  5
282
100
AcDbEntity
  8
0
100
AcDbSpline
 62
7
  6
BYLAYER
 70
0
 71
3
 72
19
 73
15
 74
0
 42
0.0000001
 43
0.0000001
 44
0.0000000001
 40
0.0
 40
0.0
 40
0.0
 40
0.0
 40
0.1249042888
 40
0.1874458065
 40
0.2499603521
 40
0.3124871253
 40
0.3750323691
 40
0.4375593749
 40
0.5000760813
 40
0.5626144732
 40
0.6251641587
 40
0.7501070191
 40
0.8750502849
 40
1.0
 40
1.0
 40
1.0
 40
1.0
 10
19.0759644374
 20
21.0146753841
 30
0.0
 10
18.8784567649
 20
21.0146755191
 30
0.0
 10
18.5809853127
 20
20.9843236259
 30
0.0
 10
18.1975954103
 20
20.8864521481
 30
0.0
 10
17.9185400392
 20
20.7842317399
 30
0.0
 10
17.6515154656
 20
20.6539431501
 30
0.0
 10
17.3984489521
 20
20.4983038983
 30
0.0
 10
17.1613497835
 20
20.3192822689
 30
0.0
 10
16.9430864767
 20
20.1176982135
 30
0.0
 10
16.7460585484
 20
19.8952431273
 30
0.0
 10
16.5137911495
 20
19.5746656982
 30
0.0
 10
16.2835040814
 20
19.1337167308
 30
0.0
 10
16.1140382411
 20
18.5621855804
 30
0.0
 10
16.0758595684
 20
18.165975262
 30
0.0
 10
16.0758635086
 20
17.9683957582
 30
0.0
  0
SPLINE
  5
283
100
AcDbEntity
  8
0
100
AcDbSpline
 62
7
  6
BYLAYER
 70
0
 71
3
 72
11
 73
7
 74
0
 42
0.0000001
 43
0.0000001
 44
0.0000000001
 40
0.0
 40
0.0
 40
0.0
 40
0.0
 40
0.2507365064
 40
0.5009748421
 40
0.7506507089
 40
1.0
 40
1.0
 40
1.0
 40
1.0
 10
21.197284781
 20
19.1899121223
 30
0.0
 10
21.3090012663
 20
19.0798928614
 30
0.0
 10
21.515161612
 20
18.8419536142
 30
0.0
 10
21.7634816647
 20
18.4413316958
 30
0.0
 10
21.9445197053
 20
18.0070800302
 30
0.0
 10
22.017454055
 20
17.7020350762
 30
0.0
 10
22.0413997493
 20
17.5479567419
 30
0.0
  0
SPLINE
  5
284
100
AcDbEntity
  8
0
100
AcDbSpline
 62
7
  6
BYLAYER
 70
0
 71
3
 72
11
 73
7
 74
0
 42
0.0000001
 43
0.0000001
 44
0.0000000001
 40
0.0
 40
0.0
 40
0.0
 40
0.0
 40
0.2506441334
 40
0.5010059713
 40
0.7508452404
 40
1.0
 40
1.0
 40
1.0
 40
1.0
 10
19.0759725199
 20
20.0552422682
 30
0.0
 10
19.2719775538
 20
20.0552421382
 30
0.0
 10
19.6648139198
 20
20.0172083946
 30
0.0
 10
20.2308260228
 20
19.8481374112
 30
0.0
 10
20.7526417179
 20
19.5737100429
 30
0.0
 10
21.0584613743
 20
19.3266264895
 30
0.0
 10
21.197284781
 20
19.1899121223
 30
0.0
  0
SPLINE
  5
285
100
AcDbEntity
  8
0
100
AcDbSpline
 62
7
  6
BYLAYER
 70
0
 71
3
 72
15
 73
11
 74
0
 42
0.0000001
 43
0.0000001
 44
0.0000000001
 40
0.0
 40
0.0
 40
0.0
 40
0.0
 40
0.125829468
 40
0.2515157286
 40
0.376869817
 40
0.5019412949
 40
0.626768522
 40
0.7513592388
 40
0.8757522386
 40
1.0
 40
1.0
 40
1.0
 40
1.0
 10
17.478949758
 20
32.6967351407
 30
0.0
 10
17.3817873539
 20
32.7569863034
 30
0.0
 10
17.1942717329
 20
32.8886230639
 30
0.0
 10
16.9376342797
 20
33.1163860582
 30
0.0
 10
16.7092246604
 20
33.3715980932
 30
0.0
 10
16.5121208028
 20
33.6507249079
 30
0.0
 10
16.348821528
 20
33.9501025603
 30
0.0
 10
16.2215905151
 20
34.2658492598
 30
0.0
 10
16.1320212089
 20
34.5936815015
 30
0.0
 10
16.098261588
 20
34.8176743101
 30
0.0
 10
16.0879787156
 20
34.9300952097
 30
0.0
  0
SPLINE
  5
286
100
AcDbEntity
  8
0
100
AcDbSpline
 62
7
  6
BYLAYER
 70
0
 71
3
 72
15
 73
11
 74
0
 42
0.0000001
 43
0.0000001
 44
0.0000000001
 40
0.0
 40
0.0
 40
0.0
 40
0.0
 40
0.1250177529
 40
0.2500160019
 40
0.3750116243
 40
0.5000101461
 40
0.6250008916
 40
0.7500149232
 40
0.8750149019
 40
1.0
 40
1.0
 40
1.0
 40
1.0
 10
22.0760653662
 20
17.9683953386
 30
0.0
 10
22.0760614262
 20
18.1659612776
 30
0.0
 10
22.037887771
 20
18.562095827
 30
0.0
 10
21.8684836173
 20
19.1336698882
 30
0.0
 10
21.5924265937
 20
19.6622170151
 30
0.0
 10
21.219754564
 20
20.127989229
 30
0.0
 10
20.7616858731
 20
20.509861733
 30
0.0
 10
20.239466449
 20
20.798147883
 30
0.0
 10
19.6695765271
 20
20.9744050006
 30
0.0
 10
19.273478772
 20
21.0146752491
 30
0.0
 10
19.0759644374
 20
21.0146753841
 30
0.0
  0
SPLINE
  5
287
100
AcDbEntity
  8
0
100
AcDbSpline
 62
7
  6
BYLAYER
 70
0
 71
3
 72
15
 73
11
 74
0
 42
0.0000001
 43
0.0000001
 44
0.0000000001
 40
0.0
 40
0.0
 40
0.0
 40
0.0
 40
0.1240491907
 40
0.2483046835
 40
0.3728474981
 40
0.4977212446
 40
0.622931594
 40
0.7484308131
 40
0.874164995
 40
1.0
 40
1.0
 40
1.0
 40
1.0
 10
16.109022074
 20
17.5381252581
 30
0.0
 10
16.1353047192
 20
17.711137458
 30
0.0
 10
16.2194654994
 20
18.0534777661
 30
0.0
 10
16.4355987101
 20
18.5359599206
 30
0.0
 10
16.7350001997
 20
18.9732815165
 30
0.0
 10
17.1081380052
 20
19.3514647003
 30
0.0
 10
17.5432268901
 20
19.6586479694
 30
0.0
 10
18.0265829516
 20
19.885242316
 30
0.0
 10
18.5427839492
 20
20.0240585324
 30
0.0
 10
18.8984561187
 20
20.0552423858
 30
0.0
 10
19.0759725199
 20
20.0552422682
 30
0.0
  0
SPLINE
  5
288
100
AcDbEntity
  8
0
100
AcDbSpline
 62
7
  6
BYLAYER
 70
0
 71
3
 72
15
 73
11
 74
0
 42
0.0000001
 43
0.0000001
 44
0.0000000001
 40
0.0
 40
0.0
 40
0.0
 40
0.0
 40
0.1238800311
 40
0.2480034893
 40
0.3724571503
 40
0.4972897308
 40
0.6225151335
 40
0.7480842553
 40
0.873967736
 40
1.0
 40
1.0
 40
1.0
 40
1.0
 10
21.9873274431
 20
34.4650042247
 30
0.0
 10
21.9472823207
 20
34.3072347457
 30
0.0
 10
21.8402001258
 20
33.9975312628
 30
0.0
 10
21.6038776658
 20
33.5664703346
 30
0.0
 10
21.2981405727
 20
33.1797768656
 30
0.0
 10
20.9314697402
 20
32.8482083842
 30
0.0
 10
20.5139509588
 20
32.5808327135
 30
0.0
 10
20.0570178643
 20
32.3848523198
 30
0.0
 10
19.5733596853
 20
32.2657629248
 30
0.0
 10
19.241646717
 20
32.2396972589
 30
0.0
 10
19.0760471985
 20
32.2401808378
 30
0.0
  0
SPLINE
  5
289
100
AcDbEntity
  8
0
100
AcDbSpline
 62
7
  6
BYLAYER
 70
0
 71
3
 72
15
 73
11
 74
0
 42
0.0000001
 43
0.0000001
 44
0.0000000001
 40
0.0
 40
0.0
 40
0.0
 40
0.0
 40
0.1250036699
 40
0.2500092073
 40
0.3750133756
 40
0.5000145922
 40
0.6250119651
 40
0.7500126135
 40
0.8750062102
 40
1.0
 40
1.0
 40
1.0
 40
1.0
 10
16.0460123757
 20
34.9276118878
 30
0.0
 10
16.0304330894
 20
34.7302752765
 30
0.0
 10
16.0370453614
 20
34.3315772262
 30
0.0
 10
16.160334262
 20
33.7471077134
 30
0.0
 10
16.3931272916
 20
33.196716602
 30
0.0
 10
16.7277448026
 20
32.7015687127
 30
0.0
 10
17.1525338492
 20
32.2811056654
 30
0.0
 10
17.6520021564
 20
31.9525913378
 30
0.0
 10
18.2066830402
 20
31.7300920711
 30
0.0
 10
18.5993109084
 20
31.6587452728
 30
0.0
 10
18.7966326704
 20
31.6431766938
 30
0.0
  0
SPLINE
  5
28A
100
AcDbEntity
  8
0
100
AcDbSpline
 62
7
  6
BYLAYER
 70
0
 71
3
 72
15
 73
11
 74
0
 42
0.0000001
 43
0.0000001
 44
0.0000000001
 40
0.0
 40
0.0
 40
0.0
 40
0.0
 40
0.1249936673
 40
0.2499899778
 40
0.3749881487
 40
0.4999841579
 40
0.624983781
 40
0.7499874612
 40
0.8749939798
 40
1.0
 40
1.0
 40
1.0
 40
1.0
 10
19.0282236925
 20
31.6340545873
 30
0.0
 10
19.2165444286
 20
31.6340545873
 30
0.0
 10
19.5941779084
 20
31.6704531297
 30
0.0
 10
20.1390919853
 20
31.8316272364
 30
0.0
 10
20.6438674699
 20
32.0929361935
 30
0.0
 10
21.0907161087
 20
32.4440400412
 30
0.0
 10
21.4647762269
 20
32.8717780435
 30
0.0
 10
21.7540562826
 20
33.3608519739
 30
0.0
 10
21.9495659357
 20
33.8941508413
 30
0.0
 10
22.0134697584
 20
34.2678558762
 30
0.0
 10
22.0282926773
 20
34.4556110118
 30
0.0
  0
SPLINE
  5
28B
100
AcDbEntity
  8
0
100
AcDbSpline
 62
7
  6
BYLAYER
 70
0
 71
3
 72
15
 73
11
 74
0
 42
0.0000001
 43
0.0000001
 44
0.0000000001
 40
0.0
 40
0.0
 40
0.0
 40
0.0
 40
0.1249916895
 40
0.2499885527
 40
0.3749874718
 40
0.4999831456
 40
0.6249827998
 40
0.7499867753
 40
0.8749936781
 40
1.0
 40
1.0
 40
1.0
 40
1.0
 10
28.9705977391
 20
37.7491694322
 30
0.0
 10
28.7823000405
 20
37.749150575
 30
0.0
 10
28.4047131802
 20
37.7126928053
 30
0.0
 10
27.8598857034
 20
37.5514508875
 30
0.0
 10
27.3551889969
 20
37.2901209797
 30
0.0
 10
26.908418264
 20
36.9390153119
 30
0.0
 10
26.5344273194
 20
36.511298302
 30
0.0
 10
26.2452012021
 20
36.022262283
 30
0.0
 10
26.0497273015
 20
35.4890138446
 30
0.0
 10
25.9858336834
 20
35.1153474849
 30
0.0
 10
25.9710123757
 20
34.9276118878
 30
0.0
  0
SPLINE
  5
28C
100
AcDbEntity
  8
0
100
AcDbSpline
 62
7
  6
BYLAYER
 70
0
 71
3
 72
19
 73
15
 74
0
 42
0.0000001
 43
0.0000001
 44
0.0000000001
 40
0.0
 40
0.0
 40
0.0
 40
0.0
 40
0.1249042887
 40
0.1874458058
 40
0.2499603526
 40
0.3124871259
 40
0.3750323692
 40
0.437559375
 40
0.5000760815
 40
0.5626144734
 40
0.6251641588
 40
0.7501070192
 40
0.875050285
 40
1.0
 40
1.0
 40
1.0
 40
1.0
 10
29.0009644374
 20
14.9221157128
 30
0.0
 10
29.1984721098
 20
14.9221157128
 30
0.0
 10
29.4959435588
 20
14.9524674438
 30
0.0
 10
29.8793334697
 20
15.0503389328
 30
0.0
 10
30.1583888321
 20
15.1525593627
 30
0.0
 10
30.425413408
 20
15.2828479503
 30
0.0
 10
30.6784799238
 20
15.4384871973
 30
0.0
 10
30.9155790916
 20
15.6175088272
 30
0.0
 10
31.1338423978
 20
15.8190928836
 30
0.0
 10
31.3308703264
 20
16.0415479698
 30
0.0
 10
31.5631377254
 20
16.3621253986
 30
0.0
 10
31.7934247933
 20
16.8030743661
 30
0.0
 10
31.9628906337
 20
17.3746055164
 30
0.0
 10
32.0010693064
 20
17.7708158349
 30
0.0
 10
32.0010653662
 20
17.9683953386
 30
0.0
  0
SPLINE
  5
28D
100
AcDbEntity
  8
0
100
AcDbSpline
 62
7
  6
BYLAYER
 70
0
 71
3
 72
15
 73
11
 74
0
 42
0.0000001
 43
0.0000001
 44
0.0000000001
 40
0.0
 40
0.0
 40
0.0
 40
0.0
 40
0.125017753
 40
0.2500160019
 40
0.3750116244
 40
0.5000101462
 40
0.6250008917
 40
0.7500149234
 40
0.8750149018
 40
1.0
 40
1.0
 40
1.0
 40
1.0
 10
26.0008635086
 20
17.9683957582
 30
0.0
 10
26.0008674486
 20
17.7708298192
 30
0.0
 10
26.0390411038
 20
17.3746952699
 30
0.0
 10
26.2084452575
 20
16.8031212085
 30
0.0
 10
26.4845022812
 20
16.2745740821
 30
0.0
 10
26.8571743107
 20
15.8088018663
 30
0.0
 10
27.3152430022
 20
15.4269293692
 30
0.0
 10
27.8374624244
 20
15.1386431937
 30
0.0
 10
28.4073523492
 20
14.9623861674
 30
0.0
 10
28.8034501027
 20
14.9221157128
 30
0.0
 10
29.0009644374
 20
14.9221157128
 30
0.0
  0
SPLINE
  5
28E
100
AcDbEntity
  8
0
100
AcDbSpline
 62
7
  6
BYLAYER
 70
0
 71
3
 72
15
 73
11
 74
0
 42
0.0000001
 43
0.0000001
 44
0.0000000001
 40
0.0
 40
0.0
 40
0.0
 40
0.0
 40
0.1250036992
 40
0.250009266
 40
0.375013468
 40
0.5000146926
 40
0.6250120748
 40
0.7500126818
 40
0.8750062226
 40
1.0
 40
1.0
 40
1.0
 40
1.0
 10
31.9532926773
 20
34.4556110118
 30
0.0
 10
31.9688720331
 20
34.6529475892
 30
0.0
 10
31.9622597553
 20
35.0516455918
 30
0.0
 10
31.8389708975
 20
35.6361150284
 30
0.0
 10
31.6061779393
 20
36.1865060474
 30
0.0
 10
31.2715605151
 20
36.6816538348
 30
0.0
 10
30.846771756
 20
37.1021167151
 30
0.0
 10
30.3473038547
 20
37.4306312635
 30
0.0
 10
29.7926233887
 20
37.6531295034
 30
0.0
 10
29.399996015
 20
37.7244793797
 30
0.0
 10
29.2026741845
 20
37.7400458905
 30
0.0
  0
SPLINE
  5
28F
100
AcDbEntity
  8
0
100
AcDbSpline
 62
7
  6
BYLAYER
 70
0
 71
3
 72
19
 73
15
 74
0
 42
0.0000001
 43
0.0000001
 44
0.0000000001
 40
0.0
 40
0.0
 40
0.0
 40
0.0
 40
0.1249042888
 40
0.1874458065
 40
0.2499603521
 40
0.3124871253
 40
0.3750323691
 40
0.4375593749
 40
0.5000760813
 40
0.5626144732
 40
0.6251641587
 40
0.7501070191
 40
0.8750502849
 40
1.0
 40
1.0
 40
1.0
 40
1.0
 10
29.0009644374
 20
21.0146753841
 30
0.0
 10
28.8034567649
 20
21.0146755191
 30
0.0
 10
28.5059853127
 20
20.9843236259
 30
0.0
 10
28.1225954103
 20
20.8864521481
 30
0.0
 10
27.8435400392
 20
20.7842317399
 30
0.0
 10
27.5765154656
 20
20.6539431501
 30
0.0
 10
27.3234489521
 20
20.4983038983
 30
0.0
 10
27.0863497835
 20
20.3192822689
 30
0.0
 10
26.8680864767
 20
20.1176982135
 30
0.0
 10
26.6710585484
 20
19.8952431273
 30
0.0
 10
26.4387911495
 20
19.5746656982
 30
0.0
 10
26.2085040814
 20
19.1337167308
 30
0.0
 10
26.0390382411
 20
18.5621855804
 30
0.0
 10
26.0008595684
 20
18.165975262
 30
0.0
 10
26.0008635086
 20
17.9683957582
 30
0.0
  0
SPLINE
  5
290
100
AcDbEntity
  8
0
100
AcDbSpline
 62
7
  6
BYLAYER
 70
0
 71
3
 72
11
 73
7
 74
0
 42
0.0000001
 43
0.0000001
 44
0.0000000001
 40
0.0
 40
0.0
 40
0.0
 40
0.0
 40
0.2507365064
 40
0.5009748421
 40
0.7506507089
 40
1.0
 40
1.0
 40
1.0
 40
1.0
 10
31.122284781
 20
19.1899121223
 30
0.0
 10
31.2340012663
 20
19.0798928614
 30
0.0
 10
31.440161612
 20
18.8419536142
 30
0.0
 10
31.6884816647
 20
18.4413316957
 30
0.0
 10
31.8695197053
 20
18.0070800302
 30
0.0
 10
31.942454055
 20
17.7020350762
 30
0.0
 10
31.9663997493
 20
17.5479567419
 30
0.0
  0
SPLINE
  5
291
100
AcDbEntity
  8
0
100
AcDbSpline
 62
7
  6
BYLAYER
 70
0
 71
3
 72
11
 73
7
 74
0
 42
0.0000001
 43
0.0000001
 44
0.0000000001
 40
0.0
 40
0.0
 40
0.0
 40
0.0
 40
0.2506441334
 40
0.5010059713
 40
0.7508452404
 40
1.0
 40
1.0
 40
1.0
 40
1.0
 10
29.0009725199
 20
20.0552422682
 30
0.0
 10
29.1969775538
 20
20.0552421382
 30
0.0
 10
29.5898139198
 20
20.0172083946
 30
0.0
 10
30.1558260228
 20
19.8481374112
 30
0.0
 10
30.6776417179
 20
19.5737100429
 30
0.0
 10
30.9834613743
 20
19.3266264895
 30
0.0
 10
31.122284781
 20
19.1899121223
 30
0.0
  0
SPLINE
  5
292
100
AcDbEntity
  8
0
100
AcDbSpline
 62
7
  6
BYLAYER
 70
0
 71
3
 72
15
 73
11
 74
0
 42
0.0000001
 43
0.0000001
 44
0.0000000001
 40
0.0
 40
0.0
 40
0.0
 40
0.0
 40
0.125829468
 40
0.2515157286
 40
0.376869817
 40
0.5019412949
 40
0.626768522
 40
0.7513592388
 40
0.8757522386
 40
1.0
 40
1.0
 40
1.0
 40
1.0
 10
27.403949758
 20
32.6967351407
 30
0.0
 10
27.3067873539
 20
32.7569863034
 30
0.0
 10
27.1192717329
 20
32.8886230639
 30
0.0
 10
26.8626342797
 20
33.1163860582
 30
0.0
 10
26.6342246604
 20
33.3715980932
 30
0.0
 10
26.4371208028
 20
33.6507249079
 30
0.0
 10
26.273821528
 20
33.9501025603
 30
0.0
 10
26.1465905151
 20
34.2658492598
 30
0.0
 10
26.0570212089
 20
34.5936815015
 30
0.0
 10
26.023261588
 20
34.8176743101
 30
0.0
 10
26.0129787156
 20
34.9300952097
 30
0.0
  0
SPLINE
  5
293
100
AcDbEntity
  8
0
100
AcDbSpline
 62
7
  6
BYLAYER
 70
0
 71
3
 72
15
 73
11
 74
0
 42
0.0000001
 43
0.0000001
 44
0.0000000001
 40
0.0
 40
0.0
 40
0.0
 40
0.0
 40
0.1250177529
 40
0.2500160019
 40
0.3750116243
 40
0.5000101461
 40
0.6250008916
 40
0.7500149232
 40
0.8750149019
 40
1.0
 40
1.0
 40
1.0
 40
1.0
 10
32.0010653662
 20
17.9683953386
 30
0.0
 10
32.0010614262
 20
18.1659612776
 30
0.0
 10
31.962887771
 20
18.562095827
 30
0.0
 10
31.7934836173
 20
19.1336698882
 30
0.0
 10
31.5174265937
 20
19.6622170151
 30
0.0
 10
31.144754564
 20
20.127989229
 30
0.0
 10
30.6866858731
 20
20.509861733
 30
0.0
 10
30.164466449
 20
20.798147883
 30
0.0
 10
29.5945765271
 20
20.9744050006
 30
0.0
 10
29.1984787719
 20
21.0146752491
 30
0.0
 10
29.0009644374
 20
21.0146753841
 30
0.0
  0
SPLINE
  5
294
100
AcDbEntity
  8
0
100
AcDbSpline
 62
7
  6
BYLAYER
 70
0
 71
3
 72
15
 73
11
 74
0
 42
0.0000001
 43
0.0000001
 44
0.0000000001
 40
0.0
 40
0.0
 40
0.0
 40
0.0
 40
0.1240491907
 40
0.2483046835
 40
0.3728474981
 40
0.4977212446
 40
0.622931594
 40
0.7484308131
 40
0.874164995
 40
1.0
 40
1.0
 40
1.0
 40
1.0
 10
26.034022074
 20
17.5381252581
 30
0.0
 10
26.0603047192
 20
17.711137458
 30
0.0
 10
26.1444654994
 20
18.0534777661
 30
0.0
 10
26.3605987101
 20
18.5359599206
 30
0.0
 10
26.6600001997
 20
18.9732815165
 30
0.0
 10
27.0331380052
 20
19.3514647003
 30
0.0
 10
27.4682268901
 20
19.6586479694
 30
0.0
 10
27.9515829516
 20
19.885242316
 30
0.0
 10
28.4677839492
 20
20.0240585324
 30
0.0
 10
28.8234561187
 20
20.0552423858
 30
0.0
 10
29.0009725199
 20
20.0552422682
 30
0.0
  0
SPLINE
  5
295
100
AcDbEntity
  8
0
100
AcDbSpline
 62
7
  6
BYLAYER
 70
0
 71
3
 72
15
 73
11
 74
0
 42
0.0000001
 43
0.0000001
 44
0.0000000001
 40
0.0
 40
0.0
 40
0.0
 40
0.0
 40
0.1238800311
 40
0.2480034893
 40
0.3724571503
 40
0.4972897308
 40
0.6225151335
 40
0.7480842553
 40
0.873967736
 40
1.0
 40
1.0
 40
1.0
 40
1.0
 10
31.9123274431
 20
34.4650042247
 30
0.0
 10
31.8722823207
 20
34.3072347457
 30
0.0
 10
31.7652001258
 20
33.9975312628
 30
0.0
 10
31.5288776658
 20
33.5664703346
 30
0.0
 10
31.2231405727
 20
33.1797768656
 30
0.0
 10
30.8564697402
 20
32.8482083842
 30
0.0
 10
30.4389509588
 20
32.5808327135
 30
0.0
 10
29.9820178643
 20
32.3848523198
 30
0.0
 10
29.4983596853
 20
32.2657629248
 30
0.0
 10
29.166646717
 20
32.2396972589
 30
0.0
 10
29.0010471985
 20
32.2401808378
 30
0.0
  0
SPLINE
  5
296
100
AcDbEntity
  8
0
100
AcDbSpline
 62
7
  6
BYLAYER
 70
0
 71
3
 72
15
 73
11
 74
0
 42
0.0000001
 43
0.0000001
 44
0.0000000001
 40
0.0
 40
0.0
 40
0.0
 40
0.0
 40
0.1250036699
 40
0.2500092073
 40
0.3750133756
 40
0.5000145922
 40
0.6250119651
 40
0.7500126135
 40
0.8750062102
 40
1.0
 40
1.0
 40
1.0
 40
1.0
 10
25.9710123757
 20
34.9276118878
 30
0.0
 10
25.9554330894
 20
34.7302752765
 30
0.0
 10
25.9620453614
 20
34.3315772262
 30
0.0
 10
26.085334262
 20
33.7471077134
 30
0.0
 10
26.3181272916
 20
33.196716602
 30
0.0
 10
26.6527448026
 20
32.7015687127
 30
0.0
 10
27.0775338492
 20
32.2811056654
 30
0.0
 10
27.5770021564
 20
31.9525913378
 30
0.0
 10
28.1316830402
 20
31.7300920711
 30
0.0
 10
28.5243109084
 20
31.6587452728
 30
0.0
 10
28.7216326704
 20
31.6431766938
 30
0.0
  0
SPLINE
  5
297
100
AcDbEntity
  8
0
100
AcDbSpline
 62
7
  6
BYLAYER
 70
0
 71
3
 72
15
 73
11
 74
0
 42
0.0000001
 43
0.0000001
 44
0.0000000001
 40
0.0
 40
0.0
 40
0.0
 40
0.0
 40
0.1249936673
 40
0.2499899778
 40
0.3749881487
 40
0.4999841579
 40
0.624983781
 40
0.7499874612
 40
0.8749939798
 40
1.0
 40
1.0
 40
1.0
 40
1.0
 10
28.9532236925
 20
31.6340545873
 30
0.0
 10
29.1415444286
 20
31.6340545873
 30
0.0
 10
29.5191779084
 20
31.6704531297
 30
0.0
 10
30.0640919853
 20
31.8316272364
 30
0.0
 10
30.5688674699
 20
32.0929361935
 30
0.0
 10
31.0157161087
 20
32.4440400412
 30
0.0
 10
31.3897762269
 20
32.8717780435
 30
0.0
 10
31.6790562826
 20
33.3608519739
 30
0.0
 10
31.8745659357
 20
33.8941508413
 30
0.0
 10
31.9384697584
 20
34.2678558762
 30
0.0
 10
31.9532926773
 20
34.4556110118
 30
0.0
  0
SPLINE
  5
298
100
AcDbEntity
  8
0
100
AcDbSpline
 62
7
  6
BYLAYER
 70
0
 71
3
 72
15
 73
11
 74
0
 42
0.0000001
 43
0.0000001
 44
0.0000000001
 40
0.0
 40
0.0
 40
0.0
 40
0.0
 40
0.125017753
 40
0.2500160019
 40
0.3750116244
 40
0.5000101462
 40
0.6250008917
 40
0.7500149234
 40
0.8750149018
 40
1.0
 40
1.0
 40
1.0
 40
1.0
 10
6.1508635086
 20
17.9683957582
 30
0.0
 10
6.1508674486
 20
17.7708298192
 30
0.0
 10
6.1890411038
 20
17.3746952699
 30
0.0
 10
6.3584452575
 20
16.8031212085
 30
0.0
 10
6.6345022812
 20
16.2745740821
 30
0.0
 10
7.0071743107
 20
15.8088018663
 30
0.0
 10
7.4652430022
 20
15.4269293692
 30
0.0
 10
7.9874624244
 20
15.1386431937
 30
0.0
 10
8.5573523493
 20
14.9623861674
 30
0.0
 10
8.9534501027
 20
14.9221157128
 30
0.0
 10
9.1509644374
 20
14.9221157128
 30
0.0
  0
SPLINE
  5
299
100
AcDbEntity
  8
0
100
AcDbSpline
 62
7
  6
BYLAYER
 70
0
 71
3
 72
15
 73
11
 74
0
 42
0.0000001
 43
0.0000001
 44
0.0000000001
 40
0.0
 40
0.0
 40
0.0
 40
0.0
 40
0.1250026556
 40
0.2500066752
 40
0.3750095639
 40
0.5000098324
 40
0.6250087835
 40
0.7500104664
 40
0.8750101013
 40
1.0
 40
1.0
 40
1.0
 40
1.0
 10
12.1809142337
 20
34.9276117005
 30
0.0
 10
12.1660932889
 20
35.1153420206
 30
0.0
 10
12.1022038345
 20
35.4889992966
 30
0.0
 10
11.9067375507
 20
36.022239037
 30
0.0
 10
11.6175179014
 20
36.5112735513
 30
0.0
 10
11.2435293479
 20
36.9389994212
 30
0.0
 10
10.7967497922
 20
37.2901121215
 30
0.0
 10
10.2920432524
 20
37.5514509655
 30
0.0
 10
9.7472094027
 20
37.7127037796
 30
0.0
 10
9.3696178742
 20
37.7491307669
 30
0.0
 10
9.1813226396
 20
37.7491494055
 30
0.0
  0
SPLINE
  5
29A
100
AcDbEntity
  8
0
100
AcDbSpline
 62
7
  6
BYLAYER
 70
0
 71
3
 72
19
 73
15
 74
0
 42
0.0000001
 43
0.0000001
 44
0.0000000001
 40
0.0
 40
0.0
 40
0.0
 40
0.0
 40
0.1249042887
 40
0.1874458058
 40
0.2499603526
 40
0.3124871259
 40
0.3750323692
 40
0.437559375
 40
0.5000760815
 40
0.5626144734
 40
0.6251641588
 40
0.7501070192
 40
0.875050285
 40
1.0
 40
1.0
 40
1.0
 40
1.0
 10
9.1509644374
 20
14.9221157128
 30
0.0
 10
9.3484721098
 20
14.9221157128
 30
0.0
 10
9.6459435588
 20
14.9524674438
 30
0.0
 10
10.0293334697
 20
15.0503389327
 30
0.0
 10
10.3083888321
 20
15.1525593626
 30
0.0
 10
10.575413408
 20
15.2828479503
 30
0.0
 10
10.8284799238
 20
15.4384871973
 30
0.0
 10
11.0655790916
 20
15.6175088272
 30
0.0
 10
11.2838423977
 20
15.8190928835
 30
0.0
 10
11.4808703263
 20
16.0415479697
 30
0.0
 10
11.7131377254
 20
16.3621253985
 30
0.0
 10
11.9434247932
 20
16.803074366
 30
0.0
 10
12.1128906337
 20
17.3746055164
 30
0.0
 10
12.1510693064
 20
17.7708158348
 30
0.0
 10
12.1510653662
 20
17.9683953386
 30
0.0
  0
SPLINE
  5
29B
100
AcDbEntity
  8
0
100
AcDbSpline
 62
7
  6
BYLAYER
 70
0
 71
3
 72
15
 73
11
 74
0
 42
0.0000001
 43
0.0000001
 44
0.0000000001
 40
0.0
 40
0.0
 40
0.0
 40
0.0
 40
0.1249954579
 40
0.2499874673
 40
0.3749859708
 40
0.4999809975
 40
0.6249814624
 40
0.7499861568
 40
0.874993526
 40
1.0
 40
1.0
 40
1.0
 40
1.0
 10
8.9492343856
 20
37.7400422961
 30
0.0
 10
8.7519111357
 20
37.7244721002
 30
0.0
 10
8.3592848216
 20
37.653126843
 30
0.0
 10
7.8046125855
 20
37.4306228331
 30
0.0
 10
7.3051559207
 20
37.1021145875
 30
0.0
 10
6.8803766879
 20
36.6816581886
 30
0.0
 10
6.5457600727
 20
36.1865185249
 30
0.0
 10
6.3129664543
 20
35.6361282422
 30
0.0
 10
6.1896720173
 20
35.0516547934
 30
0.0
 10
6.1830587293
 20
34.652951195
 30
0.0
 10
6.198638419
 20
34.4556111955
 30
0.0
  0
SPLINE
  5
29C
100
AcDbEntity
  8
0
100
AcDbSpline
 62
7
  6
BYLAYER
 70
0
 71
3
 72
15
 73
11
 74
0
 42
0.0000001
 43
0.0000001
 44
0.0000000001
 40
0.0
 40
0.0
 40
0.0
 40
0.0
 40
0.1258325577
 40
0.2515652453
 40
0.3770634771
 40
0.5022740874
 40
0.6271489743
 40
0.751693443
 40
0.875950392
 40
1.0
 40
1.0
 40
1.0
 40
1.0
 10
9.1509920278
 20
20.0552413199
 30
0.0
 10
9.3281036537
 20
20.0552409186
 30
0.0
 10
9.682962322
 20
20.0241944131
 30
0.0
 10
10.1980595708
 20
19.8860010915
 30
0.0
 10
10.6805324088
 20
19.6604041336
 30
0.0
 10
11.1150569681
 20
19.3545315053
 30
0.0
 10
11.4880295309
 20
18.977886097
 30
0.0
 10
11.7877245253
 20
18.5422280697
 30
0.0
 10
12.0046435531
 20
18.061418156
 30
0.0
 10
12.0896636056
 20
17.720119539
 30
0.0
 10
12.1164538504
 20
17.5475849825
 30
0.0
  0
SPLINE
  5
29D
100
AcDbEntity
  8
0
100
AcDbSpline
 62
7
  6
BYLAYER
 70
0
 71
3
 72
11
 73
7
 74
0
 42
0.0000001
 43
0.0000001
 44
0.0000000001
 40
0.0
 40
0.0
 40
0.0
 40
0.0
 40
0.2491547571
 40
0.4989940334
 40
0.7493558775
 40
1.0
 40
1.0
 40
1.0
 40
1.0
 10
7.0296440938
 20
19.1899121223
 30
0.0
 10
7.1684695947
 20
19.3266285518
 30
0.0
 10
7.4742943027
 20
19.5737155343
 30
0.0
 10
7.9961192067
 20
19.848144364
 30
0.0
 10
8.5621411414
 20
20.0172153558
 30
0.0
 10
8.9549840437
 20
20.0552417639
 30
0.0
 10
9.1509920278
 20
20.0552413199
 30
0.0
  0
SPLINE
  5
29E
100
AcDbEntity
  8
0
100
AcDbSpline
 62
7
  6
BYLAYER
 70
0
 71
3
 72
15
 73
11
 74
0
 42
0.0000001
 43
0.0000001
 44
0.0000000001
 40
0.0
 40
0.0
 40
0.0
 40
0.0
 40
0.1260318458
 40
0.2519150307
 40
0.3774841154
 40
0.5027096395
 40
0.6275424832
 40
0.7519964786
 40
0.8761201375
 40
1.0
 40
1.0
 40
1.0
 40
1.0
 10
9.1508816496
 20
32.2401808433
 30
0.0
 10
8.9852842239
 20
32.2396972705
 30
0.0
 10
8.6535752921
 20
32.2657621636
 30
0.0
 10
8.1699222965
 20
32.3848488752
 30
0.0
 10
7.7129928347
 20
32.5808251462
 30
0.0
 10
7.2954759115
 20
32.8481959283
 30
0.0
 10
6.9288052329
 20
33.1797590626
 30
0.0
 10
6.6230668893
 20
33.5664470246
 30
0.0
 10
6.3867423736
 20
33.997502076
 30
0.0
 10
6.2796571778
 20
34.3072013002
 30
0.0
 10
6.2396106089
 20
34.4649686185
 30
0.0
  0
SPLINE
  5
29F
100
AcDbEntity
  8
0
100
AcDbSpline
 62
7
  6
BYLAYER
 70
0
 71
3
 72
15
 73
11
 74
0
 42
0.0000001
 43
0.0000001
 44
0.0000000001
 40
0.0
 40
0.0
 40
0.0
 40
0.0
 40
0.1250027462
 40
0.2500068756
 40
0.3750098581
 40
0.5000102096
 40
0.625009094
 40
0.7500094817
 40
0.8750079573
 40
1.0
 40
1.0
 40
1.0
 40
1.0
 10
6.198638419
 20
34.4556111955
 30
0.0
 10
6.2134610757
 20
34.2678601482
 30
0.0
 10
6.2773615592
 20
33.8941617121
 30
0.0
 10
6.4728656968
 20
33.3608683186
 30
0.0
 10
6.7621423913
 20
32.8717937141
 30
0.0
 10
7.1362034138
 20
32.4440473271
 30
0.0
 10
7.5830616752
 20
32.0929361118
 30
0.0
 10
8.0878496482
 20
31.8316248907
 30
0.0
 10
8.6327694929
 20
31.6704372565
 30
0.0
 10
9.0104085662
 20
31.6340721232
 30
0.0
 10
9.1987276911
 20
31.6340721232
 30
0.0
  0
SPLINE
  5
2A0
100
AcDbEntity
  8
0
100
AcDbSpline
 62
7
  6
BYLAYER
 70
0
 71
3
 72
19
 73
15
 74
0
 42
0.0000001
 43
0.0000001
 44
0.0000000001
 40
0.0
 40
0.0
 40
0.0
 40
0.0
 40
0.1249042892
 40
0.1874458081
 40
0.2499603508
 40
0.3124871237
 40
0.3750323688
 40
0.4375593746
 40
0.5000760807
 40
0.5626144727
 40
0.6251641584
 40
0.7501070189
 40
0.8750502848
 40
1.0
 40
1.0
 40
1.0
 40
1.0
 10
9.1509644374
 20
21.0146753841
 30
0.0
 10
8.9534567644
 20
21.0146758455
 30
0.0
 10
8.6559853046
 20
20.9843235601
 30
0.0
 10
8.2725954229
 20
20.8864521093
 30
0.0
 10
7.9935400309
 20
20.7842317537
 30
0.0
 10
7.7265154629
 20
20.6539431587
 30
0.0
 10
7.473448955
 20
20.4983038955
 30
0.0
 10
7.2363497842
 20
20.3192822674
 30
0.0
 10
7.0180864759
 20
20.1176982142
 30
0.0
 10
6.8210585483
 20
19.8952431277
 30
0.0
 10
6.58879115
 20
19.5746656982
 30
0.0
 10
6.3585040814
 20
19.1337167309
 30
0.0
 10
6.1890382411
 20
18.5621855805
 30
0.0
 10
6.1508595684
 20
18.165975262
 30
0.0
 10
6.1508635086
 20
17.9683957582
 30
0.0
  0
SPLINE
  5
2A1
100
AcDbEntity
  8
0
100
AcDbSpline
 62
7
  6
BYLAYER
 70
0
 71
3
 72
15
 73
11
 74
0
 42
0.0000001
 43
0.0000001
 44
0.0000000001
 40
0.0
 40
0.0
 40
0.0
 40
0.0
 40
0.1242474177
 40
0.2486401255
 40
0.3732306432
 40
0.4980577762
 40
0.6231292614
 40
0.748483521
 40
0.8741701848
 40
1.0
 40
1.0
 40
1.0
 40
1.0
 10
12.1389510498
 20
34.9301026786
 30
0.0
 10
12.1286684112
 20
34.8176817579
 30
0.0
 10
12.0949091581
 20
34.5936888556
 30
0.0
 10
12.0053408458
 20
34.2658561601
 30
0.0
 10
11.8781103433
 20
33.9501088054
 30
0.0
 10
11.7148114419
 20
33.6507301722
 30
0.0
 10
11.5177074946
 20
33.371602167
 30
0.0
 10
11.289297332
 20
33.1163886224
 30
0.0
 10
11.0326586426
 20
32.8886243196
 30
0.0
 10
10.8451420576
 20
32.7569866362
 30
0.0
 10
10.7479791168
 20
32.6967351407
 30
0.0
  0
SPLINE
  5
2A2
100
AcDbEntity
  8
0
100
AcDbSpline
 62
7
  6
BYLAYER
 70
0
 71
3
 72
15
 73
11
 74
0
 42
0.0000001
 43
0.0000001
 44
0.0000000001
 40
0.0
 40
0.0
 40
0.0
 40
0.0
 40
0.1249955058
 40
0.2499875206
 40
0.3749860718
 40
0.4999810485
 40
0.624981491
 40
0.7499861477
 40
0.8749935205
 40
1.0
 40
1.0
 40
1.0
 40
1.0
 10
9.4302916092
 20
31.6431758809
 30
0.0
 10
9.6276161974
 20
31.6587443679
 30
0.0
 10
10.0202447164
 20
31.7300907131
 30
0.0
 10
10.574922416
 20
31.9525899423
 30
0.0
 10
11.0743837302
 20
32.2810977464
 30
0.0
 10
11.4991675257
 20
32.7015542379
 30
0.0
 10
11.833787813
 20
33.1966954029
 30
0.0
 10
12.0665841918
 20
33.7470881257
 30
0.0
 10
12.1898804207
 20
34.3315646657
 30
0.0
 10
12.1964939337
 20
34.7302705657
 30
0.0
 10
12.1809142337
 20
34.9276117005
 30
0.0
  0
SPLINE
  5
2A3
100
AcDbEntity
  8
0
100
AcDbSpline
 62
7
  6
BYLAYER
 70
0
 71
3
 72
11
 73
7
 74
0
 42
0.0000001
 43
0.0000001
 44
0.0000000001
 40
0.0
 40
0.0
 40
0.0
 40
0.0
 40
0.2493483304
 40
0.4990231801
 40
0.7492600952
 40
1.0
 40
1.0
 40
1.0
 40
1.0
 10
6.1840747927
 20
17.538496438
 30
0.0
 10
6.2076331281
 20
17.6934360022
 30
0.0
 10
6.2800598154
 20
18.0002566455
 30
0.0
 10
6.4611331174
 20
18.4371043007
 30
0.0
 10
6.7102336686
 20
18.840086455
 30
0.0
 10
6.9173579482
 20
19.0793318555
 30
0.0
 10
7.0296440938
 20
19.1899121223
 30
0.0
  0
SPLINE
  5
2A4
100
AcDbEntity
  8
0
100
AcDbSpline
 62
7
  6
BYLAYER
 70
0
 71
3
 72
15
 73
11
 74
0
 42
0.0000001
 43
0.0000001
 44
0.0000000001
 40
0.0
 40
0.0
 40
0.0
 40
0.0
 40
0.1250177529
 40
0.2500160018
 40
0.3750116242
 40
0.5000101459
 40
0.6250008914
 40
0.7500149227
 40
0.8750149021
 40
1.0
 40
1.0
 40
1.0
 40
1.0
 10
12.1510653662
 20
17.9683953386
 30
0.0
 10
12.1510614262
 20
18.1659612777
 30
0.0
 10
12.112887771
 20
18.5620958271
 30
0.0
 10
11.9434836172
 20
19.133669888
 30
0.0
 10
11.6674265938
 20
19.6622170162
 30
0.0
 10
11.2947545636
 20
20.1279892254
 30
0.0
 10
10.8366858742
 20
20.509861746
 30
0.0
 10
10.3144664456
 20
20.7981478344
 30
0.0
 10
9.7445765308
 20
20.9744051725
 30
0.0
 10
9.3484787716
 20
21.0146749227
 30
0.0
 10
9.1509644374
 20
21.0146753841
 30
0.0
  0
SPLINE
  5
2A5
100
AcDbEntity
  8
0
100
AcDbSpline
 62
7
  6
BYLAYER
 70
0
 71
3
 72
15
 73
11
 74
0
 42
0.0000001
 43
0.0000001
 44
0.0000000001
 40
0.0
 40
0.0
 40
0.0
 40
0.0
 40
0.1240589695
 40
0.2482614303
 40
0.3727294941
 40
0.4975407763
 40
0.6227306831
 40
0.7482565713
 40
0.8740732615
 40
1.0
 40
1.0
 40
1.0
 40
1.0
 10
21.4059068285
 20
7.8365466618
 30
0.0
 10
21.4059053838
 20
7.6607788322
 30
0.0
 10
21.3706478738
 20
7.308037337
 30
0.0
 10
21.2140717617
 20
6.800208579
 30
0.0
 10
20.9598719219
 20
6.3321163122
 30
0.0
 10
20.6179074035
 20
5.9219930293
 30
0.0
 10
20.201357593
 20
5.5855541483
 30
0.0
 10
19.7262262404
 20
5.3355488313
 30
0.0
 10
19.210980056
 20
5.1817132691
 30
0.0
 10
18.8533524986
 20
5.1470591058
 30
0.0
 10
18.6749383976
 20
5.1470591058
 30
0.0
  0
SPLINE
  5
2A6
100
AcDbEntity
  8
0
100
AcDbSpline
 62
7
  6
BYLAYER
 70
0
 71
3
 72
15
 73
11
 74
0
 42
0.0000001
 43
0.0000001
 44
0.0000000001
 40
0.0
 40
0.0
 40
0.0
 40
0.0
 40
0.1259263728
 40
0.2517400676
 40
0.3772641325
 40
0.50245239
 40
0.6272640214
 40
0.7517341823
 40
0.8759392385
 40
1.0
 40
1.0
 40
1.0
 40
1.0
 10
18.6749383976
 20
5.1470591058
 30
0.0
 10
18.4965247844
 20
5.1470591058
 30
0.0
 10
18.138901754
 20
5.1817115022
 30
0.0
 10
17.6236626745
 20
5.335544529
 30
0.0
 10
17.1485365954
 20
5.5855399979
 30
0.0
 10
16.7319877925
 20
5.9219733984
 30
0.0
 10
16.3900192007
 20
6.3320946941
 30
0.0
 10
16.1358119185
 20
6.8001915707
 30
0.0
 10
15.9792321505
 20
7.3080285007
 30
0.0
 10
15.9439685219
 20
7.6607762643
 30
0.0
 10
15.9439699667
 20
7.8365466627
 30
0.0
  0
SPLINE
  5
2A7
100
AcDbEntity
  8
0
100
AcDbSpline
 62
7
  6
BYLAYER
 70
0
 71
3
 72
11
 73
7
 74
0
 42
0.0000001
 43
0.0000001
 44
0.0000000001
 40
0.0
 40
0.0
 40
0.0
 40
0.0
 40
0.2509929013
 40
0.5012016233
 40
0.7507725796
 40
1.0
 40
1.0
 40
1.0
 40
1.0
 10
16.8981525675
 20
10.3131091887
 30
0.0
 10
16.7496361134
 20
10.1878057985
 30
0.0
 10
16.4790833128
 20
9.9047270016
 30
0.0
 10
16.1749917101
 20
9.4041918368
 30
0.0
 10
15.9865072719
 20
8.8510922029
 30
0.0
 10
15.9439804495
 20
8.4636146603
 30
0.0
 10
15.9439697622
 20
8.2706670894
 30
0.0
  0
SPLINE
  5
2A8
100
AcDbEntity
  8
0
100
AcDbSpline
 62
7
  6
BYLAYER
 70
0
 71
3
 72
11
 73
7
 74
0
 42
0.0000001
 43
0.0000001
 44
0.0000000001
 40
0.0
 40
0.0
 40
0.0
 40
0.0
 40
0.2472726929
 40
0.4958389939
 40
0.7464195034
 40
1.0
 40
1.0
 40
1.0
 40
1.0
 10
21.1222700519
 20
9.3120938791
 30
0.0
 10
21.1214433826
 20
9.403394453
 30
0.0
 10
21.1079151308
 20
9.5865860352
 30
0.0
 10
21.051823291
 20
9.8572190573
 30
0.0
 10
20.9598692394
 20
10.1203119115
 30
0.0
 10
20.8760375496
 20
10.2872232537
 30
0.0
 10
20.8285957221
 20
10.3679480632
 30
0.0
  0
SPLINE
  5
2A9
100
AcDbEntity
  8
0
100
AcDbSpline
 62
7
  6
BYLAYER
 70
0
 71
3
 72
17
 73
13
 74
0
 42
0.0000001
 43
0.0000001
 44
0.0000000001
 40
0.0
 40
0.0
 40
0.0
 40
0.0
 40
0.1258763075
 40
0.1887814082
 40
0.2516258578
 40
0.3769912019
 40
0.5020475157
 40
0.5645164298
 40
0.6269168017
 40
0.7514332226
 40
0.8757647989
 40
1.0
 40
1.0
 40
1.0
 40
1.0
 10
19.4547003479
 20
10.4140769619
 30
0.0
 10
19.5941568139
 20
10.3731549277
 30
0.0
 10
19.7989437098
 20
10.2950701546
 30
0.0
 10
20.0563446831
 20
10.1598751742
 30
0.0
 10
20.3018148039
 20
10.0050563872
 30
0.0
 10
20.5838263459
 20
9.7759829377
 30
0.0
 10
20.8254400648
 20
9.5051829971
 30
0.0
 10
20.9903399781
 20
9.2680419587
 30
0.0
 10
21.1353897271
 20
9.0189982431
 30
0.0
 10
21.277998755
 20
8.687253596
 30
0.0
 10
21.3824650874
 20
8.267537427
 30
0.0
 10
21.4059080076
 20
7.9799884139
 30
0.0
 10
21.4059068285
 20
7.8365466618
 30
0.0
  0
ELLIPSE
  5
2AA
100
AcDbEntity
  8
0
100
AcDbEllipse
 62
7
  6
BYLAYER
 10
18.6749383976
 20
8.4017464897
 30
0.0
 11
2.7309772371
 21
0.0
 31
0.0
 40
0.9216049851
 41
2.2526861726
 42
2.2791763776
  0
ENDSEC
  0
SECTION
  2
OBJECTS
  0
DICTIONARY
  5
C
100
AcDbDictionary
280
0
281
1
  3
ACAD_GROUP
350
D
  3
ACAD_MLINESTYLE
350
17
  3
ACAD_LAYOUT
350
1A
  3
ACAD_PLOTSETTINGS
350
19
  3
ACAD_PLOTSTYLENAME
350
E
  0
DICTIONARY
  5
D
102
{ACAD_REACTORS
330
C
102
}
100
AcDbDictionary
280
0
281
1
  0
ACDBDICTIONARYWDFLT
  5
E
102
{ACAD_REACTORS
330
C
102
}
100
AcDbDictionary
281
1
  3
Normal
350
F
100
AcDbDictionaryWithDefault
340
F
  0
DICTIONARY
  5
17
102
{ACAD_REACTORS
330
C
102
}
100
AcDbDictionary
280
0
281
1
  3
Standard
350
18
  0
DICTIONARY
  5
19
102
{ACAD_REACTORS
330
C
102
}
100
AcDbDictionary
281
1
  0
DICTIONARY
  5
1A
102
{ACAD_REACTORS
330
C
102
}
100
AcDbDictionary
281
1
  3
Model
350
2AB
  3
Layout1
350
2AC
  0
ACDBPLACEHOLDER
  5
F
102
{ACAD_REACTORS
330
E
102
}
  0
MLINESTYLE
  5
18
102
{ACAD_REACTORS
330
17
102
}
100
AcDbMlineStyle
  2
STANDARD
 70
0
  3

 62
256
 51
90.0
 52
90.0
 71
2
 49
0.5
 62
256
  6
BYLAYER
 49
-0.5
 62
256
  6
BYLAYER
  0
LAYOUT
  5
2AB
102
{ACAD_REACTORS
330
1A
102
}
100
AcDbPlotSettings
  1

  2
none_device
  4

  6

 40
0.0
 41
0.0
 42
0.0
 43
0.0
 44
210.0
 45
297.0
 46
0.0
 47
0.0
 48
0.0
 49
0.0
140
0.0
141
0.0
142
1.0
143
1.0
 70
1024
 72
1
 73
0
 74
0
  7

 75
0
147
1.0
148
0.0
149
0.0
100
AcDbLayout
  1
Model
 70
0
 71
0
 10
0.0
 20
0.0
 11
210.0
 21
297.0
 12
0.0
 22
0.0
 32
0.0
 14
0.0
 24
0.0
 34
0.0
 15
0.0
 25
0.0
 35
0.0
146
0.0
 13
0.0
 23
0.0
 33
0.0
 16
1.0
 26
0.0
 36
0.0
 17
0.0
 27
1.0
 37
0.0
 76
0
330
210
345
0
346
0
  0
LAYOUT
  5
2AC
102
{ACAD_REACTORS
330
1A
102
}
100
AcDbPlotSettings
  1

  2
none_device
  4

  6

 40
0.0
 41
0.0
 42
0.0
 43
0.0
 44
210.0
 45
297.0
 46
0.0
 47
0.0
 48
0.0
 49
0.0
140
0.0
141
0.0
142
1.0
143
1.0
 70
0
 72
1
 73
0
 74
0
  7

 75
0
147
1.0
148
0.0
149
0.0
100
AcDbLayout
  1
Layout1
 70
0
 71
1
 10
0.0
 20
0.0
 11
210.0
 21
297.0
 12
0.0
 22
0.0
 32
0.0
 14
0.0
 24
0.0
 34
0.0
 15
0.0
 25
0.0
 35
0.0
146
0.0
 13
0.0
 23
0.0
 33
0.0
 16
1.0
 26
0.0
 36
0.0
 17
0.0
 27
1.0
 37
0.0
 76
0
330
211
345
0
346
0
  0
ENDSEC
  0
EOF
