  0
SECTION
  2
HEADER
  9
$ACADVER
  1
AC1009
  9
$DWGCODEPAGE
  3
ansi_1250
  9
$INSBASE
 10
0.0
 20
0.0
 30
0.0
  9
$EXTMIN
 10
-0.669291
 20
-1.181102
 30
0.0
  9
$EXTMAX
 10
1.909449
 20
1.181102
 30
0.0
  9
$LIMMIN
 10
0.0
 20
0.0
  9
$LIMMAX
 10
0.0
 20
0.0
  9
$ORTHOMODE
 70
     0
  9
$REGENMODE
 70
     1
  9
$FILLMODE
 70
     1
  9
$QTEXTMODE
 70
     0
  9
$MIRRTEXT
 70
     1
  9
$DRAGMODE
 70
     2
  9
$LTSCALE
 40
1.0
  9
$OSMODE
 70
     0
  9
$ATTMODE
 70
     1
  9
$TEXTSIZE
 40
0.2
  9
$TRACEWID
 40
0.05
  9
$TEXTSTYLE
  7
STANDARD
  9
$CLAYER
  8
0
  9
$CELTYPE
  6
CONTINUOUS
  9
$CECOLOR
 62
   256
  9
$DIMSCALE
 40
1.0
  9
$DIMASZ
 40
0.18
  9
$DIMEXO
 40
0.0625
  9
$DIMDLI
 40
0.38
  9
$DIMRND
 40
0.0
  9
$DIMDLE
 40
0.0
  9
$DIMEXE
 40
0.18
  9
$DIMTP
 40
0.0
  9
$DIMTM
 40
0.0
  9
$DIMTXT
 40
0.18
  9
$DIMCEN
 40
0.09
  9
$DIMTSZ
 40
0.0
  9
$DIMTOL
 70
     0
  9
$DIMLIM
 70
     0
  9
$DIMTIH
 70
     1
  9
$DIMTOH
 70
     1
  9
$DIMSE1
 70
     0
  9
$DIMSE2
 70
     0
  9
$DIMTAD
 70
     0
  9
$DIMZIN
 70
     0
  9
$DIMBLK
  1

  9
$DIMASO
 70
     1
  9
$DIMSHO
 70
     1
  9
$DIMPOST
  1

  9
$DIMAPOST
  1

  9
$DIMALT
 70
     0
  9
$DIMALTD
 70
     2
  9
$DIMALTF
 40
25.4
  9
$DIMLFAC
 40
1.0
  9
$DIMTOFL
 70
     0
  9
$DIMTVP
 40
0.0
  9
$DIMTIX
 70
     0
  9
$DIMSOXD
 70
     0
  9
$DIMSAH
 70
     0
  9
$DIMBLK1
  1

  9
$DIMBLK2
  1

  9
$DIMSTYLE
  2
STANDARD
  9
$DIMCLRD
 70
     0
  9
$DIMCLRE
 70
     0
  9
$DIMCLRT
 70
     0
  9
$DIMTFAC
 40
1.0
  9
$DIMGAP
 40
0.09
  9
$LUNITS
 70
     2
  9
$LUPREC
 70
     4
  9
$AXISMODE
 70
     0
  9
$AXISUNIT
 10
0.0
 20
0.0
  9
$SKETCHINC
 40
0.1
  9
$FILLETRAD
 40
0.0
  9
$AUNITS
 70
     0
  9
$AUPREC
 70
     0
  9
$MENU
  1
acad
  9
$ELEVATION
 40
0.0
  9
$PELEVATION
 40
0.0
  9
$THICKNESS
 40
0.0
  9
$LIMCHECK
 70
     0
  9
$BLIPMODE
 70
     1
  9
$CHAMFERA
 40
0.0
  9
$CHAMFERB
 40
0.0
  9
$SKPOLY
 70
     0
  9
$TDCREATE
 40
0.000000000
  9
$TDUPDATE
 40
0.000000000
  9
$TDINDWG
 40
0.0000000000
  9
$TDUSRTIMER
 40
0.0000000000
  9
$USRTIMER
 70
     1
  9
$ANGBASE
 50
0.0
  9
$ANGDIR
 70
     0
  9
$PDMODE
 70
     0
  9
$PDSIZE
 40
0.0
  9
$PLINEWID
 40
0.0
  9
$COORDS
 70
     0
  9
$SPLFRAME
 70
     0
  9
$SPLINETYPE
 70
     6
  9
$SPLINESEGS
 70
     8
  9
$ATTDIA
 70
     0
  9
$ATTREQ
 70
     1
  9
$HANDLING
 70
     1
  9
$HANDSEED
  5
15F
  9
$SURFTAB1
 70
     6
  9
$SURFTAB2
 70
     6
  9
$SURFTYPE
 70
     6
  9
$SURFU
 70
     6
  9
$SURFV
 70
     6
  9
$UCSNAME
  2

  9
$UCSORG
 10
0.0
 20
0.0
 30
0.0
  9
$UCSXDIR
 10
1.0
 20
0.0
 30
0.0
  9
$UCSYDIR
 10
0.0
 20
1.0
 30
0.0
  9
$PUCSNAME
  2

  9
$PUCSORG
 10
0.0
 20
0.0
 30
0.0
  9
$PUCSXDIR
 10
1.0
 20
0.0
 30
0.0
  9
$PUCSYDIR
 10
0.0
 20
1.0
 30
0.0
  9
$USERI1
 70
     0
  9
$USERI2
 70
     0
  9
$USERI3
 70
     0
  9
$USERI4
 70
     0
  9
$USERI5
 70
     0
  9
$USERR1
 40
0.0
  9
$USERR2
 40
0.0
  9
$USERR3
 40
0.0
  9
$USERR4
 40
0.0
  9
$USERR5
 40
0.0
  9
$WORLDVIEW
 70
     1
  9
$SHADEDGE
 70
     3
  9
$SHADEDIF
 70
    70
  9
$TILEMODE
 70
     1
  9
$MAXACTVP
 70
    16
  9
$PINSBASE
 10
0.0
 20
0.0
 30
0.0
  9
$PLIMCHECK
 70
     0
  9
$PEXTMIN
 10
1.000000E+20
 20
1.000000E+20
 30
1.000000E+20
  9
$PEXTMAX
 10
-1.000000E+20
 20
-1.000000E+20
 30
-1.000000E+20
  9
$PLIMMIN
 10
0.0
 20
0.0
  9
$PLIMMAX
 10
12.0
 20
9.0
  9
$UNITMODE
 70
     0
  9
$VISRETAIN
 70
     0
  9
$PLINEGEN
 70
     1
  9
$PSLTSCALE
 70
     0
  9
$TREEDEPTH
 70
  3020
  0
ENDSEC
  0
SECTION
  2
TABLES
  0
TABLE
  2
VPORT
 70
     1
  0
VPORT
  2
*ACTIVE
 70
     0
 10
0.0
 20
0.0
 11
1.0
 21
1.0
 12
6.591288
 22
4.579184
 13
0.0
 23
0.0
 14
1.0
 24
1.0
 15
0.0
 25
0.0
 16
0.0
 26
0.0
 36
1.0
 17
0.0
 27
0.0
 37
0.0
 40
9.158369
 41
0.688564
 42
50.0
 43
0.0
 44
0.0
 50
0.0
 51
0.0
 71
     0
 72
   100
 73
     1
 74
     1
 75
     0
 76
     0
 77
     0
 78
     0
  0
ENDTAB
  0
TABLE
  2
LTYPE
 70
     5
  0
LTYPE
  2
CONTINUOUS
 70
    64
  3
Solid line
 72
    65
 73
     0
 40
0.0
  0
LTYPE
  2
CENTER
 70
    64
  3
Center ____ _ ____ _ ____ _ ____ _ ____ _ ____
 72
    65
 73
     4
 40
50.8
 49
31.75
 49
-6.35
 49
6.35
 49
-6.35
  0
LTYPE
  2
HIDDEN
 70
    64
  3
Hidden __ __ __ __ __ __ __ __ __ __ __ __ __ __
 72
    65
 73
     2
 40
9.525
 49
6.35
 49
-3.175
  0
LTYPE
  2
CENTER2
 70
    64
  3
Center (.5x) ___ _ ___ _ ___ _ ___ _ ___ _ ___
 72
    65
 73
     4
 40
28.575
 49
19.05
 49
-3.175
 49
3.175
 49
-3.175
  0
LTYPE
  2
HIDDEN2
 70
    64
  3
Hidden (.5x) _ _ _ _ _ _ _ _ _ _ _ _ _ _ _ _ _
 72
    65
 73
     2
 40
4.7625
 49
3.175
 49
-1.5875
  0
ENDTAB
  0
TABLE
  2
LAYER
 70
     1
  0
LAYER
  2
0
 70
     0
 62
     7
  6
CONTINUOUS
  0
ENDTAB
  0
TABLE
  2
STYLE
 70
     1
  0
STYLE
  2
STANDARD
 70
     0
 40
0.0
 41
1.0
 50
0.0
 71
     0
 42
0.0
  3
txt
  4

  0
ENDTAB
  0
TABLE
  2
VIEW
 70
     0
  0
ENDTAB
  0
TABLE
  2
UCS
 70
     0
  0
ENDTAB
  0
TABLE
  2
APPID
 70
     1
  0
APPID
  2
ACAD
 70
     0
  0
ENDTAB
  0
TABLE
  2
DIMSTYLE
 70
     1
  0
DIMSTYLE
  2
STANDARD
 70
     0
  3

  4

  5

  6

  7

 40
1.0
 41
0.18
 42
0.0625
 43
0.38
 44
0.18
 45
0.0
 46
0.0
 47
0.0
 48
0.0
 71
     0
 72
     0
 73
     1
 74
     1
 75
     0
 76
     0
 77
     0
 78
     0
140
0.18
141
0.09
142
0.0
143
25.4
144
1.0
145
0.0
146
1.0
147
0.09
170
     0
171
     2
172
     0
173
     0
174
     0
175
     0
176
     0
177
     0
178
     0
  0
ENDTAB
  0
ENDSEC
  0
SECTION
  2
BLOCKS
  0
ENDSEC
  0
SECTION
  2
ENTITIES
  0
LINE
  8
0
  6
CONTINUOUS
 62
     7
  5
D0
 10
-0.28614
 20
-0.269189
 30
0.0
 11
-0.286418
 21
-0.268124
 31
0.0
  0
LINE
  8
0
  6
CONTINUOUS
 62
     7
  5
D1
 10
-0.286418
 20
-0.268124
 30
0.0
 11
-0.286696
 21
-0.267063
 31
0.0
  0
LINE
  8
0
  6
CONTINUOUS
 62
     7
  5
D2
 10
-0.286696
 20
-0.267063
 30
0.0
 11
-0.286972
 21
-0.266007
 31
0.0
  0
LINE
  8
0
  6
CONTINUOUS
 62
     7
  5
D3
 10
-0.286972
 20
-0.266007
 30
0.0
 11
-0.287248
 21
-0.264954
 31
0.0
  0
LINE
  8
0
  6
CONTINUOUS
 62
     7
  5
D4
 10
-0.287248
 20
-0.264954
 30
0.0
 11
-0.287522
 21
-0.263905
 31
0.0
  0
LINE
  8
0
  6
CONTINUOUS
 62
     7
  5
D5
 10
-0.287522
 20
-0.263905
 30
0.0
 11
-0.287795
 21
-0.26286
 31
0.0
  0
LINE
  8
0
  6
CONTINUOUS
 62
     7
  5
D6
 10
-0.287795
 20
-0.26286
 30
0.0
 11
-0.288067
 21
-0.261819
 31
0.0
  0
LINE
  8
0
  6
CONTINUOUS
 62
     7
  5
D7
 10
-0.288067
 20
-0.261819
 30
0.0
 11
-0.288338
 21
-0.260782
 31
0.0
  0
LINE
  8
0
  6
CONTINUOUS
 62
     7
  5
D8
 10
-0.288338
 20
-0.260782
 30
0.0
 11
-0.288608
 21
-0.259749
 31
0.0
  0
LINE
  8
0
  6
CONTINUOUS
 62
     7
  5
D9
 10
-0.288608
 20
-0.259749
 30
0.0
 11
-0.288877
 21
-0.258719
 31
0.0
  0
LINE
  8
0
  6
CONTINUOUS
 62
     7
  5
DA
 10
-0.288877
 20
-0.258719
 30
0.0
 11
-0.289145
 21
-0.257694
 31
0.0
  0
LINE
  8
0
  6
CONTINUOUS
 62
     7
  5
DB
 10
-0.289145
 20
-0.257694
 30
0.0
 11
-0.289412
 21
-0.256672
 31
0.0
  0
LINE
  8
0
  6
CONTINUOUS
 62
     7
  5
DC
 10
-0.289412
 20
-0.256672
 30
0.0
 11
-0.289678
 21
-0.255654
 31
0.0
  0
LINE
  8
0
  6
CONTINUOUS
 62
     7
  5
DD
 10
-0.289678
 20
-0.255654
 30
0.0
 11
-0.289943
 21
-0.254639
 31
0.0
  0
LINE
  8
0
  6
CONTINUOUS
 62
     7
  5
DE
 10
-0.289943
 20
-0.254639
 30
0.0
 11
-0.290206
 21
-0.253629
 31
0.0
  0
LINE
  8
0
  6
CONTINUOUS
 62
     7
  5
DF
 10
-0.290206
 20
-0.253629
 30
0.0
 11
-0.290469
 21
-0.252622
 31
0.0
  0
LINE
  8
0
  6
CONTINUOUS
 62
     7
  5
E0
 10
-0.290469
 20
-0.252622
 30
0.0
 11
-0.290731
 21
-0.251618
 31
0.0
  0
LINE
  8
0
  6
CONTINUOUS
 62
     7
  5
E1
 10
-0.290731
 20
-0.251618
 30
0.0
 11
-0.290992
 21
-0.250619
 31
0.0
  0
LINE
  8
0
  6
CONTINUOUS
 62
     7
  5
E2
 10
-0.290992
 20
-0.250619
 30
0.0
 11
-0.291251
 21
-0.249623
 31
0.0
  0
LINE
  8
0
  6
CONTINUOUS
 62
     7
  5
E3
 10
-0.291251
 20
-0.249623
 30
0.0
 11
-0.29151
 21
-0.24863
 31
0.0
  0
LINE
  8
0
  6
CONTINUOUS
 62
     7
  5
E4
 10
-0.29151
 20
-0.24863
 30
0.0
 11
-0.291768
 21
-0.247641
 31
0.0
  0
LINE
  8
0
  6
CONTINUOUS
 62
     7
  5
E5
 10
-0.291768
 20
-0.247641
 30
0.0
 11
-0.292025
 21
-0.246656
 31
0.0
  0
LINE
  8
0
  6
CONTINUOUS
 62
     7
  5
E6
 10
-0.292025
 20
-0.246656
 30
0.0
 11
-0.292281
 21
-0.245674
 31
0.0
  0
LINE
  8
0
  6
CONTINUOUS
 62
     7
  5
E7
 10
-0.292281
 20
-0.245674
 30
0.0
 11
-0.292535
 21
-0.244696
 31
0.0
  0
LINE
  8
0
  6
CONTINUOUS
 62
     7
  5
E8
 10
-0.292535
 20
-0.244696
 30
0.0
 11
-0.292789
 21
-0.243722
 31
0.0
  0
LINE
  8
0
  6
CONTINUOUS
 62
     7
  5
E9
 10
-0.292789
 20
-0.243722
 30
0.0
 11
-0.293042
 21
-0.24275
 31
0.0
  0
LINE
  8
0
  6
CONTINUOUS
 62
     7
  5
EA
 10
-0.293042
 20
-0.24275
 30
0.0
 11
-0.293294
 21
-0.241783
 31
0.0
  0
LINE
  8
0
  6
CONTINUOUS
 62
     7
  5
EB
 10
-0.293294
 20
-0.241783
 30
0.0
 11
-0.293545
 21
-0.240818
 31
0.0
  0
LINE
  8
0
  6
CONTINUOUS
 62
     7
  5
EC
 10
-0.293545
 20
-0.240818
 30
0.0
 11
-0.293795
 21
-0.239857
 31
0.0
  0
LINE
  8
0
  6
CONTINUOUS
 62
     7
  5
ED
 10
-0.293795
 20
-0.239857
 30
0.0
 11
-0.294044
 21
-0.2389
 31
0.0
  0
LINE
  8
0
  6
CONTINUOUS
 62
     7
  5
EE
 10
-0.294044
 20
-0.2389
 30
0.0
 11
-0.294292
 21
-0.237946
 31
0.0
  0
LINE
  8
0
  6
CONTINUOUS
 62
     7
  5
EF
 10
-0.294292
 20
-0.237946
 30
0.0
 11
-0.29454
 21
-0.236995
 31
0.0
  0
LINE
  8
0
  6
CONTINUOUS
 62
     7
  5
F0
 10
-0.29454
 20
-0.236995
 30
0.0
 11
-0.294786
 21
-0.236048
 31
0.0
  0
LINE
  8
0
  6
CONTINUOUS
 62
     7
  5
F1
 10
-0.294786
 20
-0.236048
 30
0.0
 11
-0.295031
 21
-0.235104
 31
0.0
  0
LINE
  8
0
  6
CONTINUOUS
 62
     7
  5
F2
 10
-0.295031
 20
-0.235104
 30
0.0
 11
-0.295276
 21
-0.234163
 31
0.0
  0
LINE
  8
0
  6
CONTINUOUS
 62
     7
  5
F3
 10
-0.28614
 20
-0.275591
 30
0.0
 11
-0.28614
 21
-0.269189
 31
0.0
  0
LINE
  8
0
  6
CONTINUOUS
 62
     7
  5
F4
 10
-0.28614
 20
0.269189
 30
0.0
 11
-0.28614
 21
0.275591
 31
0.0
  0
LINE
  8
0
  6
CONTINUOUS
 62
     7
  5
F5
 10
-0.295276
 20
0.234163
 30
0.0
 11
-0.295031
 21
0.235104
 31
0.0
  0
LINE
  8
0
  6
CONTINUOUS
 62
     7
  5
F6
 10
-0.295031
 20
0.235104
 30
0.0
 11
-0.294786
 21
0.236048
 31
0.0
  0
LINE
  8
0
  6
CONTINUOUS
 62
     7
  5
F7
 10
-0.294786
 20
0.236048
 30
0.0
 11
-0.29454
 21
0.236995
 31
0.0
  0
LINE
  8
0
  6
CONTINUOUS
 62
     7
  5
F8
 10
-0.29454
 20
0.236995
 30
0.0
 11
-0.294292
 21
0.237946
 31
0.0
  0
LINE
  8
0
  6
CONTINUOUS
 62
     7
  5
F9
 10
-0.294292
 20
0.237946
 30
0.0
 11
-0.294044
 21
0.2389
 31
0.0
  0
LINE
  8
0
  6
CONTINUOUS
 62
     7
  5
FA
 10
-0.294044
 20
0.2389
 30
0.0
 11
-0.293795
 21
0.239857
 31
0.0
  0
LINE
  8
0
  6
CONTINUOUS
 62
     7
  5
FB
 10
-0.293795
 20
0.239857
 30
0.0
 11
-0.293545
 21
0.240818
 31
0.0
  0
LINE
  8
0
  6
CONTINUOUS
 62
     7
  5
FC
 10
-0.293545
 20
0.240818
 30
0.0
 11
-0.293294
 21
0.241783
 31
0.0
  0
LINE
  8
0
  6
CONTINUOUS
 62
     7
  5
FD
 10
-0.293294
 20
0.241783
 30
0.0
 11
-0.293042
 21
0.24275
 31
0.0
  0
LINE
  8
0
  6
CONTINUOUS
 62
     7
  5
FE
 10
-0.293042
 20
0.24275
 30
0.0
 11
-0.292789
 21
0.243722
 31
0.0
  0
LINE
  8
0
  6
CONTINUOUS
 62
     7
  5
FF
 10
-0.292789
 20
0.243722
 30
0.0
 11
-0.292535
 21
0.244696
 31
0.0
  0
LINE
  8
0
  6
CONTINUOUS
 62
     7
  5
100
 10
-0.292535
 20
0.244696
 30
0.0
 11
-0.292281
 21
0.245674
 31
0.0
  0
LINE
  8
0
  6
CONTINUOUS
 62
     7
  5
101
 10
-0.292281
 20
0.245674
 30
0.0
 11
-0.292025
 21
0.246656
 31
0.0
  0
LINE
  8
0
  6
CONTINUOUS
 62
     7
  5
102
 10
-0.292025
 20
0.246656
 30
0.0
 11
-0.291768
 21
0.247641
 31
0.0
  0
LINE
  8
0
  6
CONTINUOUS
 62
     7
  5
103
 10
-0.291768
 20
0.247641
 30
0.0
 11
-0.29151
 21
0.24863
 31
0.0
  0
LINE
  8
0
  6
CONTINUOUS
 62
     7
  5
104
 10
-0.29151
 20
0.24863
 30
0.0
 11
-0.291251
 21
0.249623
 31
0.0
  0
LINE
  8
0
  6
CONTINUOUS
 62
     7
  5
105
 10
-0.291251
 20
0.249623
 30
0.0
 11
-0.290992
 21
0.250619
 31
0.0
  0
LINE
  8
0
  6
CONTINUOUS
 62
     7
  5
106
 10
-0.290992
 20
0.250619
 30
0.0
 11
-0.290731
 21
0.251618
 31
0.0
  0
LINE
  8
0
  6
CONTINUOUS
 62
     7
  5
107
 10
-0.290731
 20
0.251618
 30
0.0
 11
-0.290469
 21
0.252622
 31
0.0
  0
LINE
  8
0
  6
CONTINUOUS
 62
     7
  5
108
 10
-0.290469
 20
0.252622
 30
0.0
 11
-0.290206
 21
0.253629
 31
0.0
  0
LINE
  8
0
  6
CONTINUOUS
 62
     7
  5
109
 10
-0.290206
 20
0.253629
 30
0.0
 11
-0.289943
 21
0.254639
 31
0.0
  0
LINE
  8
0
  6
CONTINUOUS
 62
     7
  5
10A
 10
-0.289943
 20
0.254639
 30
0.0
 11
-0.289678
 21
0.255654
 31
0.0
  0
LINE
  8
0
  6
CONTINUOUS
 62
     7
  5
10B
 10
-0.289678
 20
0.255654
 30
0.0
 11
-0.289412
 21
0.256672
 31
0.0
  0
LINE
  8
0
  6
CONTINUOUS
 62
     7
  5
10C
 10
-0.289412
 20
0.256672
 30
0.0
 11
-0.289145
 21
0.257694
 31
0.0
  0
LINE
  8
0
  6
CONTINUOUS
 62
     7
  5
10D
 10
-0.289145
 20
0.257694
 30
0.0
 11
-0.288877
 21
0.258719
 31
0.0
  0
LINE
  8
0
  6
CONTINUOUS
 62
     7
  5
10E
 10
-0.288877
 20
0.258719
 30
0.0
 11
-0.288608
 21
0.259749
 31
0.0
  0
LINE
  8
0
  6
CONTINUOUS
 62
     7
  5
10F
 10
-0.288608
 20
0.259749
 30
0.0
 11
-0.288338
 21
0.260782
 31
0.0
  0
LINE
  8
0
  6
CONTINUOUS
 62
     7
  5
110
 10
-0.288338
 20
0.260782
 30
0.0
 11
-0.288067
 21
0.261819
 31
0.0
  0
LINE
  8
0
  6
CONTINUOUS
 62
     7
  5
111
 10
-0.288067
 20
0.261819
 30
0.0
 11
-0.287795
 21
0.26286
 31
0.0
  0
LINE
  8
0
  6
CONTINUOUS
 62
     7
  5
112
 10
-0.287795
 20
0.26286
 30
0.0
 11
-0.287522
 21
0.263905
 31
0.0
  0
LINE
  8
0
  6
CONTINUOUS
 62
     7
  5
113
 10
-0.287522
 20
0.263905
 30
0.0
 11
-0.287248
 21
0.264954
 31
0.0
  0
LINE
  8
0
  6
CONTINUOUS
 62
     7
  5
114
 10
-0.287248
 20
0.264954
 30
0.0
 11
-0.286972
 21
0.266007
 31
0.0
  0
LINE
  8
0
  6
CONTINUOUS
 62
     7
  5
115
 10
-0.286972
 20
0.266007
 30
0.0
 11
-0.286696
 21
0.267063
 31
0.0
  0
LINE
  8
0
  6
CONTINUOUS
 62
     7
  5
116
 10
-0.286696
 20
0.267063
 30
0.0
 11
-0.286418
 21
0.268124
 31
0.0
  0
LINE
  8
0
  6
CONTINUOUS
 62
     7
  5
117
 10
-0.286418
 20
0.268124
 30
0.0
 11
-0.28614
 21
0.269189
 31
0.0
  0
LINE
  8
0
  6
CONTINUOUS
 62
     7
  5
118
 10
-0.295276
 20
0.234163
 30
0.0
 11
-0.295276
 21
-0.234163
 31
0.0
  0
LINE
  8
0
  6
CONTINUOUS
 62
     7
  5
119
 10
-0.636689
 20
0.269189
 30
0.0
 11
-0.28614
 21
0.269189
 31
0.0
  0
ARC
  8
0
  6
CONTINUOUS
 62
     7
  5
11A
 10
0.511811
 20
0.0
 30
0.0
 40
1.179625
 50
166.808957
 51
193.191043
  0
LINE
  8
0
  6
CONTINUOUS
 62
     7
  5
11B
 10
-0.28614
 20
-0.269189
 30
0.0
 11
-0.636689
 21
-0.269189
 31
0.0
  0
LINE
  8
0
  6
CONTINUOUS
 62
     7
  5
11C
 10
-0.626847
 20
0.275591
 30
0.0
 11
-0.626847
 21
0.273785
 31
0.0
  0
LINE
  8
0
  6
CONTINUOUS
 62
     7
  5
11D
 10
-0.626847
 20
0.273785
 30
0.0
 11
-0.636689
 21
0.273785
 31
0.0
  0
LINE
  8
0
  6
CONTINUOUS
 62
     7
  5
11E
 10
-0.636689
 20
0.273785
 30
0.0
 11
-0.636689
 21
0.269189
 31
0.0
  0
LINE
  8
0
  6
CONTINUOUS
 62
     7
  5
11F
 10
-0.636689
 20
-0.269189
 30
0.0
 11
-0.636689
 21
-0.275591
 31
0.0
  0
LINE
  8
0
  6
CONTINUOUS
 62
     7
  5
120
 10
-0.668215
 20
0.03937
 30
0.0
 11
-0.66826
 21
0.038005
 31
0.0
  0
LINE
  8
0
  6
CONTINUOUS
 62
     7
  5
121
 10
-0.66826
 20
0.038005
 30
0.0
 11
-0.668306
 21
0.036625
 31
0.0
  0
LINE
  8
0
  6
CONTINUOUS
 62
     7
  5
122
 10
-0.668306
 20
0.036625
 30
0.0
 11
-0.668353
 21
0.035234
 31
0.0
  0
LINE
  8
0
  6
CONTINUOUS
 62
     7
  5
123
 10
-0.668353
 20
0.035234
 30
0.0
 11
-0.668399
 21
0.033839
 31
0.0
  0
LINE
  8
0
  6
CONTINUOUS
 62
     7
  5
124
 10
-0.668399
 20
0.033839
 30
0.0
 11
-0.668446
 21
0.032445
 31
0.0
  0
LINE
  8
0
  6
CONTINUOUS
 62
     7
  5
125
 10
-0.668446
 20
0.032445
 30
0.0
 11
-0.668492
 21
0.031057
 31
0.0
  0
LINE
  8
0
  6
CONTINUOUS
 62
     7
  5
126
 10
-0.668492
 20
0.031057
 30
0.0
 11
-0.668538
 21
0.029682
 31
0.0
  0
LINE
  8
0
  6
CONTINUOUS
 62
     7
  5
127
 10
-0.668538
 20
0.029682
 30
0.0
 11
-0.668583
 21
0.028324
 31
0.0
  0
LINE
  8
0
  6
CONTINUOUS
 62
     7
  5
128
 10
-0.668583
 20
0.028324
 30
0.0
 11
-0.668628
 21
0.026988
 31
0.0
  0
LINE
  8
0
  6
CONTINUOUS
 62
     7
  5
129
 10
-0.668628
 20
0.026988
 30
0.0
 11
-0.668671
 21
0.025678
 31
0.0
  0
LINE
  8
0
  6
CONTINUOUS
 62
     7
  5
12A
 10
-0.668671
 20
0.025678
 30
0.0
 11
-0.668714
 21
0.024399
 31
0.0
  0
LINE
  8
0
  6
CONTINUOUS
 62
     7
  5
12B
 10
-0.668714
 20
0.024399
 30
0.0
 11
-0.668756
 21
0.023154
 31
0.0
  0
LINE
  8
0
  6
CONTINUOUS
 62
     7
  5
12C
 10
-0.668756
 20
0.023154
 30
0.0
 11
-0.668796
 21
0.021948
 31
0.0
  0
LINE
  8
0
  6
CONTINUOUS
 62
     7
  5
12D
 10
-0.668796
 20
0.021948
 30
0.0
 11
-0.668835
 21
0.020785
 31
0.0
  0
LINE
  8
0
  6
CONTINUOUS
 62
     7
  5
12E
 10
-0.668835
 20
0.020785
 30
0.0
 11
-0.668872
 21
0.019668
 31
0.0
  0
LINE
  8
0
  6
CONTINUOUS
 62
     7
  5
12F
 10
-0.668872
 20
0.019668
 30
0.0
 11
-0.668907
 21
0.018602
 31
0.0
  0
LINE
  8
0
  6
CONTINUOUS
 62
     7
  5
130
 10
-0.668907
 20
0.018602
 30
0.0
 11
-0.668941
 21
0.017588
 31
0.0
  0
LINE
  8
0
  6
CONTINUOUS
 62
     7
  5
131
 10
-0.668941
 20
0.017588
 30
0.0
 11
-0.668973
 21
0.016626
 31
0.0
  0
LINE
  8
0
  6
CONTINUOUS
 62
     7
  5
132
 10
-0.668973
 20
0.016626
 30
0.0
 11
-0.669004
 21
0.015696
 31
0.0
  0
LINE
  8
0
  6
CONTINUOUS
 62
     7
  5
133
 10
-0.669004
 20
0.015696
 30
0.0
 11
-0.669034
 21
0.014802
 31
0.0
  0
LINE
  8
0
  6
CONTINUOUS
 62
     7
  5
134
 10
-0.669034
 20
0.014802
 30
0.0
 11
-0.669063
 21
0.013946
 31
0.0
  0
LINE
  8
0
  6
CONTINUOUS
 62
     7
  5
135
 10
-0.669063
 20
0.013946
 30
0.0
 11
-0.66909
 21
0.013136
 31
0.0
  0
LINE
  8
0
  6
CONTINUOUS
 62
     7
  5
136
 10
-0.66909
 20
0.013136
 30
0.0
 11
-0.669115
 21
0.012373
 31
0.0
  0
LINE
  8
0
  6
CONTINUOUS
 62
     7
  5
137
 10
-0.669115
 20
0.012373
 30
0.0
 11
-0.669139
 21
0.011663
 31
0.0
  0
LINE
  8
0
  6
CONTINUOUS
 62
     7
  5
138
 10
-0.669139
 20
0.011663
 30
0.0
 11
-0.669161
 21
0.011009
 31
0.0
  0
LINE
  8
0
  6
CONTINUOUS
 62
     7
  5
139
 10
-0.669161
 20
0.011009
 30
0.0
 11
-0.66918
 21
0.010412
 31
0.0
  0
LINE
  8
0
  6
CONTINUOUS
 62
     7
  5
13A
 10
-0.66918
 20
0.010412
 30
0.0
 11
-0.669198
 21
0.009876
 31
0.0
  0
LINE
  8
0
  6
CONTINUOUS
 62
     7
  5
13B
 10
-0.669198
 20
0.009876
 30
0.0
 11
-0.669214
 21
0.009403
 31
0.0
  0
LINE
  8
0
  6
CONTINUOUS
 62
     7
  5
13C
 10
-0.669214
 20
0.009403
 30
0.0
 11
-0.669228
 21
0.008992
 31
0.0
  0
LINE
  8
0
  6
CONTINUOUS
 62
     7
  5
13D
 10
-0.669228
 20
0.008992
 30
0.0
 11
-0.669239
 21
0.008646
 31
0.0
  0
LINE
  8
0
  6
CONTINUOUS
 62
     7
  5
13E
 10
-0.669239
 20
0.008646
 30
0.0
 11
-0.669249
 21
0.008364
 31
0.0
  0
LINE
  8
0
  6
CONTINUOUS
 62
     7
  5
13F
 10
-0.669249
 20
0.008364
 30
0.0
 11
-0.669256
 21
0.008147
 31
0.0
  0
LINE
  8
0
  6
CONTINUOUS
 62
     7
  5
140
 10
-0.669256
 20
0.008147
 30
0.0
 11
-0.669261
 21
0.007994
 31
0.0
  0
LINE
  8
0
  6
CONTINUOUS
 62
     7
  5
141
 10
-0.669261
 20
0.007994
 30
0.0
 11
-0.669264
 21
0.007904
 31
0.0
  0
LINE
  8
0
  6
CONTINUOUS
 62
     7
  5
142
 10
-0.669264
 20
0.007904
 30
0.0
 11
-0.669265
 21
0.007874
 31
0.0
  0
ARC
  8
0
  6
CONTINUOUS
 62
     7
  5
143
 10
0.511811
 20
0.0
 30
0.0
 40
1.180682
 50
166.591808
 51
178.089107
  0
LINE
  8
0
  6
CONTINUOUS
 62
     7
  5
144
 10
-0.275591
 20
0.353331
 30
0.0
 11
-0.275591
 21
0.0
 31
0.0
  0
LINE
  8
0
  6
CONTINUOUS
 62
     7
  5
145
 10
-0.275591
 20
0.0
 30
0.0
 11
-0.275591
 21
-0.353331
 31
0.0
  0
ARC
  8
0
  6
CONTINUOUS
 62
     7
  5
146
 10
0.816929
 20
0.0
 30
0.0
 40
1.09252
 50
161.075356
 51
198.924644
  0
LINE
  8
0
  6
CONTINUOUS
 62
     7
  5
147
 10
-0.216535
 20
0.354331
 30
0.0
 11
-0.059055
 21
0.354331
 31
0.0
  0
LINE
  8
0
  6
CONTINUOUS
 62
     7
  5
148
 10
-0.059055
 20
-0.354331
 30
0.0
 11
-0.216535
 21
-0.354331
 31
0.0
  0
LINE
  8
0
  6
CONTINUOUS
 62
     7
  5
149
 10
-0.059055
 20
0.354331
 30
0.0
 11
-0.059055
 21
-0.354331
 31
0.0
  0
LINE
  8
0
  6
CONTINUOUS
 62
     7
  5
14A
 10
-0.019685
 20
-0.353331
 30
0.0
 11
-0.059055
 21
-0.353331
 31
0.0
  0
LINE
  8
0
  6
CONTINUOUS
 62
     7
  5
14B
 10
-0.059055
 20
0.353331
 30
0.0
 11
-0.019685
 21
0.353331
 31
0.0
  0
LINE
  8
0
  6
CONTINUOUS
 62
     7
  5
14C
 10
-0.019685
 20
0.353331
 30
0.0
 11
-0.019685
 21
-0.353331
 31
0.0
  0
LINE
  8
0
  6
CONTINUOUS
 62
     7
  5
14D
 10
1.023622
 20
-0.314961
 30
0.0
 11
1.023622
 21
0.314961
 31
0.0
  0
LINE
  8
0
  6
CONTINUOUS
 62
     7
  5
14E
 10
0.0
 20
0.334646
 30
0.0
 11
0.0
 21
-0.334646
 31
0.0
  0
LINE
  8
0
  6
CONTINUOUS
 62
     7
  5
14F
 10
-0.275591
 20
0.314961
 30
0.0
 11
-0.28614
 21
0.275591
 31
0.0
  0
LINE
  8
0
  6
CONTINUOUS
 62
     7
  5
150
 10
-0.28614
 20
-0.275591
 30
0.0
 11
-0.275591
 21
-0.314961
 31
0.0
  0
LINE
  8
0
  6
CONTINUOUS
 62
     7
  5
151
 10
-0.28614
 20
0.275591
 30
0.0
 11
-0.626847
 21
0.275591
 31
0.0
  0
LINE
  8
0
  6
CONTINUOUS
 62
     7
  5
152
 10
-0.636689
 20
-0.275591
 30
0.0
 11
-0.28614
 21
-0.275591
 31
0.0
  0
ARC
  8
0
  6
CONTINUOUS
 62
     7
  5
153
 10
0.521654
 20
0.0
 30
0.0
 40
1.181102
 50
166.506601
 51
166.596666
  0
ARC
  8
0
  6
CONTINUOUS
 62
     7
  5
154
 10
0.511811
 20
0.0
 30
0.0
 40
1.181102
 50
179.618025
 51
180.0
  0
ARC
  8
0
  6
CONTINUOUS
 62
     7
  5
155
 10
0.511811
 20
0.0
 30
0.0
 40
1.181102
 50
180.0
 51
193.493399
  0
LINE
  8
0
  6
CONTINUOUS
 62
     7
  5
156
 10
-0.216878
 20
0.353331
 30
0.0
 11
-0.275591
 21
0.353331
 31
0.0
  0
LINE
  8
0
  6
CONTINUOUS
 62
     7
  5
157
 10
-0.275591
 20
-0.353331
 30
0.0
 11
-0.216878
 21
-0.353331
 31
0.0
  0
LINE
  8
0
  6
CONTINUOUS
 62
     7
  5
158
 10
0.0
 20
-0.314961
 30
0.0
 11
1.023622
 21
-0.314961
 31
0.0
  0
LINE
  8
0
  6
CONTINUOUS
 62
     7
  5
159
 10
1.023622
 20
0.314961
 30
0.0
 11
0.0
 21
0.314961
 31
0.0
  0
LINE
  8
0
  6
CONTINUOUS
 62
     7
  5
15A
 10
0.0
 20
0.334646
 30
0.0
 11
-0.019685
 21
0.334646
 31
0.0
  0
LINE
  8
0
  6
CONTINUOUS
 62
     7
  5
15B
 10
-0.019685
 20
-0.334646
 30
0.0
 11
0.0
 21
-0.334646
 31
0.0
  0
LINE
  8
0
  6
CONTINUOUS
 62
     3
  5
15C
 10
-0.669291
 20
0.0
 30
0.0
 11
1.023622
 21
0.0
 31
0.0
  0
ENDSEC
  0
EOF
