999
DXF file: C:\Users\sesa63760\Dev\_Creo\CAD\MCADID0004988_3D-CAD\drw0001_5.dxf
999
Pro/ENGINEER 2019471 by Parametric Technology Corporation
  0
SECTION
  2
HEADER
  9
$ACADVER
  1
AC1024
  9
$DWGCODEPAGE
  3
ANSI_1252
  9
$EXTMAX
 10
49.8055931562
 20
70.4393388924
 30
0.0
  9
$EXTMIN
 10
0.0
 20
0.0
 30
0.0
  9
$LIMMIN
 10
0.0
 20
0.0
  9
$LIMMAX
 10
49.8055931562
 20
70.4393388924
  9
$VIEWCTR
 10
24.9027965781
 20
35.2196694462
  9
$VIEWSIZE
 40
70.4393388924
  9
$CLAYER
  8
0
  9
$LTSCALE
 40
4.59160135
  9
$CELTYPE
  6
BYLAYER
  9
$DIMSCALE
 40
1.0
  9
$DIMASZ
 40
0.5929237281
  9
$DIMEXO
 40
1.0
  9
$DIMDLI
 40
3.1723791146
  9
$DIMEXE
 40
1.0
  9
$DIMCEN
 40
0.7513529482
  9
$DIMLFAC
 40
1.0
  9
$DIMBLK
  1
_FILLED
  9
$DIMALT
 70
0
  9
$DIMALTF
 40
0.0393700787
  9
$DIMTXT
 40
0.8300932193
  9
$DIMTOL
 70
1
  9
$DIMLIM
 70
0
  9
$DIMTFAC
 40
1.0
  9
$DIMTP
 40
0.01
  9
$DIMTM
 40
0.01
  9
$DIMGAP
 40
0.625
  9
$DIMDSEP
 70
46
  9
$AUNITS
 70
0
  9
$PDMODE
 70
3
  9
$PDSIZE
 40
0.3125
  9
$HANDSEED
  5
3E3
  9
$TILEMODE
 70
1
  9
$MEASUREMENT
 70
1
  9
$INSUNITS
 70
4
  0
ENDSEC
  0
SECTION
  2
CLASSES
  0
CLASS
  1
ACDBDICTIONARYWDFLT
  2
AcDbDictionaryWithDefault
  3
AutoCAD 2000
 90
0
 91
1
280
0
281
0
  0
CLASS
  1
ACDBPLACEHOLDER
  2
AcDbPlaceHolder
  3
AutoCAD 2000
 90
0
 91
1
280
0
281
0
  0
CLASS
  1
LAYOUT
  2
AcDbLayout
  3
AutoCAD 2000
 90
0
 91
0
280
0
281
0
  0
ENDSEC
  0
SECTION
  2
TABLES
  0
TABLE
  2
VPORT
  5
8
100
AcDbSymbolTable
 70
2
  0
VPORT
  5
1F4
100
AcDbSymbolTableRecord
100
AcDbViewportTableRecord
  2
*ACTIVE
 70
0
 10
0.0
 20
0.0
 11
1.0
 21
1.0
 12
24.9027965781
 22
35.2196694462
 13
0.0
 23
0.0
 14
1.0
 24
1.0
 15
0.0
 25
0.0
 16
0.0
 26
0.0
 36
1.0
 17
0.0
 27
0.0
 37
0.0
 40
70.4393388924
 41
0.7070707071
 42
50.0
 43
0.0
 44
0.0
 50
0.0
 51
0.0
 71
0
 72
100
 73
1
 74
1
 75
0
 76
0
 77
0
 78
0
  0
ENDTAB
  0
TABLE
  2
LTYPE
  5
5
100
AcDbSymbolTable
 70
6
  0
LTYPE
  5
14
100
AcDbSymbolTableRecord
100
AcDbLinetypeTableRecord
  2
BYBLOCK
 70
0
  3

 72
65
 73
0
 40
0.0
  0
LTYPE
  5
15
100
AcDbSymbolTableRecord
100
AcDbLinetypeTableRecord
  2
BYLAYER
 70
0
  3

 72
65
 73
0
 40
0.0
  0
LTYPE
  5
16
100
AcDbSymbolTableRecord
100
AcDbLinetypeTableRecord
  2
CONTINUOUS
 70
64
  3
Solid line
 72
65
 73
0
 40
0.0
  0
LTYPE
  5
1F5
100
AcDbSymbolTableRecord
100
AcDbLinetypeTableRecord
  2
CENTER
 70
64
  3
____ _ ____ _ ____ _ ____ _ ____ _ ____ _ ____
 72
65
 73
4
 40
0.6
 49
0.375
 74
0
 49
-0.075
 74
0
 49
0.075
 74
0
 49
-0.075
 74
0
  0
LTYPE
  5
1F6
100
AcDbSymbolTableRecord
100
AcDbLinetypeTableRecord
  2
HIDDEN
 70
64
  3
- - - - - - - - - - - - - - - - - - - -
 72
65
 73
2
 40
0.2
 49
0.1
 74
0
 49
-0.1
 74
0
  0
LTYPE
  5
1F7
100
AcDbSymbolTableRecord
100
AcDbLinetypeTableRecord
  2
PHANTOM
 70
64
  3
_____ _ _ _____ _ _ _____ _ _ _____
 72
65
 73
6
 40
0.8
 49
0.45
 74
0
 49
-0.05
 74
0
 49
0.1
 74
0
 49
-0.05
 74
0
 49
0.1
 74
0
 49
-0.05
 74
0
  0
LTYPE
  5
1F8
100
AcDbSymbolTableRecord
100
AcDbLinetypeTableRecord
  2
DOT
 70
64
  3
. . . . . . . . . . . . . . . . . . . .
 72
65
 73
2
 40
0.2
 49
0.1
 74
0
 49
-0.1
 74
0
  0
LTYPE
  5
1F9
100
AcDbSymbolTableRecord
100
AcDbLinetypeTableRecord
  2
DASHED
 70
64
  3
- - - - - - - - - - - - - - - - - - - -
 72
65
 73
2
 40
0.2
 49
0.1
 74
0
 49
-0.1
 74
0
  0
ENDTAB
  0
TABLE
  2
LAYER
  5
2
100
AcDbSymbolTable
 70
36
  0
LAYER
  5
10
100
AcDbSymbolTableRecord
100
AcDbLayerTableRecord
  2
0
 70
0
 62
7
  6
CONTINUOUS
370
-3
390
F
  0
LAYER
  5
1FA
100
AcDbSymbolTableRecord
100
AcDbLayerTableRecord
  2
DEFAULT_1
 70
0
 62
7
  6
CENTER
370
-3
390
F
  0
LAYER
  5
1FB
100
AcDbSymbolTableRecord
100
AcDbLayerTableRecord
  2
DEFAULT_2
 70
0
 62
7
  6
HIDDEN
370
-3
390
F
  0
LAYER
  5
1FC
100
AcDbSymbolTableRecord
100
AcDbLayerTableRecord
  2
DEFAULT_3
 70
0
 62
7
  6
PHANTOM
370
-3
390
F
  0
LAYER
  5
1FD
100
AcDbSymbolTableRecord
100
AcDbLayerTableRecord
  2
00_COMPONENTS
 70
0
 62
7
  6
CONTINUOUS
370
-3
390
F
  0
LAYER
  5
1FE
100
AcDbSymbolTableRecord
100
AcDbLayerTableRecord
  2
01_1_DEFAULT_DATUMS
 70
0
 62
7
  6
CONTINUOUS
370
-3
390
F
  0
LAYER
  5
1FF
100
AcDbSymbolTableRecord
100
AcDbLayerTableRecord
  2
01_PLANES
 70
0
 62
7
  6
CONTINUOUS
370
-3
390
F
  0
LAYER
  5
200
100
AcDbSymbolTableRecord
100
AcDbLayerTableRecord
  2
02_COORD_SYS
 70
0
 62
7
  6
CONTINUOUS
370
-3
390
F
  0
LAYER
  5
201
100
AcDbSymbolTableRecord
100
AcDbLayerTableRecord
  2
03_AXES
 70
0
 62
7
  6
CONTINUOUS
370
-3
390
F
  0
LAYER
  5
202
100
AcDbSymbolTableRecord
100
AcDbLayerTableRecord
  2
04_POINTS
 70
0
 62
7
  6
CONTINUOUS
370
-3
390
F
  0
LAYER
  5
203
100
AcDbSymbolTableRecord
100
AcDbLayerTableRecord
  2
05_CURVES
 70
0
 62
7
  6
CONTINUOUS
370
-3
390
F
  0
LAYER
  5
204
100
AcDbSymbolTableRecord
100
AcDbLayerTableRecord
  2
06_SURFS
 70
0
 62
7
  6
CONTINUOUS
370
-3
390
F
  0
LAYER
  5
205
100
AcDbSymbolTableRecord
100
AcDbLayerTableRecord
  2
07_COSMETICS
 70
0
 62
7
  6
CONTINUOUS
370
-3
390
F
  0
LAYER
  5
206
100
AcDbSymbolTableRecord
100
AcDbLayerTableRecord
  2
10_NOTES
 70
0
 62
7
  6
CONTINUOUS
370
-3
390
F
  0
LAYER
  5
207
100
AcDbSymbolTableRecord
100
AcDbLayerTableRecord
  2
11_NOTES_PUB
 70
0
 62
7
  6
CONTINUOUS
370
-3
390
F
  0
LAYER
  5
208
100
AcDbSymbolTableRecord
100
AcDbLayerTableRecord
  2
13_REF_GTOL
 70
0
 62
7
  6
CONTINUOUS
370
-3
390
F
  0
LAYER
  5
209
100
AcDbSymbolTableRecord
100
AcDbLayerTableRecord
  2
16_MISC
 70
0
 62
7
  6
CONTINUOUS
370
-3
390
F
  0
LAYER
  5
20A
100
AcDbSymbolTableRecord
100
AcDbLayerTableRecord
  2
17_NO_PRINT
 70
0
 62
7
  6
CONTINUOUS
370
-3
390
F
  0
LAYER
  5
20B
100
AcDbSymbolTableRecord
100
AcDbLayerTableRecord
  2
18_DATUM_CAMS_JOINTS
 70
0
 62
7
  6
CONTINUOUS
370
-3
390
F
  0
LAYER
  5
20C
100
AcDbSymbolTableRecord
100
AcDbLayerTableRecord
  2
19_DATUM_FUNCTIONAL
 70
0
 62
7
  6
CONTINUOUS
370
-3
390
F
  0
LAYER
  5
20D
100
AcDbSymbolTableRecord
100
AcDbLayerTableRecord
  2
20_DATUM_KINEMATIC_SCHEME
 70
0
 62
7
  6
CONTINUOUS
370
-3
390
F
  0
ENDTAB
  0
TABLE
  2
STYLE
  5
3
100
AcDbSymbolTable
 70
1
  0
STYLE
  5
11
100
AcDbSymbolTableRecord
100
AcDbTextStyleTableRecord
  2
STANDARD
 70
0
 40
0.0
 41
1.0
 50
0.0
 71
0
 42
0.2
  3
ARIAL.TTF
  4

  0
STYLE
  5
20E
100
AcDbSymbolTableRecord
100
AcDbTextStyleTableRecord
  2
TEXTSTYLE_1
 70
0
 40
0.0
 41
0.8
 50
0.0
 71
0
 42
0.2
  3
gdt
  4

  0
ENDTAB
  0
TABLE
  2
VIEW
  5
6
100
AcDbSymbolTable
 70
0
  0
ENDTAB
  0
TABLE
  2
UCS
  5
7
100
AcDbSymbolTable
 70
0
  0
ENDTAB
  0
TABLE
  2
APPID
  5
9
100
AcDbSymbolTable
 70
1
  0
APPID
  5
20F
100
AcDbSymbolTableRecord
100
AcDbRegAppTableRecord
  2
ACAD
 70
0
  0
ENDTAB
  0
TABLE
  2
BLOCK_RECORD
  5
1
100
AcDbSymbolTable
 70
0
  0
BLOCK_RECORD
  5
210
100
AcDbSymbolTableRecord
100
AcDbBlockTableRecord
  2
*Model_Space
  0
BLOCK_RECORD
  5
211
100
AcDbSymbolTableRecord
100
AcDbBlockTableRecord
  2
*Paper_Space
  0
BLOCK_RECORD
  5
212
100
AcDbSymbolTableRecord
100
AcDbBlockTableRecord
  2
_FILLED
  0
ENDTAB
  0
TABLE
  2
DIMSTYLE
  5
A
100
AcDbSymbolTable
 70
1
100
AcDbDimStyleTable
 71
0
  0
DIMSTYLE
105
213
100
AcDbSymbolTableRecord
100
AcDbDimStyleTableRecord
  2
STANDARD
 70
0
  3

  4

 40
1.0
 41
0.5929237281
 42
1.0
 43
0.38
 44
1.0
 45
0.0
 46
0.0
 47
0.01
 48
0.01
140
0.8300932193
141
0.09
142
0.0
143
25.4
144
1.0
145
0.0
146
1.0
147
0.625
 71
1
 72
0
 73
0
 74
0
 75
0
 76
0
 77
1
 78
8
 79
2
170
0
171
1
172
0
173
0
174
0
175
0
176
0
177
0
178
0
270
2
179
2
271
2
272
2
273
2
274
2
275
0
280
0
281
0
282
0
283
1
284
8
285
0
286
0
287
3
288
0
340
11
278
46
341
212
342
212
343
212
344
212
  0
ENDTAB
  0
ENDSEC
  0
SECTION
  2
BLOCKS
  0
BLOCK
  5
20
100
AcDbEntity
  8
0
100
AcDbBlockBegin
  2
*Model_Space
 70
0
 10
0.0
 20
0.0
 30
0.0
  3
*Model_Space
  1

  0
ENDBLK
  5
21
100
AcDbEntity
  8
0
100
AcDbBlockEnd
  0
BLOCK
  5
1C
100
AcDbEntity
  8
0
100
AcDbBlockBegin
  2
*Paper_Space
 70
0
 10
0.0
 20
0.0
 30
0.0
  3
*Paper_Space
  1

  0
ENDBLK
  5
1D
100
AcDbEntity
  8
0
100
AcDbBlockEnd
  0
BLOCK
  5
214
100
AcDbEntity
  8
0
100
AcDbBlockBegin
  2
_FILLED
 70
64
 10
0.0
 20
0.0
  3
_FILLED
  1

  0
SOLID
  5
215
100
AcDbEntity
  8
0
  6
BYBLOCK
 62
0
100
AcDbTrace
 10
0.0
 20
0.0
 11
-1.0
 21
0.25
 12
-1.0
 22
-0.25
 13
-1.0
 23
-0.25
  0
ENDBLK
  5
216
100
AcDbEntity
  8
0
  6
BYBLOCK
 62
0
100
AcDbBlockEnd
  0
ENDSEC
  0
SECTION
  2
ENTITIES
  0
LINE
  5
217
100
AcDbEntity
  8
0
100
AcDbLine
 62
7
  6
BYLAYER
 10
17.6675330666
 20
5.733434561
 11
33.5175330666
 21
5.733434561
  0
LINE
  5
218
100
AcDbEntity
  8
0
100
AcDbLine
 62
7
  6
BYLAYER
 10
19.8675330666
 20
6.033434561
 11
31.3675330666
 21
6.033434561
  0
LINE
  5
219
100
AcDbEntity
  8
0
100
AcDbLine
 62
7
  6
BYLAYER
 10
31.5675330666
 20
7.333434561
 11
31.3675330666
 21
7.333434561
  0
LINE
  5
21A
100
AcDbEntity
  8
0
100
AcDbLine
 62
7
  6
BYLAYER
 10
19.8675330666
 20
7.333434561
 11
19.6675330666
 21
7.333434561
  0
LINE
  5
21B
100
AcDbEntity
  8
0
100
AcDbLine
 62
7
  6
BYLAYER
 10
31.5675330666
 20
7.4834916329
 11
31.3675330666
 21
7.4834916329
  0
LINE
  5
21C
100
AcDbEntity
  8
0
100
AcDbLine
 62
7
  6
BYLAYER
 10
19.8675330666
 20
7.4834916329
 11
19.6675330666
 21
7.4834916329
  0
LINE
  5
21D
100
AcDbEntity
  8
0
100
AcDbLine
 62
7
  6
BYLAYER
 10
19.6675330666
 20
8.283434561
 11
19.8675330666
 21
8.283434561
  0
LINE
  5
21E
100
AcDbEntity
  8
0
100
AcDbLine
 62
7
  6
BYLAYER
 10
31.3675330666
 20
8.283434561
 11
31.5675330666
 21
8.283434561
  0
LINE
  5
21F
100
AcDbEntity
  8
0
100
AcDbLine
 62
7
  6
BYLAYER
 10
31.5675330666
 20
9.033434561
 11
31.3675330666
 21
9.033434561
  0
LINE
  5
220
100
AcDbEntity
  8
0
100
AcDbLine
 62
7
  6
BYLAYER
 10
19.8675330666
 20
9.033434561
 11
19.6675330666
 21
9.033434561
  0
LINE
  5
221
100
AcDbEntity
  8
0
100
AcDbLine
 62
7
  6
BYLAYER
 10
31.5925330666
 20
9.533434561
 11
19.5925330666
 21
9.533434561
  0
LINE
  5
222
100
AcDbEntity
  8
0
100
AcDbLine
 62
7
  6
BYLAYER
 10
20.0675330666
 20
12.533434561
 11
23.2675330666
 21
12.533434561
  0
LINE
  5
223
100
AcDbEntity
  8
0
100
AcDbLine
 62
7
  6
BYLAYER
 10
27.9175330666
 20
12.533434561
 11
31.1175330666
 21
12.533434561
  0
LINE
  5
224
100
AcDbEntity
  8
0
100
AcDbLine
 62
7
  6
BYLAYER
 10
20.0675330666
 20
12.583434561
 11
23.2675330666
 21
12.583434561
  0
LINE
  5
225
100
AcDbEntity
  8
0
100
AcDbLine
 62
7
  6
BYLAYER
 10
27.9175330666
 20
12.583434561
 11
31.1175330666
 21
12.583434561
  0
LINE
  5
226
100
AcDbEntity
  8
0
100
AcDbLine
 62
7
  6
BYLAYER
 10
31.1175330666
 20
14.933434561
 11
27.9175330666
 21
14.933434561
  0
LINE
  5
227
100
AcDbEntity
  8
0
100
AcDbLine
 62
7
  6
BYLAYER
 10
23.2675330666
 20
14.933434561
 11
20.0675330666
 21
14.933434561
  0
LINE
  5
228
100
AcDbEntity
  8
0
100
AcDbLine
 62
7
  6
BYLAYER
 10
18.9675330666
 20
15.233434561
 11
32.2175330666
 21
15.233434561
  0
LINE
  5
229
100
AcDbEntity
  8
0
100
AcDbLine
 62
7
  6
BYLAYER
 10
20.8675330666
 20
15.433434561
 11
21.0675330666
 21
15.433434561
  0
LINE
  5
22A
100
AcDbEntity
  8
0
100
AcDbLine
 62
7
  6
BYLAYER
 10
22.2675330666
 20
15.433434561
 11
22.4675330666
 21
15.433434561
  0
LINE
  5
22B
100
AcDbEntity
  8
0
100
AcDbLine
 62
7
  6
BYLAYER
 10
28.7175330666
 20
15.433434561
 11
28.9175330666
 21
15.433434561
  0
LINE
  5
22C
100
AcDbEntity
  8
0
100
AcDbLine
 62
7
  6
BYLAYER
 10
30.1175330666
 20
15.433434561
 11
30.3175330666
 21
15.433434561
  0
LINE
  5
22D
100
AcDbEntity
  8
0
100
AcDbLine
 62
7
  6
BYLAYER
 10
20.2675330666
 20
16.733434561
 11
21.4381899129
 21
16.733434561
  0
LINE
  5
22E
100
AcDbEntity
  8
0
100
AcDbLine
 62
7
  6
BYLAYER
 10
21.8968762204
 20
16.733434561
 11
29.4175330666
 21
16.733434561
  0
LINE
  5
22F
100
AcDbEntity
  8
0
100
AcDbLine
 62
7
  6
BYLAYER
 10
29.6175330666
 20
16.933434561
 11
21.8966618514
 21
16.933434561
  0
LINE
  5
230
100
AcDbEntity
  8
0
100
AcDbLine
 62
7
  6
BYLAYER
 10
21.4384042819
 20
16.933434561
 11
20.2675330666
 21
16.933434561
  0
LINE
  5
231
100
AcDbEntity
  8
0
100
AcDbLine
 62
7
  6
BYLAYER
 10
30.7059946051
 20
17.433434561
 11
29.759840759
 21
17.433434561
  0
LINE
  5
232
100
AcDbEntity
  8
0
100
AcDbLine
 62
7
  6
BYLAYER
 10
29.5521484513
 20
17.433434561
 11
29.4014272974
 21
17.433434561
  0
LINE
  5
233
100
AcDbEntity
  8
0
100
AcDbLine
 62
7
  6
BYLAYER
 10
28.479792682
 20
17.433434561
 11
28.3290715282
 21
17.433434561
  0
LINE
  5
234
100
AcDbEntity
  8
0
100
AcDbLine
 62
7
  6
BYLAYER
 10
22.8559946051
 20
17.433434561
 11
21.909840759
 21
17.433434561
  0
LINE
  5
235
100
AcDbEntity
  8
0
100
AcDbLine
 62
7
  6
BYLAYER
 10
21.7021484513
 20
17.433434561
 11
21.5514272974
 21
17.433434561
  0
LINE
  5
236
100
AcDbEntity
  8
0
100
AcDbLine
 62
7
  6
BYLAYER
 10
20.629792682
 20
17.433434561
 11
20.4790715282
 21
17.433434561
  0
LINE
  5
237
100
AcDbEntity
  8
0
100
AcDbLine
 62
7
  6
BYLAYER
 10
22.2278696051
 20
17.6180499456
 11
22.8559946051
 21
17.6180499456
  0
LINE
  5
238
100
AcDbEntity
  8
0
100
AcDbLine
 62
7
  6
BYLAYER
 10
30.0778696051
 20
17.6180499456
 11
30.7059946051
 21
17.6180499456
  0
LINE
  5
239
100
AcDbEntity
  8
0
100
AcDbLine
 62
7
  6
BYLAYER
 10
29.2092397974
 20
18.0103576379
 11
28.671980182
 21
18.0103576379
  0
LINE
  5
23A
100
AcDbEntity
  8
0
100
AcDbLine
 62
7
  6
BYLAYER
 10
21.3592397974
 20
18.0103576379
 11
20.821980182
 21
18.0103576379
  0
LINE
  5
23B
100
AcDbEntity
  8
0
100
AcDbLine
 62
7
  6
BYLAYER
 10
20.8836388359
 20
18.1949730225
 11
21.2975811436
 21
18.1949730225
  0
LINE
  5
23C
100
AcDbEntity
  8
0
100
AcDbLine
 62
7
  6
BYLAYER
 10
28.7336388359
 20
18.1949730225
 11
29.1475811436
 21
18.1949730225
  0
LINE
  5
23D
100
AcDbEntity
  8
0
100
AcDbLine
 62
7
  6
BYLAYER
 10
29.9444561436
 20
18.6795884072
 11
29.8059946051
 21
18.6795884072
  0
LINE
  5
23E
100
AcDbEntity
  8
0
100
AcDbLine
 62
7
  6
BYLAYER
 10
22.0944561436
 20
18.6795884072
 11
21.9559946051
 21
18.6795884072
  0
LINE
  5
23F
100
AcDbEntity
  8
0
100
AcDbLine
 62
7
  6
BYLAYER
 10
21.0790715282
 20
19.233434561
 11
21.1021484513
 21
19.233434561
  0
LINE
  5
240
100
AcDbEntity
  8
0
100
AcDbLine
 62
7
  6
BYLAYER
 10
28.9290715282
 20
19.233434561
 11
28.9521484513
 21
19.233434561
  0
LINE
  5
241
100
AcDbEntity
  8
0
100
AcDbLine
 62
7
  6
BYLAYER
 10
22.6575409335
 20
60.0690484866
 11
23.5867944057
 21
61.6246029834
  0
LINE
  5
242
100
AcDbEntity
  8
0
100
AcDbLine
 62
7
  6
BYLAYER
 10
23.2985999613
 20
61.6246029834
 11
22.3645721835
 21
60.0690484866
  0
LINE
  5
243
100
AcDbEntity
  8
0
100
AcDbLine
 62
7
  6
BYLAYER
 10
24.0963430168
 20
60.5690481463
 11
24.6423499613
 21
61.476599612
  0
LINE
  5
244
100
AcDbEntity
  8
0
100
AcDbLine
 62
7
  6
BYLAYER
 10
24.6223846835
 20
61.8746028133
 11
23.8367944057
 21
60.5690481463
  0
LINE
  5
245
100
AcDbEntity
  8
0
100
AcDbLine
 62
7
  6
BYLAYER
 10
17.6675330666
 20
19.783434561
 11
33.5175330666
 21
19.783434561
  0
LINE
  5
246
100
AcDbEntity
  8
0
100
AcDbLine
 62
7
  6
BYLAYER
 10
19.8425330666
 20
20.983434561
 11
23.8425330666
 21
20.983434561
  0
LINE
  5
247
100
AcDbEntity
  8
0
100
AcDbLine
 62
7
  6
BYLAYER
 10
27.3425330666
 20
20.983434561
 11
31.3425330666
 21
20.983434561
  0
LINE
  5
248
100
AcDbEntity
  8
0
100
AcDbLine
 62
7
  6
BYLAYER
 10
17.6675330666
 20
5.733434561
 11
17.6675330666
 21
47.983434561
  0
LINE
  5
249
100
AcDbEntity
  8
0
100
AcDbLine
 62
7
  6
BYLAYER
 10
21.2975811436
 20
18.1949730225
 11
21.0906099897
 21
18.8158864841
  0
LINE
  5
24A
100
AcDbEntity
  8
0
100
AcDbLine
 62
7
  6
BYLAYER
 10
21.1021484513
 20
19.233434561
 11
21.7021484513
 21
17.433434561
  0
LINE
  5
24B
100
AcDbEntity
  8
0
100
AcDbLine
 62
7
  6
BYLAYER
 10
21.5514272974
 20
17.433434561
 11
21.3592397974
 21
18.0103576379
  0
LINE
  5
24C
100
AcDbEntity
  8
0
100
AcDbLine
 62
7
  6
BYLAYER
 10
17.7425330666
 20
64.8769443268
 11
17.7425330666
 21
34.6609471876
  0
LINE
  5
24D
100
AcDbEntity
  8
0
100
AcDbLine
 62
7
  6
BYLAYER
 10
17.9175330666
 20
34.733434561
 11
17.9175330666
 21
5.733434561
  0
LINE
  5
24E
100
AcDbEntity
  8
0
100
AcDbLine
 62
7
  6
BYLAYER
 10
18.8475330666
 20
34.5568733299
 11
18.8475330666
 21
34.733152893
  0
LINE
  5
24F
100
AcDbEntity
  8
0
100
AcDbLine
 62
7
  6
BYLAYER
 10
18.8515704362
 20
34.3987500535
 11
18.8515704362
 21
32.9952186542
  0
LINE
  5
250
100
AcDbEntity
  8
0
100
AcDbLine
 62
7
  6
BYLAYER
 10
18.9055705482
 20
34.5660836768
 11
18.9055705482
 21
34.6032353796
  0
LINE
  5
251
100
AcDbEntity
  8
0
100
AcDbLine
 62
7
  6
BYLAYER
 10
18.9675330666
 20
19.783434561
 11
18.9675330666
 21
15.233434561
  0
LINE
  5
252
100
AcDbEntity
  8
0
100
AcDbLine
 62
7
  6
BYLAYER
 10
19.1055705482
 20
34.841995819
 11
19.1055705482
 21
34.8034509273
  0
LINE
  5
253
100
AcDbEntity
  8
0
100
AcDbLine
 62
7
  6
BYLAYER
 10
19.1055705482
 20
34.7662992246
 11
19.1055705482
 21
34.7147847698
  0
LINE
  5
254
100
AcDbEntity
  8
0
100
AcDbLine
 62
7
  6
BYLAYER
 10
19.1425330666
 20
34.841995819
 11
19.1425330666
 21
55.8357296269
  0
LINE
  5
255
100
AcDbEntity
  8
0
100
AcDbLine
 62
7
  6
BYLAYER
 10
19.3175330666
 20
34.4450063808
 11
19.3175330666
 21
32.8461037286
  0
LINE
  5
256
100
AcDbEntity
  8
0
100
AcDbLine
 62
7
  6
BYLAYER
 10
19.5925330666
 20
9.533434561
 11
19.5925330666
 21
5.733434561
  0
LINE
  5
257
100
AcDbEntity
  8
0
100
AcDbLine
 62
7
  6
BYLAYER
 10
19.6675330666
 20
9.533434561
 11
19.6675330666
 21
5.733434561
  0
LINE
  5
258
100
AcDbEntity
  8
0
100
AcDbLine
 62
7
  6
BYLAYER
 10
19.8425330666
 20
20.983434561
 11
19.8425330666
 21
30.683434561
  0
LINE
  5
259
100
AcDbEntity
  8
0
100
AcDbLine
 62
7
  6
BYLAYER
 10
19.8675330666
 20
6.033434561
 11
19.8675330666
 21
9.533434561
  0
LINE
  5
25A
100
AcDbEntity
  8
0
100
AcDbLine
 62
7
  6
BYLAYER
 10
20.0675330666
 20
12.533434561
 11
20.0675330666
 21
14.933434561
  0
LINE
  5
25B
100
AcDbEntity
  8
0
100
AcDbLine
 62
7
  6
BYLAYER
 10
20.1605705483
 20
34.6042827856
 11
20.1605705483
 21
34.7380045813
  0
LINE
  5
25C
100
AcDbEntity
  8
0
100
AcDbLine
 62
7
  6
BYLAYER
 10
20.2675330666
 20
16.933434561
 11
20.2675330666
 21
16.733434561
  0
LINE
  5
25D
100
AcDbEntity
  8
0
100
AcDbLine
 62
7
  6
BYLAYER
 10
20.3068728949
 20
9.533434561
 11
20.3068728949
 21
6.033434561
  0
LINE
  5
25E
100
AcDbEntity
  8
0
100
AcDbLine
 62
7
  6
BYLAYER
 10
20.9675330666
 20
5.733434561
 11
20.9675330666
 21
6.033434561
  0
LINE
  5
25F
100
AcDbEntity
  8
0
100
AcDbLine
 62
7
  6
BYLAYER
 10
21.2155705482
 20
34.7147847698
 11
21.2155705482
 21
34.7662992246
  0
LINE
  5
260
100
AcDbEntity
  8
0
100
AcDbLine
 62
7
  6
BYLAYER
 10
21.2155705482
 20
34.8034509273
 11
21.2155705482
 21
34.841995819
  0
LINE
  5
261
100
AcDbEntity
  8
0
100
AcDbLine
 62
7
  6
BYLAYER
 10
21.4155705482
 20
34.5568733299
 11
21.4155705482
 21
34.6032353796
  0
LINE
  5
262
100
AcDbEntity
  8
0
100
AcDbLine
 62
7
  6
BYLAYER
 10
21.4575330666
 20
34.7334332948
 11
21.4575330666
 21
34.5568733299
  0
LINE
  5
263
100
AcDbEntity
  8
0
100
AcDbLine
 62
7
  6
BYLAYER
 10
21.5675330666
 20
16.6043057763
 11
21.5675330666
 21
16.2271599543
  0
LINE
  5
264
100
AcDbEntity
  8
0
100
AcDbLine
 62
7
  6
BYLAYER
 10
21.7675330666
 20
16.2271599543
 11
21.7675330666
 21
16.6043057763
  0
LINE
  5
265
100
AcDbEntity
  8
0
100
AcDbLine
 62
7
  6
BYLAYER
 10
20.9518245803
 20
34.8034509273
 11
20.9323644307
 21
34.766299823
  0
LINE
  5
266
100
AcDbEntity
  8
0
100
AcDbLine
 62
7
  6
BYLAYER
 10
20.9518245803
 20
34.8034509273
 11
20.9321424426
 21
34.7664164018
  0
LINE
  5
267
100
AcDbEntity
  8
0
100
AcDbLine
 62
7
  6
BYLAYER
 10
33.2675330666
 20
30.683434561
 11
31.3425330666
 21
30.683434561
  0
LINE
  5
268
100
AcDbEntity
  8
0
100
AcDbLine
 62
7
  6
BYLAYER
 10
27.3425330666
 20
30.683434561
 11
23.8425330666
 21
30.683434561
  0
LINE
  5
269
100
AcDbEntity
  8
0
100
AcDbLine
 62
7
  6
BYLAYER
 10
19.8425330666
 20
30.683434561
 11
17.9175330666
 21
30.683434561
  0
LINE
  5
26A
100
AcDbEntity
  8
0
100
AcDbLine
 62
7
  6
BYLAYER
 10
19.388998844
 20
34.7664165043
 11
19.3693165162
 21
34.8034509273
  0
LINE
  5
26B
100
AcDbEntity
  8
0
100
AcDbLine
 62
7
  6
BYLAYER
 10
19.3887766496
 20
34.7662998174
 11
19.3693165162
 21
34.8034509273
  0
LINE
  5
26C
100
AcDbEntity
  8
0
100
AcDbLine
 62
7
  6
BYLAYER
 10
22.3645721835
 20
59.8468264157
 11
22.3645721835
 21
60.0690484866
  0
LINE
  5
26D
100
AcDbEntity
  8
0
100
AcDbLine
 62
7
  6
BYLAYER
 10
22.4275330666
 20
34.5568733299
 11
22.4275330666
 21
34.733152893
  0
LINE
  5
26E
100
AcDbEntity
  8
0
100
AcDbLine
 62
7
  6
BYLAYER
 10
22.4281932384
 20
6.033434561
 11
22.4281932384
 21
9.533434561
  0
LINE
  5
26F
100
AcDbEntity
  8
0
100
AcDbLine
 62
7
  6
BYLAYER
 10
22.4479055168
 20
61.6246029834
 11
22.4479055168
 21
61.8468250544
  0
LINE
  5
270
100
AcDbEntity
  8
0
100
AcDbLine
 62
7
  6
BYLAYER
 10
22.4755705482
 20
34.6032353796
 11
22.4755705482
 21
34.5660836768
  0
LINE
  5
271
100
AcDbEntity
  8
0
100
AcDbLine
 62
7
  6
BYLAYER
 10
22.6755705482
 20
34.841995819
 11
22.6755705482
 21
34.8034509273
  0
LINE
  5
272
100
AcDbEntity
  8
0
100
AcDbLine
 62
7
  6
BYLAYER
 10
22.6755705482
 20
34.7662992246
 11
22.6755705482
 21
34.7147847698
  0
LINE
  5
273
100
AcDbEntity
  8
0
100
AcDbLine
 62
7
  6
BYLAYER
 10
22.8559946051
 20
17.6180499456
 11
22.8559946051
 21
17.433434561
  0
LINE
  5
274
100
AcDbEntity
  8
0
100
AcDbLine
 62
7
  6
BYLAYER
 10
23.2675330666
 20
12.533434561
 11
23.2675330666
 21
14.933434561
  0
LINE
  5
275
100
AcDbEntity
  8
0
100
AcDbLine
 62
7
  6
BYLAYER
 10
23.4888534102
 20
9.533434561
 11
23.4888534102
 21
6.033434561
  0
LINE
  5
276
100
AcDbEntity
  8
0
100
AcDbLine
 62
7
  6
BYLAYER
 10
23.5867944057
 20
61.8468250544
 11
23.5867944057
 21
61.6246029834
  0
LINE
  5
277
100
AcDbEntity
  8
0
100
AcDbLine
 62
7
  6
BYLAYER
 10
23.6145721835
 20
60.0690484866
 11
23.6145721835
 21
59.8468264157
  0
LINE
  5
278
100
AcDbEntity
  8
0
100
AcDbLine
 62
7
  6
BYLAYER
 10
23.7305705483
 20
34.6042806652
 11
23.7305705483
 21
34.7380045813
  0
LINE
  5
279
100
AcDbEntity
  8
0
100
AcDbLine
 62
7
  6
BYLAYER
 10
33.5175330666
 20
31.8241669958
 11
17.6675330666
 21
31.8241669958
  0
LINE
  5
27A
100
AcDbEntity
  8
0
100
AcDbLine
 62
7
  6
BYLAYER
 10
17.9175330666
 20
32.0507439426
 11
33.2675330666
 21
32.0507439426
  0
LINE
  5
27B
100
AcDbEntity
  8
0
100
AcDbLine
 62
7
  6
BYLAYER
 10
19.3175330666
 20
32.8461037286
 11
24.4925330666
 21
32.8461037286
  0
LINE
  5
27C
100
AcDbEntity
  8
0
100
AcDbLine
 62
7
  6
BYLAYER
 10
26.6925330666
 20
32.8461037286
 11
31.8675330666
 21
32.8461037286
  0
LINE
  5
27D
100
AcDbEntity
  8
0
100
AcDbLine
 62
7
  6
BYLAYER
 10
22.9393165162
 20
34.8034509273
 11
22.9589387022
 21
34.7663842065
  0
LINE
  5
27E
100
AcDbEntity
  8
0
100
AcDbLine
 62
7
  6
BYLAYER
 10
22.9393165162
 20
34.8034509273
 11
22.9587614214
 21
34.766291286
  0
LINE
  5
27F
100
AcDbEntity
  8
0
100
AcDbLine
 62
7
  6
BYLAYER
 10
29.1475811436
 20
18.1949730225
 11
28.9406099897
 21
18.8158864841
  0
LINE
  5
280
100
AcDbEntity
  8
0
100
AcDbLine
 62
7
  6
BYLAYER
 10
28.9521484513
 20
19.233434561
 11
29.5521484513
 21
17.433434561
  0
LINE
  5
281
100
AcDbEntity
  8
0
100
AcDbLine
 62
7
  6
BYLAYER
 10
29.4014272974
 20
17.433434561
 11
29.2092397974
 21
18.0103576379
  0
LINE
  5
282
100
AcDbEntity
  8
0
100
AcDbLine
 62
7
  6
BYLAYER
 10
23.8367944057
 20
60.3468260754
 11
23.8367944057
 21
60.5690481463
  0
LINE
  5
283
100
AcDbEntity
  8
0
100
AcDbLine
 62
7
  6
BYLAYER
 10
23.8425330666
 20
20.983434561
 11
23.8425330666
 21
30.683434561
  0
LINE
  5
284
100
AcDbEntity
  8
0
100
AcDbLine
 62
7
  6
BYLAYER
 10
24.4925330666
 20
32.8461037286
 11
24.4925330666
 21
34.4450063808
  0
LINE
  5
285
100
AcDbEntity
  8
0
100
AcDbLine
 62
7
  6
BYLAYER
 10
24.6423499613
 20
59.8190486568
 11
24.6423499613
 21
60.3468260754
  0
LINE
  5
286
100
AcDbEntity
  8
0
100
AcDbLine
 62
7
  6
BYLAYER
 10
24.6423499613
 20
60.5690481463
 11
24.6423499613
 21
61.476599612
  0
LINE
  5
287
100
AcDbEntity
  8
0
100
AcDbLine
 62
7
  6
BYLAYER
 10
24.6675330666
 20
51.4670119844
 11
24.6675330666
 21
49.0809481903
  0
LINE
  5
288
100
AcDbEntity
  8
0
100
AcDbLine
 62
7
  6
BYLAYER
 10
24.7855705482
 20
34.7147847698
 11
24.7855705482
 21
34.7662992246
  0
LINE
  5
289
100
AcDbEntity
  8
0
100
AcDbLine
 62
7
  6
BYLAYER
 10
24.7855705482
 20
34.8034509273
 11
24.7855705482
 21
34.841995819
  0
LINE
  5
28A
100
AcDbEntity
  8
0
100
AcDbLine
 62
7
  6
BYLAYER
 10
24.8923499613
 20
61.8746028133
 11
24.8923499613
 21
60.5690481463
  0
LINE
  5
28B
100
AcDbEntity
  8
0
100
AcDbLine
 62
7
  6
BYLAYER
 10
24.8923499613
 20
60.3468260754
 11
24.8923499613
 21
59.8190486568
  0
LINE
  5
28C
100
AcDbEntity
  8
0
100
AcDbLine
 62
7
  6
BYLAYER
 10
24.9584956971
 20
32.9952186542
 11
24.9584956971
 21
34.3987500899
  0
LINE
  5
28D
100
AcDbEntity
  8
0
100
AcDbLine
 62
7
  6
BYLAYER
 10
24.9855705482
 20
34.5568733299
 11
24.9855705482
 21
34.6032353796
  0
LINE
  5
28E
100
AcDbEntity
  8
0
100
AcDbLine
 62
7
  6
BYLAYER
 10
25.0225330666
 20
34.7334332948
 11
25.0225330666
 21
34.5568733299
  0
LINE
  5
28F
100
AcDbEntity
  8
0
100
AcDbLine
 62
7
  6
BYLAYER
 10
25.1384437113
 20
60.5690481463
 11
25.1384437113
 21
60.3468260754
  0
LINE
  5
290
100
AcDbEntity
  8
0
100
AcDbLine
 62
7
  6
BYLAYER
 10
24.5023794749
 20
34.7662913959
 11
24.5218245803
 21
34.8034509273
  0
LINE
  5
291
100
AcDbEntity
  8
0
100
AcDbLine
 62
7
  6
BYLAYER
 10
24.5022017207
 20
34.7663845668
 11
24.5218245803
 21
34.8034509273
  0
LINE
  5
292
100
AcDbEntity
  8
0
100
AcDbLine
 62
7
  6
BYLAYER
 10
33.2675330666
 20
34.1371805631
 11
32.5999933525
 21
34.1371805631
  0
LINE
  5
293
100
AcDbEntity
  8
0
100
AcDbLine
 62
7
  6
BYLAYER
 10
25.9600727808
 20
34.1371805631
 11
25.2248739697
 21
34.1371805631
  0
LINE
  5
294
100
AcDbEntity
  8
0
100
AcDbLine
 62
7
  6
BYLAYER
 10
18.5851921636
 20
34.1371805631
 11
17.9175330666
 21
34.1371805631
  0
LINE
  5
295
100
AcDbEntity
  8
0
100
AcDbLine
 62
7
  6
BYLAYER
 10
17.9175330666
 20
34.3832374955
 11
18.8109317133
 21
34.3832374955
  0
LINE
  5
296
100
AcDbEntity
  8
0
100
AcDbLine
 62
7
  6
BYLAYER
 10
24.99913442
 20
34.3832374955
 11
26.1858123306
 21
34.3832374955
  0
LINE
  5
297
100
AcDbEntity
  8
0
100
AcDbLine
 62
7
  6
BYLAYER
 10
32.3742538027
 20
34.3832374955
 11
33.2675330666
 21
34.3832374955
  0
LINE
  5
298
100
AcDbEntity
  8
0
100
AcDbLine
 62
7
  6
BYLAYER
 10
31.8675330666
 20
34.4450063808
 11
26.6925330666
 21
34.4450063808
  0
LINE
  5
299
100
AcDbEntity
  8
0
100
AcDbLine
 62
7
  6
BYLAYER
 10
24.4925330666
 20
34.4450063808
 11
19.3175330666
 21
34.4450063808
  0
LINE
  5
29A
100
AcDbEntity
  8
0
100
AcDbLine
 62
7
  6
BYLAYER
 10
18.8475330666
 20
34.5568733299
 11
19.3975330666
 21
34.5568733299
  0
LINE
  5
29B
100
AcDbEntity
  8
0
100
AcDbLine
 62
7
  6
BYLAYER
 10
20.9075330666
 20
34.5568733299
 11
21.4575330666
 21
34.5568733299
  0
LINE
  5
29C
100
AcDbEntity
  8
0
100
AcDbLine
 62
7
  6
BYLAYER
 10
22.4275330666
 20
34.5568733299
 11
22.9775330666
 21
34.5568733299
  0
LINE
  5
29D
100
AcDbEntity
  8
0
100
AcDbLine
 62
7
  6
BYLAYER
 10
24.4725330666
 20
34.5568733299
 11
25.0225330666
 21
34.5568733299
  0
LINE
  5
29E
100
AcDbEntity
  8
0
100
AcDbLine
 62
7
  6
BYLAYER
 10
26.1575330666
 20
34.5568733299
 11
26.7075330666
 21
34.5568733299
  0
LINE
  5
29F
100
AcDbEntity
  8
0
100
AcDbLine
 62
7
  6
BYLAYER
 10
28.2075330666
 20
34.5568733299
 11
28.7575330666
 21
34.5568733299
  0
LINE
  5
2A0
100
AcDbEntity
  8
0
100
AcDbLine
 62
7
  6
BYLAYER
 10
29.7275330666
 20
34.5568733299
 11
30.2775330666
 21
34.5568733299
  0
LINE
  5
2A1
100
AcDbEntity
  8
0
100
AcDbLine
 62
7
  6
BYLAYER
 10
31.7875330666
 20
34.5568733299
 11
32.3375330666
 21
34.5568733299
  0
LINE
  5
2A2
100
AcDbEntity
  8
0
100
AcDbLine
 62
7
  6
BYLAYER
 10
19.1055705482
 20
34.7147847698
 11
19.2830579359
 21
34.71478471
  0
LINE
  5
2A3
100
AcDbEntity
  8
0
100
AcDbLine
 62
7
  6
BYLAYER
 10
22.6755705482
 20
34.7147847698
 11
22.8530579359
 21
34.71478471
  0
LINE
  5
2A4
100
AcDbEntity
  8
0
100
AcDbLine
 62
7
  6
BYLAYER
 10
24.6080831606
 20
34.71478471
 11
24.7855705482
 21
34.7147847698
  0
LINE
  5
2A5
100
AcDbEntity
  8
0
100
AcDbLine
 62
7
  6
BYLAYER
 10
21.0380831606
 20
34.71478471
 11
21.2155705482
 21
34.7147847698
  0
LINE
  5
2A6
100
AcDbEntity
  8
0
100
AcDbLine
 62
7
  6
BYLAYER
 10
33.2675330666
 20
34.733434561
 11
32.311000014
 21
34.733152893
  0
LINE
  5
2A7
100
AcDbEntity
  8
0
100
AcDbLine
 62
7
  6
BYLAYER
 10
29.801000014
 20
34.733152893
 11
28.741000014
 21
34.733152893
  0
LINE
  5
2A8
100
AcDbEntity
  8
0
100
AcDbLine
 62
7
  6
BYLAYER
 10
26.231000014
 20
34.733152893
 11
24.9855705482
 21
34.733152893
  0
LINE
  5
2A9
100
AcDbEntity
  8
0
100
AcDbLine
 62
7
  6
BYLAYER
 10
22.5133495478
 20
34.733152893
 11
21.4155705482
 21
34.733152893
  0
LINE
  5
2AA
100
AcDbEntity
  8
0
100
AcDbLine
 62
7
  6
BYLAYER
 10
18.9433495478
 20
34.733152893
 11
17.9175330666
 21
34.733434561
  0
LINE
  5
2AB
100
AcDbEntity
  8
0
100
AcDbLine
 62
7
  6
BYLAYER
 10
31.9335126263
 20
34.7415938449
 11
32.111000014
 21
34.7415939047
  0
LINE
  5
2AC
100
AcDbEntity
  8
0
100
AcDbLine
 62
7
  6
BYLAYER
 10
28.3635126263
 20
34.7415938449
 11
28.541000014
 21
34.7415939047
  0
LINE
  5
2AD
100
AcDbEntity
  8
0
100
AcDbLine
 62
7
  6
BYLAYER
 10
26.431000014
 20
34.7415939047
 11
26.6084874016
 21
34.7415938449
  0
LINE
  5
2AE
100
AcDbEntity
  8
0
100
AcDbLine
 62
7
  6
BYLAYER
 10
30.001000014
 20
34.7415939047
 11
30.1784874016
 21
34.7415938449
  0
LINE
  5
2AF
100
AcDbEntity
  8
0
100
AcDbLine
 62
7
  6
BYLAYER
 10
21.2155705482
 20
34.7662992246
 11
20.9323629269
 21
34.7662992246
  0
LINE
  5
2B0
100
AcDbEntity
  8
0
100
AcDbLine
 62
7
  6
BYLAYER
 10
19.3887781696
 20
34.7662992246
 11
19.1055705482
 21
34.7662992246
  0
LINE
  5
2B1
100
AcDbEntity
  8
0
100
AcDbLine
 62
7
  6
BYLAYER
 10
22.6755705482
 20
34.7662992246
 11
22.9587781696
 21
34.7662992246
  0
LINE
  5
2B2
100
AcDbEntity
  8
0
100
AcDbLine
 62
7
  6
BYLAYER
 10
24.5023629269
 20
34.7662992246
 11
24.7855705482
 21
34.7662992246
  0
LINE
  5
2B3
100
AcDbEntity
  8
0
100
AcDbLine
 62
7
  6
BYLAYER
 10
28.541000014
 20
34.7931083595
 11
28.2577923926
 21
34.7931083595
  0
LINE
  5
2B4
100
AcDbEntity
  8
0
100
AcDbLine
 62
7
  6
BYLAYER
 10
26.7142076353
 20
34.7931083595
 11
26.431000014
 21
34.7931083595
  0
LINE
  5
2B5
100
AcDbEntity
  8
0
100
AcDbLine
 62
7
  6
BYLAYER
 10
30.001000014
 20
34.7931083595
 11
30.2842076353
 21
34.7931083595
  0
LINE
  5
2B6
100
AcDbEntity
  8
0
100
AcDbLine
 62
7
  6
BYLAYER
 10
31.8277923926
 20
34.7931083595
 11
32.111000014
 21
34.7931083595
  0
LINE
  5
2B7
100
AcDbEntity
  8
0
100
AcDbLine
 62
7
  6
BYLAYER
 10
24.7855705482
 20
34.8034509273
 11
24.5217941253
 21
34.8034509273
  0
LINE
  5
2B8
100
AcDbEntity
  8
0
100
AcDbLine
 62
7
  6
BYLAYER
 10
22.9393469711
 20
34.8034509273
 11
22.6755705482
 21
34.8034509273
  0
LINE
  5
2B9
100
AcDbEntity
  8
0
100
AcDbLine
 62
7
  6
BYLAYER
 10
19.1055705482
 20
34.8034509273
 11
19.3693165162
 21
34.8034509273
  0
LINE
  5
2BA
100
AcDbEntity
  8
0
100
AcDbLine
 62
7
  6
BYLAYER
 10
20.9518245803
 20
34.8034509273
 11
21.2155705482
 21
34.8034509273
  0
LINE
  5
2BB
100
AcDbEntity
  8
0
100
AcDbLine
 62
7
  6
BYLAYER
 10
32.111000014
 20
34.8302600623
 11
31.8472235911
 21
34.8302600623
  0
LINE
  5
2BC
100
AcDbEntity
  8
0
100
AcDbLine
 62
7
  6
BYLAYER
 10
30.2647764369
 20
34.8302600623
 11
30.001000014
 21
34.8302600623
  0
LINE
  5
2BD
100
AcDbEntity
  8
0
100
AcDbLine
 62
7
  6
BYLAYER
 10
26.431000014
 20
34.8302600623
 11
26.6947459819
 21
34.8302600623
  0
LINE
  5
2BE
100
AcDbEntity
  8
0
100
AcDbLine
 62
7
  6
BYLAYER
 10
28.277254046
 20
34.8302600623
 11
28.541000014
 21
34.8302600623
  0
LINE
  5
2BF
100
AcDbEntity
  8
0
100
AcDbLine
 62
7
  6
BYLAYER
 10
19.1055705482
 20
34.841995819
 11
21.2155705482
 21
34.841995819
  0
LINE
  5
2C0
100
AcDbEntity
  8
0
100
AcDbLine
 62
7
  6
BYLAYER
 10
22.6755705482
 20
34.841995819
 11
24.7855705482
 21
34.841995819
  0
LINE
  5
2C1
100
AcDbEntity
  8
0
100
AcDbLine
 62
7
  6
BYLAYER
 10
26.431000014
 20
34.8688049539
 11
28.541000014
 21
34.8688049539
  0
LINE
  5
2C2
100
AcDbEntity
  8
0
100
AcDbLine
 62
7
  6
BYLAYER
 10
30.001000014
 20
34.8688049539
 11
32.111000014
 21
34.8688049539
  0
LINE
  5
2C3
100
AcDbEntity
  8
0
100
AcDbLine
 62
7
  6
BYLAYER
 10
25.920127739
 20
60.7912702173
 11
25.920127739
 21
60.9857145294
  0
LINE
  5
2C4
100
AcDbEntity
  8
0
100
AcDbLine
 62
7
  6
BYLAYER
 10
26.1575330666
 20
34.5568733299
 11
26.1575330666
 21
34.733152893
  0
LINE
  5
2C5
100
AcDbEntity
  8
0
100
AcDbLine
 62
7
  6
BYLAYER
 10
26.2293994513
 20
34.3998199709
 11
26.2293994513
 21
32.9925330954
  0
LINE
  5
2C6
100
AcDbEntity
  8
0
100
AcDbLine
 62
7
  6
BYLAYER
 10
26.231000014
 20
34.5928928117
 11
26.231000014
 21
34.6300445145
  0
LINE
  5
2C7
100
AcDbEntity
  8
0
100
AcDbLine
 62
7
  6
BYLAYER
 10
26.431000014
 20
34.8688049539
 11
26.431000014
 21
34.8302600623
  0
LINE
  5
2C8
100
AcDbEntity
  8
0
100
AcDbLine
 62
7
  6
BYLAYER
 10
26.431000014
 20
34.7931083595
 11
26.431000014
 21
34.7415939047
  0
LINE
  5
2C9
100
AcDbEntity
  8
0
100
AcDbLine
 62
7
  6
BYLAYER
 10
26.5175330666
 20
49.081034041
 11
26.5175330666
 21
51.4670119844
  0
LINE
  5
2CA
100
AcDbEntity
  8
0
100
AcDbLine
 62
7
  6
BYLAYER
 10
26.6925330666
 20
34.4450063808
 11
26.6925330666
 21
32.8461037286
  0
LINE
  5
2CB
100
AcDbEntity
  8
0
100
AcDbLine
 62
7
  6
BYLAYER
 10
27.3425330666
 20
20.983434561
 11
27.3425330666
 21
30.683434561
  0
LINE
  5
2CC
100
AcDbEntity
  8
0
100
AcDbLine
 62
7
  6
BYLAYER
 10
27.486000014
 20
34.6042856491
 11
27.486000014
 21
34.7648137162
  0
LINE
  5
2CD
100
AcDbEntity
  8
0
100
AcDbLine
 62
7
  6
BYLAYER
 10
27.7462127231
 20
6.033434561
 11
27.7462127231
 21
9.533434561
  0
LINE
  5
2CE
100
AcDbEntity
  8
0
100
AcDbLine
 62
7
  6
BYLAYER
 10
20.821980182
 20
18.0103576379
 11
20.629792682
 21
17.433434561
  0
LINE
  5
2CF
100
AcDbEntity
  8
0
100
AcDbLine
 62
7
  6
BYLAYER
 10
20.4790715282
 20
17.433434561
 11
21.0790715282
 21
19.233434561
  0
LINE
  5
2D0
100
AcDbEntity
  8
0
100
AcDbLine
 62
7
  6
BYLAYER
 10
21.0906099897
 20
18.8158864841
 11
20.8836388359
 21
18.1949730225
  0
LINE
  5
2D1
100
AcDbEntity
  8
0
100
AcDbLine
 62
7
  6
BYLAYER
 10
33.4425330666
 20
35.9819774998
 11
32.0425330666
 21
35.9819774998
  0
LINE
  5
2D2
100
AcDbEntity
  8
0
100
AcDbLine
 62
7
  6
BYLAYER
 10
19.1425330666
 20
35.9819774998
 11
17.7425330666
 21
35.9819774998
  0
LINE
  5
2D3
100
AcDbEntity
  8
0
100
AcDbLine
 62
7
  6
BYLAYER
 10
33.4425330666
 20
37.4816509236
 11
32.0425330666
 21
37.4816509236
  0
LINE
  5
2D4
100
AcDbEntity
  8
0
100
AcDbLine
 62
7
  6
BYLAYER
 10
19.1425330666
 20
37.4816509236
 11
17.7425330666
 21
37.4816509236
  0
LINE
  5
2D5
100
AcDbEntity
  8
0
100
AcDbLine
 62
7
  6
BYLAYER
 10
26.7144283098
 20
34.7932256392
 11
26.6947459819
 21
34.8302600623
  0
LINE
  5
2D6
100
AcDbEntity
  8
0
100
AcDbLine
 62
7
  6
BYLAYER
 10
26.7142061153
 20
34.7931089523
 11
26.6947459819
 21
34.8302600623
  0
LINE
  5
2D7
100
AcDbEntity
  8
0
100
AcDbLine
 62
7
  6
BYLAYER
 10
27.9175330666
 20
14.933434561
 11
27.9175330666
 21
12.533434561
  0
LINE
  5
2D8
100
AcDbEntity
  8
0
100
AcDbLine
 62
7
  6
BYLAYER
 10
28.541000014
 20
34.7415939047
 11
28.541000014
 21
34.7931083595
  0
LINE
  5
2D9
100
AcDbEntity
  8
0
100
AcDbLine
 62
7
  6
BYLAYER
 10
28.541000014
 20
34.8302600623
 11
28.541000014
 21
34.8688049539
  0
LINE
  5
2DA
100
AcDbEntity
  8
0
100
AcDbLine
 62
7
  6
BYLAYER
 10
28.741000014
 20
34.5928928117
 11
28.741000014
 21
34.6300445145
  0
LINE
  5
2DB
100
AcDbEntity
  8
0
100
AcDbLine
 62
7
  6
BYLAYER
 10
28.7575330666
 20
34.7334332948
 11
28.7575330666
 21
34.5568733299
  0
LINE
  5
2DC
100
AcDbEntity
  8
0
100
AcDbLine
 62
7
  6
BYLAYER
 10
28.8068728949
 20
9.533434561
 11
28.8068728949
 21
6.033434561
  0
LINE
  5
2DD
100
AcDbEntity
  8
0
100
AcDbLine
 62
7
  6
BYLAYER
 10
29.4175330666
 20
16.733434561
 11
29.4175330666
 21
16.2271599543
  0
LINE
  5
2DE
100
AcDbEntity
  8
0
100
AcDbLine
 62
7
  6
BYLAYER
 10
29.6175330666
 20
16.2271599543
 11
29.6175330666
 21
16.933434561
  0
LINE
  5
2DF
100
AcDbEntity
  8
0
100
AcDbLine
 62
7
  6
BYLAYER
 10
29.7275330666
 20
34.5568733299
 11
29.7275330666
 21
34.733152893
  0
LINE
  5
2E0
100
AcDbEntity
  8
0
100
AcDbLine
 62
7
  6
BYLAYER
 10
29.801000014
 20
34.6300445145
 11
29.801000014
 21
34.5928928117
  0
LINE
  5
2E1
100
AcDbEntity
  8
0
100
AcDbLine
 62
7
  6
BYLAYER
 10
28.277254046
 20
34.8302600623
 11
28.2577938965
 21
34.7931089579
  0
LINE
  5
2E2
100
AcDbEntity
  8
0
100
AcDbLine
 62
7
  6
BYLAYER
 10
28.277254046
 20
34.8302600623
 11
28.2575719083
 21
34.7932255367
  0
LINE
  5
2E3
100
AcDbEntity
  8
0
100
AcDbLine
 62
7
  6
BYLAYER
 10
30.2647459819
 20
34.8302600623
 11
30.284368168
 21
34.7931933414
  0
LINE
  5
2E4
100
AcDbEntity
  8
0
100
AcDbLine
 62
7
  6
BYLAYER
 10
30.2647459819
 20
34.8302600623
 11
30.2841908871
 21
34.7931004209
  0
LINE
  5
2E5
100
AcDbEntity
  8
0
100
AcDbLine
 62
7
  6
BYLAYER
 10
30.001000014
 20
34.8688049539
 11
30.001000014
 21
34.8302600623
  0
LINE
  5
2E6
100
AcDbEntity
  8
0
100
AcDbLine
 62
7
  6
BYLAYER
 10
30.001000014
 20
34.7931083595
 11
30.001000014
 21
34.7415939047
  0
LINE
  5
2E7
100
AcDbEntity
  8
0
100
AcDbLine
 62
7
  6
BYLAYER
 10
30.2675330666
 20
6.033434561
 11
30.2675330666
 21
5.733434561
  0
LINE
  5
2E8
100
AcDbEntity
  8
0
100
AcDbLine
 62
7
  6
BYLAYER
 10
30.7059946051
 20
17.6180499456
 11
30.7059946051
 21
17.433434561
  0
LINE
  5
2E9
100
AcDbEntity
  8
0
100
AcDbLine
 62
7
  6
BYLAYER
 10
30.9281932384
 20
6.033434561
 11
30.9281932384
 21
9.533434561
  0
LINE
  5
2EA
100
AcDbEntity
  8
0
100
AcDbLine
 62
7
  6
BYLAYER
 10
31.056000014
 20
34.6042862394
 11
31.056000014
 21
34.7648137162
  0
LINE
  5
2EB
100
AcDbEntity
  8
0
100
AcDbLine
 62
7
  6
BYLAYER
 10
31.1175330666
 20
14.933434561
 11
31.1175330666
 21
12.533434561
  0
LINE
  5
2EC
100
AcDbEntity
  8
0
100
AcDbLine
 62
7
  6
BYLAYER
 10
31.3425330666
 20
20.983434561
 11
31.3425330666
 21
30.683434561
  0
LINE
  5
2ED
100
AcDbEntity
  8
0
100
AcDbLine
 62
7
  6
BYLAYER
 10
31.3675330666
 20
9.533434561
 11
31.3675330666
 21
6.033434561
  0
LINE
  5
2EE
100
AcDbEntity
  8
0
100
AcDbLine
 62
7
  6
BYLAYER
 10
31.5675330666
 20
5.733434561
 11
31.5675330666
 21
9.533434561
  0
LINE
  5
2EF
100
AcDbEntity
  8
0
100
AcDbLine
 62
7
  6
BYLAYER
 10
31.5925330666
 20
5.733434561
 11
31.5925330666
 21
9.533434561
  0
LINE
  5
2F0
100
AcDbEntity
  8
0
100
AcDbLine
 62
7
  6
BYLAYER
 10
31.8675330666
 20
32.8461037286
 11
31.8675330666
 21
34.4450063808
  0
LINE
  5
2F1
100
AcDbEntity
  8
0
100
AcDbLine
 62
7
  6
BYLAYER
 10
31.8278089406
 20
34.7931005308
 11
31.847254046
 21
34.8302600623
  0
LINE
  5
2F2
100
AcDbEntity
  8
0
100
AcDbLine
 62
7
  6
BYLAYER
 10
31.8276311864
 20
34.7931937017
 11
31.847254046
 21
34.8302600623
  0
LINE
  5
2F3
100
AcDbEntity
  8
0
100
AcDbLine
 62
7
  6
BYLAYER
 10
32.0425330666
 20
55.8357296269
 11
32.0425330666
 21
34.8688049539
  0
LINE
  5
2F4
100
AcDbEntity
  8
0
100
AcDbLine
 62
7
  6
BYLAYER
 10
32.111000014
 20
34.7415939047
 11
32.111000014
 21
34.7931083595
  0
LINE
  5
2F5
100
AcDbEntity
  8
0
100
AcDbLine
 62
7
  6
BYLAYER
 10
32.111000014
 20
34.8302600623
 11
32.111000014
 21
34.8688049539
  0
LINE
  5
2F6
100
AcDbEntity
  8
0
100
AcDbLine
 62
7
  6
BYLAYER
 10
32.2175330666
 20
15.233434561
 11
32.2175330666
 21
19.783434561
  0
LINE
  5
2F7
100
AcDbEntity
  8
0
100
AcDbLine
 62
7
  6
BYLAYER
 10
32.311000014
 20
34.5928928117
 11
32.311000014
 21
34.6300445145
  0
LINE
  5
2F8
100
AcDbEntity
  8
0
100
AcDbLine
 62
7
  6
BYLAYER
 10
32.3306666819
 20
34.3998200172
 11
32.3306666819
 21
32.9925330954
  0
LINE
  5
2F9
100
AcDbEntity
  8
0
100
AcDbLine
 62
7
  6
BYLAYER
 10
32.3375330666
 20
34.7334332948
 11
32.3375330666
 21
34.5568733299
  0
LINE
  5
2FA
100
AcDbEntity
  8
0
100
AcDbLine
 62
7
  6
BYLAYER
 10
33.2675330666
 20
5.733434561
 11
33.2675330666
 21
34.733434561
  0
LINE
  5
2FB
100
AcDbEntity
  8
0
100
AcDbLine
 62
7
  6
BYLAYER
 10
33.4425330666
 20
34.6609471876
 11
33.4425330666
 21
64.8769443268
  0
LINE
  5
2FC
100
AcDbEntity
  8
0
100
AcDbLine
 62
7
  6
BYLAYER
 10
33.5175330666
 20
5.733434561
 11
33.5175330666
 21
47.983434561
  0
LINE
  5
2FD
100
AcDbEntity
  8
0
100
AcDbLine
 62
7
  6
BYLAYER
 10
28.671980182
 20
18.0103576379
 11
28.479792682
 21
17.433434561
  0
LINE
  5
2FE
100
AcDbEntity
  8
0
100
AcDbLine
 62
7
  6
BYLAYER
 10
28.3290715282
 20
17.433434561
 11
28.9290715282
 21
19.233434561
  0
LINE
  5
2FF
100
AcDbEntity
  8
0
100
AcDbLine
 62
7
  6
BYLAYER
 10
28.9406099897
 20
18.8158864841
 11
28.7336388359
 21
18.1949730225
  0
LINE
  5
300
100
AcDbEntity
  8
0
100
AcDbLine
 62
7
  6
BYLAYER
 10
22.5617638359
 20
18.0896845611
 11
22.2278696051
 21
17.6180499456
  0
LINE
  5
301
100
AcDbEntity
  8
0
100
AcDbLine
 62
7
  6
BYLAYER
 10
21.909840759
 20
17.433434561
 11
22.4373647974
 21
18.1783864841
  0
LINE
  5
302
100
AcDbEntity
  8
0
100
AcDbLine
 62
7
  6
BYLAYER
 10
33.5175330666
 20
47.433434561
 11
33.4425330666
 21
47.433434561
  0
LINE
  5
303
100
AcDbEntity
  8
0
100
AcDbLine
 62
7
  6
BYLAYER
 10
32.0425330666
 20
47.433434561
 11
19.1425330666
 21
47.433434561
  0
LINE
  5
304
100
AcDbEntity
  8
0
100
AcDbLine
 62
7
  6
BYLAYER
 10
17.7425330666
 20
47.433434561
 11
17.6675330666
 21
47.433434561
  0
LINE
  5
305
100
AcDbEntity
  8
0
100
AcDbLine
 62
7
  6
BYLAYER
 10
30.4117638359
 20
18.0896845611
 11
30.0778696051
 21
17.6180499456
  0
LINE
  5
306
100
AcDbEntity
  8
0
100
AcDbLine
 62
7
  6
BYLAYER
 10
29.759840759
 20
17.433434561
 11
30.2873647974
 21
18.1783864841
  0
LINE
  5
307
100
AcDbEntity
  8
0
100
AcDbLine
 62
7
  6
BYLAYER
 10
19.1425330666
 20
48.233434561
 11
32.0425330666
 21
48.233434561
  0
LINE
  5
308
100
AcDbEntity
  8
0
100
AcDbLine
 62
7
  6
BYLAYER
 10
32.0425330666
 20
48.417578755
 11
30.0070558327
 21
48.417578755
  0
LINE
  5
309
100
AcDbEntity
  8
0
100
AcDbLine
 62
7
  6
BYLAYER
 10
28.5470558327
 20
48.417578755
 11
26.4370558327
 21
48.417578755
  0
LINE
  5
30A
100
AcDbEntity
  8
0
100
AcDbLine
 62
7
  6
BYLAYER
 10
26.5175330666
 20
49.080944725
 11
24.6675330666
 21
49.080944725
  0
LINE
  5
30B
100
AcDbEntity
  8
0
100
AcDbLine
 62
7
  6
BYLAYER
 10
26.5175330666
 20
49.7576498114
 11
24.6675330666
 21
49.7576498114
  0
LINE
  5
30C
100
AcDbEntity
  8
0
100
AcDbLine
 62
7
  6
BYLAYER
 10
24.6675330666
 20
50.2090323987
 11
26.5175330666
 21
50.2090323987
  0
LINE
  5
30D
100
AcDbEntity
  8
0
100
AcDbLine
 62
7
  6
BYLAYER
 10
24.6675330666
 20
50.5973285093
 11
26.5175330666
 21
50.5973285093
  0
LINE
  5
30E
100
AcDbEntity
  8
0
100
AcDbLine
 62
7
  6
BYLAYER
 10
19.1425330666
 20
51.3435462865
 11
17.7425330666
 21
51.3435462865
  0
LINE
  5
30F
100
AcDbEntity
  8
0
100
AcDbLine
 62
7
  6
BYLAYER
 10
32.0425330666
 20
51.3435462865
 11
33.4425330666
 21
51.3435462865
  0
LINE
  5
310
100
AcDbEntity
  8
0
100
AcDbLine
 62
7
  6
BYLAYER
 10
33.4425330666
 20
52.6824573292
 11
32.0425330666
 21
52.6824573292
  0
LINE
  5
311
100
AcDbEntity
  8
0
100
AcDbLine
 62
7
  6
BYLAYER
 10
19.1425330666
 20
52.6824573292
 11
17.7425330666
 21
52.6824573292
  0
LINE
  5
312
100
AcDbEntity
  8
0
100
AcDbLine
 62
7
  6
BYLAYER
 10
22.6925330666
 20
55.8378293428
 11
25.5925330666
 21
55.8398124078
  0
LINE
  5
313
100
AcDbEntity
  8
0
100
AcDbLine
 62
7
  6
BYLAYER
 10
17.7425330666
 20
54.0724582224
 11
19.1425330666
 21
54.0724582224
  0
LINE
  5
314
100
AcDbEntity
  8
0
100
AcDbLine
 62
7
  6
BYLAYER
 10
32.0425330666
 20
54.0724583313
 11
33.4425330666
 21
54.0724583313
  0
LINE
  5
315
100
AcDbEntity
  8
0
100
AcDbLine
 62
7
  6
BYLAYER
 10
27.7450620353
 20
55.23797961
 11
23.4400019225
 21
55.23797961
  0
LINE
  5
316
100
AcDbEntity
  8
0
100
AcDbLine
 62
7
  6
BYLAYER
 10
19.1425330666
 20
55.8357296269
 11
22.6925330666
 21
55.8357296269
  0
LINE
  5
317
100
AcDbEntity
  8
0
100
AcDbLine
 62
7
  6
BYLAYER
 10
28.4925330666
 20
55.8357296269
 11
32.0425330666
 21
55.8357296269
  0
LINE
  5
318
100
AcDbEntity
  8
0
100
AcDbLine
 62
7
  6
BYLAYER
 10
25.5925330666
 20
55.8398124078
 11
28.4925330666
 21
55.8378293428
  0
LINE
  5
319
100
AcDbEntity
  8
0
100
AcDbLine
 62
7
  6
BYLAYER
 10
24.8923499613
 20
59.8190486568
 11
24.6423499613
 21
59.8190486568
  0
LINE
  5
31A
100
AcDbEntity
  8
0
100
AcDbLine
 62
7
  6
BYLAYER
 10
23.6145721835
 20
59.8468264157
 11
22.3645721835
 21
59.8468264157
  0
LINE
  5
31B
100
AcDbEntity
  8
0
100
AcDbLine
 62
7
  6
BYLAYER
 10
22.6575409335
 20
60.0690484866
 11
23.6145721835
 21
60.0690484866
  0
LINE
  5
31C
100
AcDbEntity
  8
0
100
AcDbLine
 62
7
  6
BYLAYER
 10
25.1384437113
 20
60.3468260753
 11
24.8923499613
 21
60.3468260753
  0
LINE
  5
31D
100
AcDbEntity
  8
0
100
AcDbLine
 62
7
  6
BYLAYER
 10
24.6423499613
 20
60.3468260753
 11
23.8367944057
 21
60.3468260753
  0
LINE
  5
31E
100
AcDbEntity
  8
0
100
AcDbLine
 62
7
  6
BYLAYER
 10
25.3923499613
 20
60.4579371108
 11
25.6423499613
 21
60.4579371108
  0
LINE
  5
31F
100
AcDbEntity
  8
0
100
AcDbLine
 62
7
  6
BYLAYER
 10
24.0963430168
 20
60.5690481463
 11
24.6423499613
 21
60.5690481463
  0
LINE
  5
320
100
AcDbEntity
  8
0
100
AcDbLine
 62
7
  6
BYLAYER
 10
24.8923499613
 20
60.5690481463
 11
25.1384437113
 21
60.5690481463
  0
LINE
  5
321
100
AcDbEntity
  8
0
100
AcDbLine
 62
7
  6
BYLAYER
 10
25.6979055168
 20
61.2634921181
 11
25.4479055168
 21
61.2634921181
  0
LINE
  5
322
100
AcDbEntity
  8
0
100
AcDbLine
 62
7
  6
BYLAYER
 10
23.2985999613
 20
61.6246029834
 11
22.4479055168
 21
61.6246029834
  0
LINE
  5
323
100
AcDbEntity
  8
0
100
AcDbLine
 62
7
  6
BYLAYER
 10
22.4479055168
 20
61.8468250544
 11
23.5867944057
 21
61.8468250544
  0
LINE
  5
324
100
AcDbEntity
  8
0
100
AcDbLine
 62
7
  6
BYLAYER
 10
24.6223846835
 20
61.8746028133
 11
24.8923499613
 21
61.8746028133
  0
LINE
  5
325
100
AcDbEntity
  8
0
100
AcDbLine
 62
7
  6
BYLAYER
 10
33.4425330666
 20
64.8769443268
 11
17.7425330666
 21
64.8769443268
  0
ARC
  5
326
100
AcDbEntity
  8
0
100
AcDbCircle
 62
7
  6
BYLAYER
 10
23.7305705482
 20
16.0376531937
 40
18.788893187
100
AcDbArc
 50
89.5757573075
 51
90.4242426925
  0
ARC
  5
327
100
AcDbEntity
  8
0
100
AcDbCircle
 62
7
  6
BYLAYER
 10
20.1605705482
 20
16.0376532216
 40
18.7888931591
100
AcDbArc
 50
89.5757573069
 51
90.4242426931
  0
ARC
  5
328
100
AcDbEntity
  8
0
100
AcDbCircle
 62
7
  6
BYLAYER
 10
19.5336542803
 20
33.0983258065
 40
1.713023225
100
AcDbArc
 50
95.0633830373
 51
95.5040762259
  0
ARC
  5
329
100
AcDbEntity
  8
0
100
AcDbCircle
 62
7
  6
BYLAYER
 10
20.7874868168
 20
33.0983258149
 40
1.7130232166
100
AcDbArc
 50
84.4959237696
 51
84.9366169601
  0
ARC
  5
32A
100
AcDbEntity
  8
0
100
AcDbCircle
 62
7
  6
BYLAYER
 10
24.3574868607
 20
33.0983263624
 40
1.7130226674
100
AcDbArc
 50
84.4959234741
 51
84.9366167897
  0
ARC
  5
32B
100
AcDbEntity
  8
0
100
AcDbCircle
 62
7
  6
BYLAYER
 10
23.1036542355
 20
33.0983263661
 40
1.7130226637
100
AcDbArc
 50
95.0633832113
 51
95.5040765277
  0
ARC
  5
32C
100
AcDbEntity
  8
0
100
AcDbCircle
 62
7
  6
BYLAYER
 10
19.325549678
 20
33.0960677443
 40
1.3862314471
100
AcDbArc
 50
109.9938503247
 51
111.7918182594
  0
ARC
  5
32D
100
AcDbEntity
  8
0
100
AcDbCircle
 62
7
  6
BYLAYER
 10
24.497471081
 20
33.1300053335
 40
1.3499099786
100
AcDbArc
 50
68.1839909904
 51
70.0303413498
  0
ARC
  5
32E
100
AcDbEntity
  8
0
100
AcDbCircle
 62
7
  6
BYLAYER
 10
21.6675330666
 20
15.433434561
 40
0.8
100
AcDbArc
 50
97.1807557815
 51
180.0
  0
ARC
  5
32F
100
AcDbEntity
  8
0
100
AcDbCircle
 62
7
  6
BYLAYER
 10
21.6675330666
 20
15.433434561
 40
0.8
100
AcDbArc
 50
0.0
 51
82.8192442185
  0
ARC
  5
330
100
AcDbEntity
  8
0
100
AcDbCircle
 62
7
  6
BYLAYER
 10
21.6675330666
 20
15.433434561
 40
0.6
100
AcDbArc
 50
0.0
 51
180.0
  0
ARC
  5
331
100
AcDbEntity
  8
0
100
AcDbCircle
 62
7
  6
BYLAYER
 10
17.9175330666
 20
34.483434561
 40
0.25
100
AcDbArc
 50
90.0
 51
180.0
  0
ARC
  5
332
100
AcDbEntity
  8
0
100
AcDbCircle
 62
7
  6
BYLAYER
 10
21.6675330666
 20
16.833434561
 40
0.25
100
AcDbArc
 50
23.5781784782
 51
156.4218215218
  0
ARC
  5
333
100
AcDbEntity
  8
0
100
AcDbCircle
 62
7
  6
BYLAYER
 10
21.6675330666
 20
16.833434561
 40
0.25
100
AcDbArc
 50
203.5815698054
 51
246.4218215218
  0
ARC
  5
334
100
AcDbEntity
  8
0
100
AcDbCircle
 62
7
  6
BYLAYER
 10
21.6675330666
 20
16.833434561
 40
0.25
100
AcDbArc
 50
293.5781784782
 51
336.4206869566
  0
ARC
  5
335
100
AcDbEntity
  8
0
100
AcDbCircle
 62
7
  6
BYLAYER
 10
17.9175330666
 20
30.433434561
 40
0.25
100
AcDbArc
 50
90.0
 51
180.0
  0
ARC
  5
336
100
AcDbEntity
  8
0
100
AcDbCircle
 62
7
  6
BYLAYER
 10
16.1943801383
 20
50.7937860856
 40
8.5
100
AcDbArc
 50
4.5602886072
 51
32.6759840447
  0
ARC
  5
337
100
AcDbEntity
  8
0
100
AcDbCircle
 62
7
  6
BYLAYER
 10
22.5074078317
 20
54.8427184213
 40
1.0
100
AcDbArc
 50
32.6868567472
 51
80.4074944902
  0
ARC
  5
338
100
AcDbEntity
  8
0
100
AcDbCircle
 62
7
  6
BYLAYER
 10
17.9175330666
 20
47.983434561
 40
0.25
100
AcDbArc
 50
134.5477272148
 51
180.0
  0
ARC
  5
339
100
AcDbEntity
  8
0
100
AcDbCircle
 62
7
  6
BYLAYER
 10
31.056000014
 20
16.0644623285
 40
18.7888931872
100
AcDbArc
 50
89.5757573075
 51
90.4242426925
  0
ARC
  5
33A
100
AcDbEntity
  8
0
100
AcDbCircle
 62
7
  6
BYLAYER
 10
27.486000014
 20
16.0644623565
 40
18.7888931591
100
AcDbArc
 50
89.5757573069
 51
90.4242426931
  0
ARC
  5
33B
100
AcDbEntity
  8
0
100
AcDbCircle
 62
7
  6
BYLAYER
 10
26.8590837461
 20
33.1251349414
 40
1.7130232251
100
AcDbArc
 50
95.0633830373
 51
95.5040762259
  0
ARC
  5
33C
100
AcDbEntity
  8
0
100
AcDbCircle
 62
7
  6
BYLAYER
 10
28.1129162825
 20
33.1251349496
 40
1.7130232168
100
AcDbArc
 50
84.4959237696
 51
84.9366169601
  0
ARC
  5
33D
100
AcDbEntity
  8
0
100
AcDbCircle
 62
7
  6
BYLAYER
 10
31.6829163265
 20
33.1251354979
 40
1.7130226668
100
AcDbArc
 50
84.495923474
 51
84.9366167897
  0
ARC
  5
33E
100
AcDbEntity
  8
0
100
AcDbCircle
 62
7
  6
BYLAYER
 10
30.4290837013
 20
33.1251355005
 40
1.7130226643
100
AcDbArc
 50
95.0633832113
 51
95.5040765276
  0
ARC
  5
33F
100
AcDbEntity
  8
0
100
AcDbCircle
 62
7
  6
BYLAYER
 10
26.7036739219
 20
33.0876150388
 40
1.3952842673
100
AcDbArc
 50
109.8715401413
 51
111.7866397992
  0
ARC
  5
340
100
AcDbEntity
  8
0
100
AcDbCircle
 62
7
  6
BYLAYER
 10
31.8703329947
 20
33.1242584071
 40
1.3560842588
100
AcDbArc
 50
68.1856777442
 51
70.1561434049
  0
ARC
  5
341
100
AcDbEntity
  8
0
100
AcDbCircle
 62
7
  6
BYLAYER
 10
29.5175330666
 20
15.433434561
 40
0.8
100
AcDbArc
 50
97.1807557815
 51
180.0
  0
ARC
  5
342
100
AcDbEntity
  8
0
100
AcDbCircle
 62
7
  6
BYLAYER
 10
29.5175330666
 20
15.433434561
 40
0.8
100
AcDbArc
 50
0.0
 51
82.8192442185
  0
ARC
  5
343
100
AcDbEntity
  8
0
100
AcDbCircle
 62
7
  6
BYLAYER
 10
29.5175330666
 20
15.433434561
 40
0.6
100
AcDbArc
 50
0.0
 51
180.0
  0
ARC
  5
344
100
AcDbEntity
  8
0
100
AcDbCircle
 62
7
  6
BYLAYER
 10
33.2675330666
 20
34.483434561
 40
0.25
100
AcDbArc
 50
0.0
 51
90.0
  0
ARC
  5
345
100
AcDbEntity
  8
0
100
AcDbCircle
 62
7
  6
BYLAYER
 10
33.2675330666
 20
30.433434561
 40
0.25
100
AcDbArc
 50
0.0
 51
90.0
  0
ARC
  5
346
100
AcDbEntity
  8
0
100
AcDbCircle
 62
7
  6
BYLAYER
 10
34.990685995
 20
50.7937904335
 40
8.5
100
AcDbArc
 50
147.3240159471
 51
175.4397137726
  0
ARC
  5
347
100
AcDbEntity
  8
0
100
AcDbCircle
 62
7
  6
BYLAYER
 10
25.5925330666
 20
55.8357296269
 40
2.9
100
AcDbArc
 50
0.0
 51
180.0
  0
ARC
  5
348
100
AcDbEntity
  8
0
100
AcDbCircle
 62
7
  6
BYLAYER
 10
28.6776583016
 20
54.8427187775
 40
1.0
100
AcDbArc
 50
99.6263072516
 51
147.313076939
  0
ARC
  5
349
100
AcDbEntity
  8
0
100
AcDbCircle
 62
7
  6
BYLAYER
 10
33.2675330666
 20
47.983434561
 40
0.25
100
AcDbArc
 50
0.0
 51
45.4522727852
  0
SPLINE
  5
34A
100
AcDbEntity
  8
0
100
AcDbSpline
 62
7
  6
BYLAYER
 70
0
 71
3
 72
23
 73
19
 74
0
 42
0.0000001
 43
0.0000001
 44
0.0000000001
 40
0.0
 40
0.0
 40
0.0
 40
0.0
 40
0.075469999
 40
0.1461382942
 40
0.2133382603
 40
0.2775062978
 40
0.339516092
 40
0.3994688637
 40
0.4587924285
 40
0.5173520216
 40
0.574933091
 40
0.6326397058
 40
0.690313798
 40
0.7486716506
 40
0.8077235029
 40
0.8691906169
 40
0.9333085101
 40
1.0
 40
1.0
 40
1.0
 40
1.0
 10
27.8645721835
 20
60.4197426924
 30
0.0
 10
27.8641762852
 20
60.4048335365
 30
0.0
 10
27.8634096772
 20
60.3759638048
 30
0.0
 10
27.8592886666
 20
60.3339425783
 30
0.0
 10
27.8513373601
 20
60.2947710798
 30
0.0
 10
27.8407186492
 20
60.2579843787
 30
0.0
 10
27.8261200312
 20
60.2241541685
 30
0.0
 10
27.8093195455
 20
60.1924464968
 30
0.0
 10
27.7888339085
 20
60.1637611056
 30
0.0
 10
27.7653147949
 20
60.138177343
 30
0.0
 10
27.739434486
 20
60.115527242
 30
0.0
 10
27.7117914251
 20
60.0952770166
 30
0.0
 10
27.6814607119
 20
60.0790592623
 30
0.0
 10
27.6498714203
 20
60.0648050468
 30
0.0
 10
27.6159438374
 20
60.054649552
 30
0.0
 10
27.580326169
 20
60.0465468159
 30
0.0
 10
27.5424709909
 20
60.0424801516
 30
0.0
 10
27.5166338222
 20
60.0416791223
 30
0.0
 10
27.5034610724
 20
60.0412707278
 30
0.0
  0
SPLINE
  5
34B
100
AcDbEntity
  8
0
100
AcDbSpline
 62
7
  6
BYLAYER
 70
0
 71
3
 72
23
 73
19
 74
0
 42
0.0000001
 43
0.0000001
 44
0.0000000001
 40
0.0
 40
0.0
 40
0.0
 40
0.0
 40
0.0666781435
 40
0.1307832053
 40
0.1922380183
 40
0.2512780531
 40
0.309624227
 40
0.3672867774
 40
0.4249818439
 40
0.4831025733
 40
0.5416504473
 40
0.6005405361
 40
0.6608333945
 40
0.7225492372
 40
0.7867044333
 40
0.8538909513
 40
0.9245451042
 40
1.0
 40
1.0
 40
1.0
 40
1.0
 10
27.5034610724
 20
60.0412707278
 30
0.0
 10
27.4902883311
 20
60.0416791328
 30
0.0
 10
27.464451179
 20
60.0424801826
 30
0.0
 10
27.4265958811
 20
60.0465466995
 30
0.0
 10
27.3909786407
 20
60.0546499619
 30
0.0
 10
27.3570495384
 20
60.0648035883
 30
0.0
 10
27.3254657861
 20
60.0790646156
 30
0.0
 10
27.295114673
 20
60.0952572839
 30
0.0
 10
27.2674596868
 20
60.1156657382
 30
0.0
 10
27.2412193219
 20
60.1380456042
 30
0.0
 10
27.2175804967
 20
60.1636232988
 30
0.0
 10
27.1977790695
 20
60.1927267776
 30
0.0
 10
27.1801374451
 20
60.2238985162
 30
0.0
 10
27.1663699387
 20
60.2581205503
 30
0.0
 10
27.1555327487
 20
60.2947474506
 30
0.0
 10
27.1476484083
 20
60.333949358
 30
0.0
 10
27.1435083542
 20
60.375961937
 30
0.0
 10
27.1427444588
 20
60.4048329003
 30
0.0
 10
27.1423499613
 20
60.4197426924
 30
0.0
  0
SPLINE
  5
34C
100
AcDbEntity
  8
0
100
AcDbSpline
 62
7
  6
BYLAYER
 70
0
 71
3
 72
23
 73
19
 74
0
 42
0.0000001
 43
0.0000001
 44
0.0000000001
 40
0.0
 40
0.0
 40
0.0
 40
0.0
 40
0.0689877746
 40
0.1345558294
 40
0.1972127552
 40
0.257540814
 40
0.3158856579
 40
0.3731850106
 40
0.4301865424
 40
0.4871314151
 40
0.5452191764
 40
0.6030233341
 40
0.6626468075
 40
0.7238202103
 40
0.7875912894
 40
0.8547512483
 40
0.9248865073
 40
1.0
 40
1.0
 40
1.0
 40
1.0
 10
27.1423499613
 20
60.4197426924
 30
0.0
 10
27.1425533023
 20
60.4327765319
 30
0.0
 10
27.1429499049
 20
60.4581981242
 30
0.0
 10
27.1473898532
 20
60.4952397705
 30
0.0
 10
27.1546543675
 20
60.5301540872
 30
0.0
 10
27.1652005365
 20
60.5627900725
 30
0.0
 10
27.1781410166
 20
60.5934562034
 30
0.0
 10
27.1942995976
 20
60.6218727664
 30
0.0
 10
27.2135455759
 20
60.6479346624
 30
0.0
 10
27.2353694346
 20
60.672088423
 30
0.0
 10
27.2600019496
 20
60.6935999363
 30
0.0
 10
27.2872054044
 20
60.7127005561
 30
0.0
 10
27.3173464327
 20
60.7279982015
 30
0.0
 10
27.3496126223
 20
60.7413154247
 30
0.0
 10
27.384624836
 20
60.7510779384
 30
0.0
 10
27.4218934162
 20
60.7584858599
 30
0.0
 10
27.4618326381
 20
60.7629098814
 30
0.0
 10
27.4892714497
 20
60.763293879
 30
0.0
 10
27.5034610724
 20
60.7634924584
 30
0.0
  0
SPLINE
  5
34D
100
AcDbEntity
  8
0
100
AcDbSpline
 62
7
  6
BYLAYER
 70
0
 71
3
 72
23
 73
19
 74
0
 42
0.0000001
 43
0.0000001
 44
0.0000000001
 40
0.0
 40
0.0
 40
0.0
 40
0.0
 40
0.0751134927
 40
0.1452487517
 40
0.2124087106
 40
0.2761797897
 40
0.3373531925
 40
0.3969766659
 40
0.4547808236
 40
0.5128685849
 40
0.5698134576
 40
0.6268149894
 40
0.6841143421
 40
0.742459186
 40
0.8027872448
 40
0.8654441706
 40
0.9310122254
 40
1.0
 40
1.0
 40
1.0
 40
1.0
 10
27.5034610724
 20
60.7634924584
 30
0.0
 10
27.517650695
 20
60.763293879
 30
0.0
 10
27.5450895066
 20
60.7629098814
 30
0.0
 10
27.5850287286
 20
60.7584858599
 30
0.0
 10
27.6222973087
 20
60.7510779384
 30
0.0
 10
27.6573095225
 20
60.7413154247
 30
0.0
 10
27.689575712
 20
60.7279982015
 30
0.0
 10
27.7197167404
 20
60.7127005561
 30
0.0
 10
27.7469201952
 20
60.6935999363
 30
0.0
 10
27.7715527101
 20
60.672088423
 30
0.0
 10
27.7933765689
 20
60.6479346624
 30
0.0
 10
27.8126225472
 20
60.6218727664
 30
0.0
 10
27.8287811281
 20
60.5934562034
 30
0.0
 10
27.8417216083
 20
60.5627900725
 30
0.0
 10
27.8522677772
 20
60.5301540872
 30
0.0
 10
27.8595322916
 20
60.4952397705
 30
0.0
 10
27.8639722398
 20
60.4581981242
 30
0.0
 10
27.8643688424
 20
60.4327765319
 30
0.0
 10
27.8645721835
 20
60.4197426924
 30
0.0
  0
SPLINE
  5
34E
100
AcDbEntity
  8
0
100
AcDbSpline
 62
7
  6
BYLAYER
 70
0
 71
3
 72
19
 73
15
 74
0
 42
0.0000001
 43
0.0000001
 44
0.0000000001
 40
0.0
 40
0.0
 40
0.0
 40
0.0
 40
0.1210519128
 40
0.2339593836
 40
0.3426071402
 40
0.4523625824
 40
0.5083538107
 40
0.5664652529
 40
0.6277170773
 40
0.6922192321
 40
0.7612265509
 40
0.8349463351
 40
0.9143645575
 40
1.0
 40
1.0
 40
1.0
 40
1.0
 10
27.5034610724
 20
61.6523807423
 30
0.0
 10
27.5249576844
 20
61.6514036477
 30
0.0
 10
27.566504604
 20
61.6495151978
 30
0.0
 10
27.6259574888
 20
61.6342941565
 30
0.0
 10
27.6786146615
 20
61.6073480957
 30
0.0
 10
27.7174921642
 20
61.577424087
 30
0.0
 10
27.7442918173
 20
61.5479435291
 30
0.0
 10
27.7617135269
 20
61.5220256085
 30
0.0
 10
27.7763284866
 20
61.4927878132
 30
0.0
 10
27.7887175789
 20
61.4604333251
 30
0.0
 10
27.7973663398
 20
61.4246303026
 30
0.0
 10
27.8046014733
 20
61.38585003
 30
0.0
 10
27.8082902077
 20
61.3435688689
 30
0.0
 10
27.8087684826
 20
61.3142789668
 30
0.0
 10
27.8090166279
 20
61.2990823717
 30
0.0
  0
SPLINE
  5
34F
100
AcDbEntity
  8
0
100
AcDbSpline
 62
7
  6
BYLAYER
 70
0
 71
3
 72
19
 73
15
 74
0
 42
0.0000001
 43
0.0000001
 44
0.0000000001
 40
0.0
 40
0.0
 40
0.0
 40
0.0
 40
0.0856354425
 40
0.1650536649
 40
0.2387734491
 40
0.3077807679
 40
0.3722829227
 40
0.4335347471
 40
0.4916461893
 40
0.5476374176
 40
0.6573928598
 40
0.7660406164
 40
0.8789480872
 40
1.0
 40
1.0
 40
1.0
 40
1.0
 10
27.1979055168
 20
61.2990823717
 30
0.0
 10
27.1981536621
 20
61.3142789668
 30
0.0
 10
27.1986319371
 20
61.3435688689
 30
0.0
 10
27.2023206715
 20
61.38585003
 30
0.0
 10
27.209555805
 20
61.4246303026
 30
0.0
 10
27.2182045658
 20
61.4604333251
 30
0.0
 10
27.2305936582
 20
61.4927878132
 30
0.0
 10
27.2452086179
 20
61.5220256085
 30
0.0
 10
27.2626303275
 20
61.5479435291
 30
0.0
 10
27.2894299806
 20
61.577424087
 30
0.0
 10
27.3283074833
 20
61.6073480957
 30
0.0
 10
27.3809646559
 20
61.6342941565
 30
0.0
 10
27.4404175408
 20
61.6495151978
 30
0.0
 10
27.4819644604
 20
61.6514036477
 30
0.0
 10
27.5034610724
 20
61.6523807423
 30
0.0
  0
SPLINE
  5
350
100
AcDbEntity
  8
0
100
AcDbSpline
 62
7
  6
BYLAYER
 70
0
 71
3
 72
19
 73
15
 74
0
 42
0.0000001
 43
0.0000001
 44
0.0000000001
 40
0.0
 40
0.0
 40
0.0
 40
0.0
 40
0.1145361879
 40
0.2238860142
 40
0.3331341788
 40
0.4450296643
 40
0.5021915516
 40
0.5616928799
 40
0.6232987122
 40
0.6879839637
 40
0.7573524194
 40
0.8328613508
 40
0.9132956877
 40
1.0
 40
1.0
 40
1.0
 40
1.0
 10
27.5034610724
 20
60.9579367705
 30
0.0
 10
27.4835468237
 20
60.9587937794
 30
0.0
 10
27.444620072
 20
60.9604689906
 30
0.0
 10
27.3882957502
 20
60.9754881375
 30
0.0
 10
27.3360380658
 20
60.9997003478
 30
0.0
 10
27.2960121132
 20
61.0273038435
 30
0.0
 10
27.2672917204
 20
61.0548895445
 30
0.0
 10
27.2489153962
 20
61.079917383
 30
0.0
 10
27.2324486501
 20
61.1077591668
 30
0.0
 10
27.2201480989
 20
61.1395442156
 30
0.0
 10
27.2101053893
 20
61.1745466308
 30
0.0
 10
27.2028808414
 20
61.2130439043
 30
0.0
 10
27.1984791536
 20
61.2549978933
 30
0.0
 10
27.1981014521
 20
61.2840245802
 30
0.0
 10
27.1979055168
 20
61.2990823717
 30
0.0
  0
SPLINE
  5
351
100
AcDbEntity
  8
0
100
AcDbSpline
 62
7
  6
BYLAYER
 70
0
 71
3
 72
19
 73
15
 74
0
 42
0.0000001
 43
0.0000001
 44
0.0000000001
 40
0.0
 40
0.0
 40
0.0
 40
0.0
 40
0.0867043123
 40
0.1671386492
 40
0.2426475806
 40
0.3120160363
 40
0.3767012878
 40
0.4383071201
 40
0.4978084484
 40
0.5549703357
 40
0.6668658212
 40
0.7761139858
 40
0.8854638121
 40
1.0
 40
1.0
 40
1.0
 40
1.0
 10
27.8090166279
 20
61.2990823717
 30
0.0
 10
27.8088206927
 20
61.2840245802
 30
0.0
 10
27.8084429912
 20
61.2549978933
 30
0.0
 10
27.8040413034
 20
61.2130439043
 30
0.0
 10
27.7968167555
 20
61.1745466308
 30
0.0
 10
27.7867740458
 20
61.1395442156
 30
0.0
 10
27.7744734946
 20
61.1077591668
 30
0.0
 10
27.7580067485
 20
61.079917383
 30
0.0
 10
27.7396304244
 20
61.0548895445
 30
0.0
 10
27.7109100316
 20
61.0273038435
 30
0.0
 10
27.670884079
 20
60.9997003478
 30
0.0
 10
27.6186263946
 20
60.9754881375
 30
0.0
 10
27.5623020728
 20
60.9604689906
 30
0.0
 10
27.523375321
 20
60.9587937794
 30
0.0
 10
27.5034610724
 20
60.9579367705
 30
0.0
  0
SPLINE
  5
352
100
AcDbEntity
  8
0
100
AcDbSpline
 62
7
  6
BYLAYER
 70
0
 71
3
 72
23
 73
19
 74
0
 42
0.0000001
 43
0.0000001
 44
0.0000000001
 40
0.0
 40
0.0
 40
0.0
 40
0.0
 40
0.0718490231
 40
0.1406419544
 40
0.2080655706
 40
0.2730217316
 40
0.336063062
 40
0.3986417304
 40
0.4601968893
 40
0.5218215421
 40
0.5821046408
 40
0.6414803256
 40
0.7004562978
 40
0.7585897403
 40
0.8169552225
 40
0.8761180633
 40
0.9374789547
 40
1.0
 40
1.0
 40
1.0
 40
1.0
 10
26.5867944057
 20
60.4097600603
 30
0.0
 10
26.5865883559
 20
60.4252506745
 30
0.0
 10
26.5861850207
 20
60.4555730111
 30
0.0
 10
26.5817114002
 20
60.5002566755
 30
0.0
 10
26.57431755
 20
60.5430029352
 30
0.0
 10
26.5645555387
 20
60.5840336279
 30
0.0
 10
26.5511681026
 20
60.6229107011
 30
0.0
 10
26.5358571292
 20
60.6602803047
 30
0.0
 10
26.5169624201
 20
60.6956551702
 30
0.0
 10
26.4953931207
 20
60.7288525442
 30
0.0
 10
26.4714329114
 20
60.7597640159
 30
0.0
 10
26.445446542
 20
60.7882679203
 30
0.0
 10
26.4166856975
 20
60.8132667923
 30
0.0
 10
26.3861580489
 20
60.8356733532
 30
0.0
 10
26.3534247518
 20
60.8548536239
 30
0.0
 10
26.3183256838
 20
60.8709155057
 30
0.0
 10
26.2812029367
 20
60.8844831751
 30
0.0
 10
26.2552661782
 20
60.890897522
 30
0.0
 10
26.2421763502
 20
60.8941347306
 30
0.0
  0
SPLINE
  5
353
100
AcDbEntity
  8
0
100
AcDbSpline
 62
7
  6
BYLAYER
 70
0
 71
3
 72
23
 73
19
 74
0
 42
0.0000001
 43
0.0000001
 44
0.0000000001
 40
0.0
 40
0.0
 40
0.0
 40
0.0
 40
0.0672509703
 40
0.1313941254
 40
0.1921526265
 40
0.2510282165
 40
0.3075006093
 40
0.3627764175
 40
0.4167672774
 40
0.4700727092
 40
0.5246179679
 40
0.58215495
 40
0.6420266671
 40
0.7063819456
 40
0.7733493655
 40
0.8448661069
 40
0.9203842871
 40
1.0
 40
1.0
 40
1.0
 40
1.0
 10
26.2421763502
 20
60.8941347306
 30
0.0
 10
26.2548584907
 20
60.8989759257
 30
0.0
 10
26.2796367023
 20
60.9084345936
 30
0.0
 10
26.3142760988
 20
60.9259926826
 30
0.0
 10
26.3461377598
 20
60.9449324681
 30
0.0
 10
26.3759779144
 20
60.9643570031
 30
0.0
 10
26.4018899652
 20
60.9871124237
 30
0.0
 10
26.4260548201
 20
61.0102538007
 30
0.0
 10
26.4470134102
 20
61.035597774
 30
0.0
 10
26.4649091543
 20
61.0629550734
 30
0.0
 10
26.480852467
 20
61.0923300343
 30
0.0
 10
26.4939274984
 20
61.1245075492
 30
0.0
 10
26.5059980452
 20
61.1591566867
 30
0.0
 10
26.5153612134
 20
61.1966336496
 30
0.0
 10
26.5221592402
 20
61.237012115
 30
0.0
 10
26.5272396257
 20
61.2798895435
 30
0.0
 10
26.531017025
 20
61.3254920295
 30
0.0
 10
26.5311636178
 20
61.3567997301
 30
0.0
 10
26.5312388502
 20
61.3728670437
 30
0.0
  0
SPLINE
  5
354
100
AcDbEntity
  8
0
100
AcDbSpline
 62
7
  6
BYLAYER
 70
0
 71
3
 72
23
 73
19
 74
0
 42
0.0000001
 43
0.0000001
 44
0.0000000001
 40
0.0
 40
0.0
 40
0.0
 40
0.0
 40
0.0629234404
 40
0.1236690136
 40
0.1827491779
 40
0.2412215249
 40
0.2991543923
 40
0.3573444359
 40
0.4164246002
 40
0.4767089598
 40
0.5376288787
 40
0.5980681368
 40
0.6591413424
 40
0.7213667393
 40
0.7861952625
 40
0.854163768
 40
0.9249345857
 40
1.0
 40
1.0
 40
1.0
 40
1.0
 10
26.5312388502
 20
61.3728670437
 30
0.0
 10
26.5308369235
 20
61.3901043231
 30
0.0
 10
26.5300469814
 20
61.4239822758
 30
0.0
 10
26.5233750068
 20
61.4736875359
 30
0.0
 10
26.5124889298
 20
61.5213423004
 30
0.0
 10
26.4973762293
 20
61.5670614439
 30
0.0
 10
26.4775065927
 20
61.6106187584
 30
0.0
 10
26.4542308081
 20
61.6526635771
 30
0.0
 10
26.4257159522
 20
61.6921780711
 30
0.0
 10
26.393228331
 20
61.7294217676
 30
0.0
 10
26.3571101627
 20
61.7637906668
 30
0.0
 10
26.3167252301
 20
61.7933939687
 30
0.0
 10
26.2731758277
 20
61.8188116765
 30
0.0
 10
26.225746591
 20
61.8391956558
 30
0.0
 10
26.1747516227
 20
61.8554050208
 30
0.0
 10
26.1200002907
 20
61.8662749598
 30
0.0
 10
26.0618187303
 20
61.8736007873
 30
0.0
 10
26.0218591104
 20
61.8742623111
 30
0.0
 10
26.0012909335
 20
61.8746028133
 30
0.0
  0
SPLINE
  5
355
100
AcDbEntity
  8
0
100
AcDbSpline
 62
7
  6
BYLAYER
 70
0
 71
3
 72
23
 73
19
 74
0
 42
0.0000001
 43
0.0000001
 44
0.0000000001
 40
0.0
 40
0.0
 40
0.0
 40
0.0
 40
0.0644422939
 40
0.1260999169
 40
0.1855727164
 40
0.2432493556
 40
0.3004088802
 40
0.3577836219
 40
0.4152422749
 40
0.4748392859
 40
0.535166911
 40
0.5964892575
 40
0.6585309309
 40
0.7217462087
 40
0.7876123956
 40
0.8554660883
 40
0.9261330086
 40
1.0
 40
1.0
 40
1.0
 40
1.0
 10
26.0012909335
 20
61.8746028133
 30
0.0
 10
25.9815858504
 20
61.8741323073
 30
0.0
 10
25.9430271775
 20
61.8732116268
 30
0.0
 10
25.8867758806
 20
61.8651362658
 30
0.0
 10
25.8334867445
 20
61.8524839661
 30
0.0
 10
25.7836785539
 20
61.8332708385
 30
0.0
 10
25.7363260106
 20
61.8100580789
 30
0.0
 10
25.6925474687
 20
61.7807101674
 30
0.0
 10
25.6515705116
 20
61.7464456059
 30
0.0
 10
25.6142631523
 20
61.7069785668
 30
0.0
 10
25.5797501048
 20
61.6635495031
 30
0.0
 10
25.5495515238
 20
61.6161182347
 30
0.0
 10
25.5229565196
 20
61.5656059822
 30
0.0
 10
25.5002948734
 20
61.5116963497
 30
0.0
 10
25.4812808108
 20
61.4545301787
 30
0.0
 10
25.4660894623
 20
61.393885106
 30
0.0
 10
25.4548031051
 20
61.3298984857
 30
0.0
 10
25.4502384014
 20
61.2859519089
 30
0.0
 10
25.4479055168
 20
61.2634921181
 30
0.0
  0
SPLINE
  5
356
100
AcDbEntity
  8
0
100
AcDbSpline
 62
7
  6
BYLAYER
 70
0
 71
3
 72
23
 73
19
 74
0
 42
0.0000001
 43
0.0000001
 44
0.0000000001
 40
0.0
 40
0.0
 40
0.0
 40
0.0
 40
0.0820028524
 40
0.159803815
 40
0.2335125501
 40
0.3029883843
 40
0.3689411916
 40
0.4316757439
 40
0.4916116809
 40
0.5492403301
 40
0.6049456997
 40
0.6594867512
 40
0.7130363192
 40
0.7673270152
 40
0.8218014177
 40
0.8787961854
 40
0.9376721276
 40
1.0
 40
1.0
 40
1.0
 40
1.0
 10
25.6979055168
 20
61.2634921181
 30
0.0
 10
25.6990155403
 20
61.2787039993
 30
0.0
 10
25.7011787088
 20
61.3083482932
 30
0.0
 10
25.7075370307
 20
61.3513176097
 30
0.0
 10
25.7148801148
 20
61.3917776424
 30
0.0
 10
25.7255768681
 20
61.4292176137
 30
0.0
 10
25.7377153405
 20
61.4640054106
 30
0.0
 10
25.7512651382
 20
61.4964290826
 30
0.0
 10
25.7681104245
 20
61.5254814689
 30
0.0
 10
25.7861478651
 20
61.5522187055
 30
0.0
 10
25.8066779472
 20
61.5758600228
 30
0.0
 10
25.8293871304
 20
61.5962144317
 30
0.0
 10
25.8538199638
 20
61.6141481376
 30
0.0
 10
25.8809717452
 20
61.6275084579
 30
0.0
 10
25.9094596776
 20
61.6394018244
 30
0.0
 10
25.9403386968
 20
61.6469586571
 30
0.0
 10
25.9732472706
 20
61.6512353798
 30
0.0
 10
25.9957800577
 20
61.651991774
 30
0.0
 10
26.0073673224
 20
61.6523807423
 30
0.0
  0
SPLINE
  5
357
100
AcDbEntity
  8
0
100
AcDbSpline
 62
7
  6
BYLAYER
 70
0
 71
3
 72
19
 73
15
 74
0
 42
0.0000001
 43
0.0000001
 44
0.0000000001
 40
0.0
 40
0.0
 40
0.0
 40
0.0
 40
0.0740461534
 40
0.1438666112
 40
0.209810105
 40
0.2717190661
 40
0.3307928627
 40
0.387184733
 40
0.4424769349
 40
0.4988065454
 40
0.611811747
 40
0.7299073533
 40
0.8583196946
 40
1.0
 40
1.0
 40
1.0
 40
1.0
 10
26.0073673224
 20
61.6523807423
 30
0.0
 10
26.0188105223
 20
61.6521580942
 30
0.0
 10
26.0410438772
 20
61.6517255042
 30
0.0
 10
26.0732402855
 20
61.6476035056
 30
0.0
 10
26.1032347767
 20
61.6417660561
 30
0.0
 10
26.1309089735
 20
61.6332183782
 30
0.0
 10
26.1556938652
 20
61.6213379397
 30
0.0
 10
26.1780637677
 20
61.6072928454
 30
0.0
 10
26.1984952106
 20
61.5911454099
 30
0.0
 10
26.2220095386
 20
61.5654868974
 30
0.0
 10
26.2463308382
 20
61.5279122265
 30
0.0
 10
26.2666435502
 20
61.4759514863
 30
0.0
 10
26.2795548285
 20
61.4170404987
 30
0.0
 10
26.2806594223
 20
61.3752549256
 30
0.0
 10
26.2812388502
 20
61.353335807
 30
0.0
  0
SPLINE
  5
358
100
AcDbEntity
  8
0
100
AcDbSpline
 62
7
  6
BYLAYER
 70
0
 71
3
 72
23
 73
19
 74
0
 42
0.0000001
 43
0.0000001
 44
0.0000000001
 40
0.0
 40
0.0
 40
0.0
 40
0.0
 40
0.0747109629
 40
0.1453770655
 40
0.2121789203
 40
0.2743378873
 40
0.3338940855
 40
0.3911934027
 40
0.4462260777
 40
0.4997527512
 40
0.5536337612
 40
0.6082754353
 40
0.6646077054
 40
0.7237484323
 40
0.7861011286
 40
0.8531592676
 40
0.9238253702
 40
1.0
 40
1.0
 40
1.0
 40
1.0
 10
26.2812388502
 20
61.353335807
 30
0.0
 10
26.2810611891
 20
61.3385635992
 30
0.0
 10
26.2807154855
 20
61.3098189527
 30
0.0
 10
26.2759606997
 20
61.268119138
 30
0.0
 10
26.269961591
 20
61.2290987095
 30
0.0
 10
26.2602867193
 20
61.1930382828
 30
0.0
 10
26.2476275136
 20
61.1599528753
 30
0.0
 10
26.2325430432
 20
61.1294518586
 30
0.0
 10
26.2146711602
 20
61.1018819265
 30
0.0
 10
26.1939981263
 20
61.0772226752
 30
0.0
 10
26.1704711401
 20
61.0553679882
 30
0.0
 10
26.1437400906
 20
61.0365637368
 30
0.0
 10
26.1138661999
 20
61.0209989394
 30
0.0
 10
26.0812065781
 20
61.0078534385
 30
0.0
 10
26.0451988912
 20
60.9980222972
 30
0.0
 10
26.0063129424
 20
60.9907050675
 30
0.0
 10
25.9642108198
 20
60.9862880639
 30
0.0
 10
25.9351850531
 20
60.9859104297
 30
0.0
 10
25.920127739
 20
60.9857145294
 30
0.0
  0
SPLINE
  5
359
100
AcDbEntity
  8
0
100
AcDbSpline
 62
7
  6
BYLAYER
 70
0
 71
3
 72
23
 73
19
 74
0
 42
0.0000001
 43
0.0000001
 44
0.0000000001
 40
0.0
 40
0.0
 40
0.0
 40
0.0
 40
0.0886637493
 40
0.1707808273
 40
0.2459046074
 40
0.3159008748
 40
0.3800105182
 40
0.4402471818
 40
0.4959004782
 40
0.5494261047
 40
0.6015257932
 40
0.6539372018
 40
0.7061997589
 40
0.7604308246
 40
0.8163084876
 40
0.8745242649
 40
0.9360636611
 40
1.0
 40
1.0
 40
1.0
 40
1.0
 10
25.920127739
 20
60.7912702173
 30
0.0
 10
25.938804255
 20
60.7911252764
 30
0.0
 10
25.9747782678
 20
60.7908460966
 30
0.0
 10
26.0263631834
 20
60.7858111048
 30
0.0
 10
26.0736951966
 20
60.7786462712
 30
0.0
 10
26.1166221706
 20
60.7684486224
 30
0.0
 10
26.1553270148
 20
60.754917778
 30
0.0
 10
26.1895768714
 20
60.7385502486
 30
0.0
 10
26.2198866986
 20
60.7194512114
 30
0.0
 10
26.2449860656
 20
60.6963931562
 30
0.0
 10
26.2670903187
 20
60.6714382019
 30
0.0
 10
26.28560857
 20
60.6440097358
 30
0.0
 10
26.3014657395
 20
60.6144958557
 30
0.0
 10
26.3145085147
 20
60.5828160231
 30
0.0
 10
26.3243408844
 20
60.5487126474
 30
0.0
 10
26.3318357598
 20
60.5124644561
 30
0.0
 10
26.3361572323
 20
60.4739571785
 30
0.0
 10
26.3365793269
 20
60.4475310636
 30
0.0
 10
26.3367944057
 20
60.4340655993
 30
0.0
  0
SPLINE
  5
35A
100
AcDbEntity
  8
0
100
AcDbSpline
 62
7
  6
BYLAYER
 70
0
 71
3
 72
23
 73
19
 74
0
 42
0.0000001
 43
0.0000001
 44
0.0000000001
 40
0.0
 40
0.0
 40
0.0
 40
0.0
 40
0.0824284138
 40
0.1593406628
 40
0.2310286571
 40
0.2978806502
 40
0.3613041155
 40
0.4216559932
 40
0.4783133211
 40
0.5337755326
 40
0.5874100199
 40
0.6415182844
 40
0.6960572293
 40
0.7518825673
 40
0.8093043097
 40
0.8696561874
 40
0.9328781212
 40
1.0
 40
1.0
 40
1.0
 40
1.0
 10
26.3367944057
 20
60.4340655993
 30
0.0
 10
26.3366041684
 20
60.4177059924
 30
0.0
 10
26.3362364245
 20
60.3860815745
 30
0.0
 10
26.3317406652
 20
60.3404118747
 30
0.0
 10
26.324912471
 20
60.2981918595
 30
0.0
 10
26.3155085676
 20
60.2591745005
 30
0.0
 10
26.3027987037
 20
60.2234938205
 30
0.0
 10
26.287871938
 20
60.1908836214
 30
0.0
 10
26.2698080141
 20
60.1617084959
 30
0.0
 10
26.2489927018
 20
60.1361245961
 30
0.0
 10
26.2255429342
 20
60.1137140091
 30
0.0
 10
26.2000271183
 20
60.0939117684
 30
0.0
 10
26.1714006455
 20
60.0780645668
 30
0.0
 10
26.1409852411
 20
60.0644416909
 30
0.0
 10
26.1080856854
 20
60.0539484618
 30
0.0
 10
26.0728456948
 20
60.0468871297
 30
0.0
 10
26.0352968537
 20
60.0416988926
 30
0.0
 10
26.0094121783
 20
60.0414162681
 30
0.0
 10
25.9960826002
 20
60.0412707278
 30
0.0
  0
SPLINE
  5
35B
100
AcDbEntity
  8
0
100
AcDbSpline
 62
7
  6
BYLAYER
 70
0
 71
3
 72
23
 73
19
 74
0
 42
0.0000001
 43
0.0000001
 44
0.0000000001
 40
0.0
 40
0.0
 40
0.0
 40
0.0
 40
0.063937484
 40
0.1247407608
 40
0.18370865
 40
0.239918294
 40
0.2943458157
 40
0.3481721559
 40
0.4017741253
 40
0.4558149851
 40
0.5110208047
 40
0.568426984
 40
0.6292936554
 40
0.693189657
 40
0.761895444
 40
0.8357480294
 40
0.9152677555
 40
1.0
 40
1.0
 40
1.0
 40
1.0
 10
25.9960826002
 20
60.0412707278
 30
0.0
 10
25.9827625003
 20
60.0416662373
 30
0.0
 10
25.9567752501
 20
60.0424378685
 30
0.0
 10
25.9186699514
 20
60.0466550355
 30
0.0
 10
25.8827512493
 20
60.0544002445
 30
0.0
 10
25.8491397464
 20
60.0654488965
 30
0.0
 10
25.8174721239
 20
60.0787271286
 30
0.0
 10
25.7883224553
 20
60.0958729124
 30
0.0
 10
25.7612497609
 20
60.1159445831
 30
0.0
 10
25.7362901391
 20
60.1390397258
 30
0.0
 10
25.7138603167
 20
60.1657068353
 30
0.0
 10
25.6948458748
 20
60.1965550071
 30
0.0
 10
25.6782146575
 20
60.2307717846
 30
0.0
 10
25.6654454943
 20
60.2690911338
 30
0.0
 10
25.6548939676
 20
60.3108449764
 30
0.0
 10
25.6478886414
 20
60.3566282242
 30
0.0
 10
25.6427810676
 20
60.4060283337
 30
0.0
 10
25.6424966718
 20
60.440271946
 30
0.0
 10
25.6423499613
 20
60.4579371108
 30
0.0
  0
SPLINE
  5
35C
100
AcDbEntity
  8
0
100
AcDbSpline
 62
7
  6
BYLAYER
 70
0
 71
3
 72
23
 73
19
 74
0
 42
0.0000001
 43
0.0000001
 44
0.0000000001
 40
0.0
 40
0.0
 40
0.0
 40
0.0
 40
0.0791958136
 40
0.1535184919
 40
0.2235010727
 40
0.2896398594
 40
0.3525784699
 40
0.4130627687
 40
0.4715784584
 40
0.5300418347
 40
0.5877695035
 40
0.6444136791
 40
0.7011624172
 40
0.7581817851
 40
0.8158613993
 40
0.8752979887
 40
0.9365364065
 40
1.0
 40
1.0
 40
1.0
 40
1.0
 10
25.3923499613
 20
60.4579371108
 30
0.0
 10
25.3928280653
 20
60.4317321219
 30
0.0
 10
25.3937548544
 20
60.3809346088
 30
0.0
 10
25.4015039467
 20
60.3072869732
 30
0.0
 10
25.4149148285
 20
60.2388800859
 30
0.0
 10
25.4334742663
 20
60.1755820503
 30
0.0
 10
25.4573684327
 20
60.1174676288
 30
0.0
 10
25.4864149548
 20
60.0645831844
 30
0.0
 10
25.5211362689
 20
60.0170244815
 30
0.0
 10
25.5611541222
 20
59.9751153951
 30
0.0
 10
25.6050451448
 20
59.938318355
 30
0.0
 10
25.6518561273
 20
59.9063061138
 30
0.0
 10
25.7015151697
 20
59.8794284249
 30
0.0
 10
25.7537500132
 20
59.8570839685
 30
0.0
 10
25.8089308436
 20
59.8401707563
 30
0.0
 10
25.8667577849
 20
59.8281383672
 30
0.0
 10
25.9273073467
 20
59.8205676963
 30
0.0
 10
25.9685717977
 20
59.8195609911
 30
0.0
 10
25.9895721835
 20
59.8190486568
 30
0.0
  0
SPLINE
  5
35D
100
AcDbEntity
  8
0
100
AcDbSpline
 62
7
  6
BYLAYER
 70
0
 71
3
 72
23
 73
19
 74
0
 42
0.0000001
 43
0.0000001
 44
0.0000000001
 40
0.0
 40
0.0
 40
0.0
 40
0.0
 40
0.0666568342
 40
0.1309765306
 40
0.1934999755
 40
0.2542191988
 40
0.3141075591
 40
0.3739324784
 40
0.4339492773
 40
0.4948783412
 40
0.5559509286
 40
0.6159378417
 40
0.6758825377
 40
0.73693094
 40
0.798951296
 40
0.8630195854
 40
0.9301306237
 40
1.0
 40
1.0
 40
1.0
 40
1.0
 10
25.9895721835
 20
59.8190486568
 30
0.0
 10
26.0105708163
 20
59.8195710239
 30
0.0
 10
26.051831823
 20
59.8205974427
 30
0.0
 10
26.1124364224
 20
59.8280293225
 30
0.0
 10
26.1702443233
 20
59.8405984704
 30
0.0
 10
26.2253087405
 20
59.8580593329
 30
0.0
 10
26.2777361082
 20
59.8802247462
 30
0.0
 10
26.3274281506
 20
59.9075952626
 30
0.0
 10
26.3739980655
 20
59.9405252294
 30
0.0
 10
26.4177705504
 20
59.9776632107
 30
0.0
 10
26.457669303
 20
60.0189985097
 30
0.0
 10
26.4921399625
 20
60.0645649947
 30
0.0
 10
26.5215410167
 20
60.1135431444
 30
0.0
 10
26.5452730626
 20
60.1662073794
 30
0.0
 10
26.564056428
 20
60.222177539
 30
0.0
 10
26.5775712658
 20
60.2816147079
 30
0.0
 10
26.5853341999
 20
60.3445927955
 30
0.0
 10
26.5863011798
 20
60.3877479706
 30
0.0
 10
26.5867944057
 20
60.4097600603
 30
0.0
  0
SPLINE
  5
35E
100
AcDbEntity
  8
0
100
AcDbSpline
 62
7
  6
BYLAYER
 70
0
 71
3
 72
15
 73
11
 74
0
 42
0.0000001
 43
0.0000001
 44
0.0000000001
 40
0.0
 40
0.0
 40
0.0
 40
0.0
 40
0.1206251296
 40
0.2386264757
 40
0.3570276303
 40
0.4796143396
 40
0.6048206068
 40
0.7315000097
 40
0.862480373
 40
1.0
 40
1.0
 40
1.0
 40
1.0
 10
28.1145721835
 20
60.4123642252
 30
0.0
 10
28.1133575218
 20
60.4370575991
 30
0.0
 10
28.1109546192
 20
60.4859072276
 30
0.0
 10
28.0931171359
 20
60.5572650275
 30
0.0
 10
28.0629772541
 20
60.6246036475
 30
0.0
 10
28.0214814568
 20
60.68730739
 30
0.0
 10
27.9704637799
 20
60.7449000109
 30
0.0
 10
27.9091266205
 20
60.7940620678
 30
0.0
 10
27.8396454326
 20
60.836102929
 30
0.0
 10
27.788392316
 20
60.8561098691
 30
0.0
 10
27.7621416279
 20
60.8663569717
 30
0.0
  0
SPLINE
  5
35F
100
AcDbEntity
  8
0
100
AcDbSpline
 62
7
  6
BYLAYER
 70
0
 71
3
 72
15
 73
11
 74
0
 42
0.0000001
 43
0.0000001
 44
0.0000000001
 40
0.0
 40
0.0
 40
0.0
 40
0.0
 40
0.1318868497
 40
0.2563758254
 40
0.3757676006
 40
0.4920780669
 40
0.609512914
 40
0.7307139433
 40
0.8603463425
 40
1.0
 40
1.0
 40
1.0
 40
1.0
 10
27.7621416279
 20
60.8663569717
 30
0.0
 10
27.7848792782
 20
60.8766096401
 30
0.0
 10
27.8290791653
 20
60.8965398781
 30
0.0
 10
27.8886638158
 20
60.9356878466
 30
0.0
 10
27.939949573
 20
60.9806871937
 30
0.0
 10
27.9834378591
 20
61.0316381442
 30
0.0
 10
28.017706019
 20
61.0896796442
 30
0.0
 10
28.04224516
 20
61.155107989
 30
0.0
 10
28.0565033146
 20
61.2278654673
 30
0.0
 10
28.0581583269
 20
61.2787629574
 30
0.0
 10
28.0590166279
 20
61.3051587564
 30
0.0
  0
SPLINE
  5
360
100
AcDbEntity
  8
0
100
AcDbSpline
 62
7
  6
BYLAYER
 70
0
 71
3
 72
23
 73
19
 74
0
 42
0.0000001
 43
0.0000001
 44
0.0000000001
 40
0.0
 40
0.0
 40
0.0
 40
0.0
 40
0.0712566401
 40
0.1396056263
 40
0.2051411776
 40
0.2688291445
 40
0.3307834195
 40
0.3925050395
 40
0.4540511081
 40
0.5171614454
 40
0.5794162992
 40
0.6405825459
 40
0.700221265
 40
0.7591439445
 40
0.8178988996
 40
0.8775136899
 40
0.9379996823
 40
1.0
 40
1.0
 40
1.0
 40
1.0
 10
28.0590166279
 20
61.3051587564
 30
0.0
 10
28.0585322761
 20
61.3263045869
 30
0.0
 10
28.0575833365
 20
61.3677333844
 30
0.0
 10
28.0496962781
 20
61.4282183598
 30
0.0
 10
28.0365050189
 20
61.4853885482
 30
0.0
 10
28.0191244723
 20
61.5395062628
 30
0.0
 10
27.9952256219
 20
61.5898547204
 30
0.0
 10
27.9665303461
 20
61.6368197293
 30
0.0
 10
27.9328163547
 20
61.6808061022
 30
0.0
 10
27.8939694307
 20
61.7205359959
 30
0.0
 10
27.8518336395
 20
61.756493287
 30
0.0
 10
27.8077397685
 20
61.7883429392
 30
0.0
 10
27.7613997999
 20
61.8149040978
 30
0.0
 10
27.713461293
 20
61.8367531946
 30
0.0
 10
27.6636095533
 20
61.8537949936
 30
0.0
 10
27.6118831585
 20
61.866013993
 30
0.0
 10
27.5581898661
 20
61.8729145628
 30
0.0
 10
27.5218537474
 20
61.8740354439
 30
0.0
 10
27.5034610724
 20
61.8746028133
 30
0.0
  0
SPLINE
  5
361
100
AcDbEntity
  8
0
100
AcDbSpline
 62
7
  6
BYLAYER
 70
0
 71
3
 72
23
 73
19
 74
0
 42
0.0000001
 43
0.0000001
 44
0.0000000001
 40
0.0
 40
0.0
 40
0.0
 40
0.0
 40
0.0619924191
 40
0.1224707058
 40
0.1820779013
 40
0.2408253713
 40
0.3001847686
 40
0.35981589
 40
0.4205785051
 40
0.4831967022
 40
0.5459609001
 40
0.6077978075
 40
0.6692587212
 40
0.7312051034
 40
0.7948849567
 40
0.8604121589
 40
0.9287524377
 40
1.0
 40
1.0
 40
1.0
 40
1.0
 10
27.5034610724
 20
61.8746028133
 30
0.0
 10
27.4850682514
 20
61.8740358009
 30
0.0
 10
27.4487318444
 20
61.8729156252
 30
0.0
 10
27.3950406639
 20
61.8660098887
 30
0.0
 10
27.3433064341
 20
61.8538100576
 30
0.0
 10
27.2933586574
 20
61.8366548796
 30
0.0
 10
27.2451985449
 20
61.81499893
 30
0.0
 10
27.1987772701
 20
61.7884898286
 30
0.0
 10
27.1550596589
 20
61.756175106
 30
0.0
 10
27.1124716261
 20
61.7208846635
 30
0.0
 10
27.0742180395
 20
61.6804616349
 30
0.0
 10
27.0398088322
 20
61.6371284762
 30
0.0
 10
27.011811718
 20
61.5896899839
 30
0.0
 10
26.9877568392
 20
61.5395330651
 30
0.0
 10
26.9704285314
 20
61.4853810617
 30
0.0
 10
26.9572226451
 20
61.4282204744
 30
0.0
 10
26.9493396684
 20
61.3677328198
 30
0.0
 10
26.9483901594
 20
61.3263043961
 30
0.0
 10
26.9479055168
 20
61.3051587564
 30
0.0
  0
SPLINE
  5
362
100
AcDbEntity
  8
0
100
AcDbSpline
 62
7
  6
BYLAYER
 70
0
 71
3
 72
15
 73
11
 74
0
 42
0.0000001
 43
0.0000001
 44
0.0000000001
 40
0.0
 40
0.0
 40
0.0
 40
0.0
 40
0.1396790287
 40
0.2694865212
 40
0.3904405857
 40
0.5078967675
 40
0.6242283643
 40
0.7442178984
 40
0.8680891901
 40
1.0
 40
1.0
 40
1.0
 40
1.0
 10
26.9479055168
 20
61.3051587564
 30
0.0
 10
26.9486970233
 20
61.2787468453
 30
0.0
 10
26.9502240981
 20
61.2277896322
 30
0.0
 10
26.9653785943
 20
61.1552702605
 30
0.0
 10
26.9890658877
 20
61.0895709741
 30
0.0
 10
27.0235486352
 20
61.0316770077
 30
0.0
 10
27.0669573914
 20
60.9805112711
 30
0.0
 10
27.1186295778
 20
60.935978175
 30
0.0
 10
27.1778814839
 20
60.8963888331
 30
0.0
 10
27.2220184148
 20
60.8765751806
 30
0.0
 10
27.2447805168
 20
60.8663569717
 30
0.0
  0
SPLINE
  5
363
100
AcDbEntity
  8
0
100
AcDbSpline
 62
7
  6
BYLAYER
 70
0
 71
3
 72
15
 73
11
 74
0
 42
0.0000001
 43
0.0000001
 44
0.0000000001
 40
0.0
 40
0.0
 40
0.0
 40
0.0
 40
0.1375077611
 40
0.2684768226
 40
0.3951452949
 40
0.5208131245
 40
0.643003176
 40
0.7613941143
 40
0.8793852786
 40
1.0
 40
1.0
 40
1.0
 40
1.0
 10
27.2447805168
 20
60.8663569717
 30
0.0
 10
27.2185329768
 20
60.8561072329
 30
0.0
 10
27.1672860066
 20
60.8360951456
 30
0.0
 10
27.0977608776
 20
60.7940910815
 30
0.0
 10
27.0365076352
 20
60.7447347141
 30
0.0
 10
26.9849125412
 20
60.687598777
 30
0.0
 10
26.9440372445
 20
60.624444482
 30
0.0
 10
26.9137723292
 20
60.5572877459
 30
0.0
 10
26.8959758959
 20
60.4859014087
 30
0.0
 10
26.8935674334
 20
60.4370556452
 30
0.0
 10
26.8923499613
 20
60.4123642252
 30
0.0
  0
SPLINE
  5
364
100
AcDbEntity
  8
0
100
AcDbSpline
 62
7
  6
BYLAYER
 70
0
 71
3
 72
23
 73
19
 74
0
 42
0.0000001
 43
0.0000001
 44
0.0000000001
 40
0.0
 40
0.0
 40
0.0
 40
0.0
 40
0.0726342749
 40
0.1416590888
 40
0.2065957967
 40
0.2690874793
 40
0.3286852018
 40
0.3867058408
 40
0.4443254646
 40
0.5016779374
 40
0.5592749103
 40
0.616564343
 40
0.6750793846
 40
0.7352353372
 40
0.7972108973
 40
0.8615341386
 40
0.9291722634
 40
1.0
 40
1.0
 40
1.0
 40
1.0
 10
26.8923499613
 20
60.4123642252
 30
0.0
 10
26.892812358
 20
60.3889014726
 30
0.0
 10
26.8937141734
 20
60.3431419168
 30
0.0
 10
26.9017803315
 20
60.2768266397
 30
0.0
 10
26.9140168289
 20
60.2144915876
 30
0.0
 10
26.932359647
 20
60.1568313938
 30
0.0
 10
26.9553122014
 20
60.1032675976
 30
0.0
 10
26.9838697564
 20
60.0542751241
 30
0.0
 10
27.0171884606
 20
60.0092534644
 30
0.0
 10
27.05627076
 20
59.9693428939
 30
0.0
 10
27.0990769643
 20
59.9336665859
 30
0.0
 10
27.1461465457
 20
59.9031365664
 30
0.0
 10
27.1966571515
 20
59.8769098321
 30
0.0
 10
27.251125732
 20
59.8557571303
 30
0.0
 10
27.3091064667
 20
59.8392030465
 30
0.0
 10
27.3707286927
 20
59.8277528378
 30
0.0
 10
27.4358434529
 20
59.819975705
 30
0.0
 10
27.4805783708
 20
59.8193623822
 30
0.0
 10
27.5034610724
 20
59.8190486568
 30
0.0
  0
SPLINE
  5
365
100
AcDbEntity
  8
0
100
AcDbSpline
 62
7
  6
BYLAYER
 70
0
 71
3
 72
23
 73
19
 74
0
 42
0.0000001
 43
0.0000001
 44
0.0000000001
 40
0.0
 40
0.0
 40
0.0
 40
0.0
 40
0.0708277366
 40
0.1384658614
 40
0.2027891027
 40
0.2647646628
 40
0.3249206154
 40
0.383435657
 40
0.4407250897
 40
0.4983220626
 40
0.5556745354
 40
0.6132941592
 40
0.6713147982
 40
0.7309125207
 40
0.7934042033
 40
0.8583409112
 40
0.9273657251
 40
1.0
 40
1.0
 40
1.0
 40
1.0
 10
27.5034610724
 20
59.8190486568
 30
0.0
 10
27.5263437739
 20
59.8193623822
 30
0.0
 10
27.5710786919
 20
59.819975705
 30
0.0
 10
27.636193452
 20
59.8277528378
 30
0.0
 10
27.697815678
 20
59.8392030465
 30
0.0
 10
27.7557964128
 20
59.8557571303
 30
0.0
 10
27.8102649933
 20
59.8769098321
 30
0.0
 10
27.8607755991
 20
59.9031365664
 30
0.0
 10
27.9078451804
 20
59.9336665859
 30
0.0
 10
27.9506513848
 20
59.9693428939
 30
0.0
 10
27.9897336842
 20
60.0092534644
 30
0.0
 10
28.0230523884
 20
60.0542751241
 30
0.0
 10
28.0516099433
 20
60.1032675976
 30
0.0
 10
28.0745624977
 20
60.1568313938
 30
0.0
 10
28.0929053159
 20
60.2144915876
 30
0.0
 10
28.1051418132
 20
60.2768266397
 30
0.0
 10
28.1132079714
 20
60.3431419168
 30
0.0
 10
28.1141097867
 20
60.3889014726
 30
0.0
 10
28.1145721835
 20
60.4123642252
 30
0.0
  0
SPLINE
  5
366
100
AcDbEntity
  8
0
100
AcDbSpline
 62
7
  6
BYLAYER
 70
0
 71
3
 72
23
 73
19
 74
0
 42
0.0000001
 43
0.0000001
 44
0.0000000001
 40
0.0
 40
0.0
 40
0.0
 40
0.0
 40
0.071232734
 40
0.1400489135
 40
0.2068361526
 40
0.2726909016
 40
0.3382751988
 40
0.402569728
 40
0.4673170943
 40
0.533349071
 40
0.597685243
 40
0.6588792544
 40
0.7176375069
 40
0.7740059464
 40
0.8299102974
 40
0.8859885889
 40
0.941975629
 40
1.0
 40
1.0
 40
1.0
 40
1.0
 10
22.6944561436
 20
18.7300691764
 30
0.0
 10
22.694162126
 20
18.7423395817
 30
0.0
 10
22.6935840655
 20
18.7664641217
 30
0.0
 10
22.6895319362
 20
18.8019085013
 30
0.0
 10
22.6830198616
 20
18.836018084
 30
0.0
 10
22.6740621643
 20
18.8690076544
 30
0.0
 10
22.6622079402
 20
18.9006250868
 30
0.0
 10
22.6475635812
 20
18.9308214883
 30
0.0
 10
22.6305892613
 20
18.9598616244
 30
0.0
 10
22.6110086754
 20
18.9872384304
 30
0.0
 10
22.5895121171
 20
19.0123076143
 30
0.0
 10
22.5668621808
 20
19.0346480866
 30
0.0
 10
22.5425253535
 20
19.0529317278
 30
0.0
 10
22.5174164765
 20
19.0684197213
 30
0.0
 10
22.490939963
 20
19.0805003791
 30
0.0
 10
22.4630962189
 20
19.0885868219
 30
0.0
 10
22.4342019852
 20
19.0939316839
 30
0.0
 10
22.4145525686
 20
19.094621799
 30
0.0
 10
22.4045522974
 20
19.0949730225
 30
0.0
  0
SPLINE
  5
367
100
AcDbEntity
  8
0
100
AcDbSpline
 62
7
  6
BYLAYER
 70
0
 71
3
 72
19
 73
15
 74
0
 42
0.0000001
 43
0.0000001
 44
0.0000000001
 40
0.0
 40
0.0
 40
0.0
 40
0.0
 40
0.1058696462
 40
0.2039674403
 40
0.2939742082
 40
0.375916533
 40
0.4506307026
 40
0.5168571884
 40
0.5756638964
 40
0.6266459289
 40
0.7203855386
 40
0.8132169432
 40
0.9056723258
 40
1.0
 40
1.0
 40
1.0
 40
1.0
 10
22.4373647974
 20
18.1783864841
 30
0.0
 10
22.4501328292
 20
18.1961551293
 30
0.0
 10
22.4747315963
 20
18.2303880299
 30
0.0
 10
22.509741599
 20
18.2800452605
 30
0.0
 10
22.5411458145
 20
18.3261860464
 30
0.0
 10
22.5690373421
 20
18.3688622051
 30
0.0
 10
22.5934175691
 20
18.4079473345
 30
0.0
 10
22.6146102445
 20
18.4433815627
 30
0.0
 10
22.6319390152
 20
18.4753837525
 30
0.0
 10
22.6502160791
 20
18.5132785032
 30
0.0
 10
22.6684063097
 20
18.5589929111
 30
0.0
 10
22.6834747938
 20
18.6147536784
 30
0.0
 10
22.6929358693
 20
18.6719324369
 30
0.0
 10
22.6939460103
 20
18.7105611932
 30
0.0
 10
22.6944561436
 20
18.7300691764
 30
0.0
  0
SPLINE
  5
368
100
AcDbEntity
  8
0
100
AcDbSpline
 62
7
  6
BYLAYER
 70
0
 71
3
 72
19
 73
15
 74
0
 42
0.0000001
 43
0.0000001
 44
0.0000000001
 40
0.0
 40
0.0
 40
0.0
 40
0.0
 40
0.1051079423
 40
0.2080472272
 40
0.3095348865
 40
0.4102650949
 40
0.4635646173
 40
0.5224235182
 40
0.5873724282
 40
0.6580285421
 40
0.7347065208
 40
0.8169237508
 40
0.9056721344
 40
1.0
 40
1.0
 40
1.0
 40
1.0
 10
22.832917682
 20
18.7405259072
 30
0.0
 10
22.8321611913
 20
18.7153776043
 30
0.0
 10
22.8306638183
 20
18.6655998751
 30
0.0
 10
22.8206466199
 20
18.5920316151
 30
0.0
 10
22.8026240725
 20
18.5211617014
 30
0.0
 10
22.7823568279
 20
18.4633720485
 30
0.0
 10
22.7615737836
 20
18.4168437512
 30
0.0
 10
22.7426582472
 20
18.3789142724
 30
0.0
 10
22.7206752365
 20
18.3379004291
 30
0.0
 10
22.6954388485
 20
18.2938085903
 30
0.0
 10
22.6664133813
 20
18.247173741
 30
0.0
 10
22.6346887131
 20
18.1971265574
 30
0.0
 10
22.599335086
 20
18.144400353
 30
0.0
 10
22.5745394785
 20
18.1082899948
 30
0.0
 10
22.5617638359
 20
18.0896845611
 30
0.0
  0
SPLINE
  5
369
100
AcDbEntity
  8
0
100
AcDbSpline
 62
7
  6
BYLAYER
 70
0
 71
3
 72
23
 73
19
 74
0
 42
0.0000001
 43
0.0000001
 44
0.0000000001
 40
0.0
 40
0.0
 40
0.0
 40
0.0
 40
0.0606744397
 40
0.1188012934
 40
0.1756972325
 40
0.2320690474
 40
0.2892164269
 40
0.3471695885
 40
0.4077479542
 40
0.4710232123
 40
0.5358721132
 40
0.5998655512
 40
0.6640704343
 40
0.7288934209
 40
0.7944449716
 40
0.8609111643
 40
0.9294368431
 40
1.0
 40
1.0
 40
1.0
 40
1.0
 10
22.411042682
 20
19.2795884072
 30
0.0
 10
22.4264592343
 20
19.2791267633
 30
0.0
 10
22.4566450318
 20
19.2782228589
 30
0.0
 10
22.5007440797
 20
19.2704274507
 30
0.0
 10
22.5424404583
 20
19.2576848964
 30
0.0
 10
22.5822570853
 20
19.2404007204
 30
0.0
 10
22.6193785907
 20
19.2174044354
 30
0.0
 10
22.6545058996
 20
19.1897298177
 30
0.0
 10
22.686812252
 20
19.1566036228
 30
0.0
 10
22.7169639024
 20
19.1192701411
 30
0.0
 10
22.7438390435
 20
19.0784956694
 30
0.0
 10
22.7680992677
 20
19.0358193344
 30
0.0
 10
22.787643004
 20
18.9908027415
 30
0.0
 10
22.8045672454
 20
18.9443228156
 30
0.0
 10
22.8168455388
 20
18.8958065435
 30
0.0
 10
22.8265369524
 20
18.8457774224
 30
0.0
 10
22.8318773134
 20
18.7937678783
 30
0.0
 10
22.8325675223
 20
18.7584457061
 30
0.0
 10
22.832917682
 20
18.7405259072
 30
0.0
  0
SPLINE
  5
36A
100
AcDbEntity
  8
0
100
AcDbSpline
 62
7
  6
BYLAYER
 70
0
 71
3
 72
23
 73
19
 74
0
 42
0.0000001
 43
0.0000001
 44
0.0000000001
 40
0.0
 40
0.0
 40
0.0
 40
0.0
 40
0.0769336855
 40
0.150822027
 40
0.2215958892
 40
0.2903871577
 40
0.3568810608
 40
0.4223640848
 40
0.4865596781
 40
0.5501428153
 40
0.6123213801
 40
0.671237872
 40
0.7275343854
 40
0.7821696894
 40
0.8360788592
 40
0.8898721157
 40
0.9442338996
 40
1.0
 40
1.0
 40
1.0
 40
1.0
 10
21.9559946051
 20
18.6795884072
 30
0.0
 10
21.9567814657
 20
18.7010019131
 30
0.0
 10
21.9583240399
 20
18.7429812926
 30
0.0
 10
21.965585588
 20
18.804333147
 30
0.0
 10
21.9768997074
 20
18.8627165583
 30
0.0
 10
21.9914070019
 20
18.9182921798
 30
0.0
 10
22.0103867341
 20
18.9709434374
 30
0.0
 10
22.0329172043
 20
19.0207851716
 30
0.0
 10
22.0598718015
 20
19.0674437616
 30
0.0
 10
22.0899270565
 20
19.111048604
 30
0.0
 10
22.1231746864
 20
19.1503818067
 30
0.0
 10
22.1585668543
 20
19.1849699261
 30
0.0
 10
22.1960112535
 20
19.2140051236
 30
0.0
 10
22.235135717
 20
19.2382246918
 30
0.0
 10
22.2765835607
 20
19.2565837836
 30
0.0
 10
22.3197328138
 20
19.2700677076
 30
0.0
 10
22.3648179339
 20
19.2782611609
 30
0.0
 10
22.3955039996
 20
19.2791422466
 30
0.0
 10
22.411042682
 20
19.2795884072
 30
0.0
  0
SPLINE
  5
36B
100
AcDbEntity
  8
0
100
AcDbSpline
 62
7
  6
BYLAYER
 70
0
 71
3
 72
23
 73
19
 74
0
 42
0.0000001
 43
0.0000001
 44
0.0000000001
 40
0.0
 40
0.0
 40
0.0
 40
0.0
 40
0.0546814249
 40
0.107498513
 40
0.159907741
 40
0.2118983372
 40
0.2642022804
 40
0.3179174879
 40
0.3742831203
 40
0.4330193616
 40
0.4937819806
 40
0.5564364572
 40
0.6218698125
 40
0.6897428769
 40
0.7614550266
 40
0.8370144314
 40
0.9162593194
 40
1.0
 40
1.0
 40
1.0
 40
1.0
 10
22.4045522974
 20
19.0949730225
 30
0.0
 10
22.3940759837
 20
19.0946082915
 30
0.0
 10
22.3734805411
 20
19.0938912649
 30
0.0
 10
22.343181858
 20
19.088750395
 30
0.0
 10
22.3142804414
 20
19.0800475995
 30
0.0
 10
22.2866918782
 20
19.0680603472
 30
0.0
 10
22.2604413175
 20
19.0528325265
 30
0.0
 10
22.2357728866
 20
19.0337622472
 30
0.0
 10
22.2123682153
 20
19.0113695293
 30
0.0
 10
22.1904654412
 20
18.9857177257
 30
0.0
 10
22.1701324988
 20
18.9572868394
 30
0.0
 10
22.1525541463
 20
18.925604422
 30
0.0
 10
22.136982649
 20
18.8913980589
 30
0.0
 10
22.124194955
 20
18.8542299723
 30
0.0
 10
22.1127977893
 20
18.8145926566
 30
0.0
 10
22.1044640827
 20
18.7719772047
 30
0.0
 10
22.0977136442
 20
18.7267539225
 30
0.0
 10
22.0955617629
 20
18.6955967256
 30
0.0
 10
22.0944561436
 20
18.6795884072
 30
0.0
  0
SPLINE
  5
36C
100
AcDbEntity
  8
0
100
AcDbSpline
 62
7
  6
BYLAYER
 70
0
 71
3
 72
23
 73
19
 74
0
 42
0.0000001
 43
0.0000001
 44
0.0000000001
 40
0.0
 40
0.0
 40
0.0
 40
0.0
 40
0.071232734
 40
0.1400489135
 40
0.2068361526
 40
0.2726909016
 40
0.3382751988
 40
0.402569728
 40
0.4673170943
 40
0.533349071
 40
0.597685243
 40
0.6588792544
 40
0.7176375069
 40
0.7740059464
 40
0.8299102974
 40
0.8859885889
 40
0.941975629
 40
1.0
 40
1.0
 40
1.0
 40
1.0
 10
30.5444561436
 20
18.7300691764
 30
0.0
 10
30.544162126
 20
18.7423395817
 30
0.0
 10
30.5435840655
 20
18.7664641217
 30
0.0
 10
30.5395319362
 20
18.8019085013
 30
0.0
 10
30.5330198616
 20
18.836018084
 30
0.0
 10
30.5240621643
 20
18.8690076544
 30
0.0
 10
30.5122079402
 20
18.9006250868
 30
0.0
 10
30.4975635812
 20
18.9308214883
 30
0.0
 10
30.4805892613
 20
18.9598616244
 30
0.0
 10
30.4610086754
 20
18.9872384304
 30
0.0
 10
30.4395121171
 20
19.0123076143
 30
0.0
 10
30.4168621808
 20
19.0346480866
 30
0.0
 10
30.3925253535
 20
19.0529317278
 30
0.0
 10
30.3674164765
 20
19.0684197213
 30
0.0
 10
30.340939963
 20
19.0805003791
 30
0.0
 10
30.3130962189
 20
19.0885868219
 30
0.0
 10
30.2842019852
 20
19.0939316839
 30
0.0
 10
30.2645525686
 20
19.094621799
 30
0.0
 10
30.2545522974
 20
19.0949730225
 30
0.0
  0
SPLINE
  5
36D
100
AcDbEntity
  8
0
100
AcDbSpline
 62
7
  6
BYLAYER
 70
0
 71
3
 72
19
 73
15
 74
0
 42
0.0000001
 43
0.0000001
 44
0.0000000001
 40
0.0
 40
0.0
 40
0.0
 40
0.0
 40
0.1058696462
 40
0.2039674403
 40
0.2939742082
 40
0.375916533
 40
0.4506307026
 40
0.5168571884
 40
0.5756638964
 40
0.6266459289
 40
0.7203855386
 40
0.8132169432
 40
0.9056723258
 40
1.0
 40
1.0
 40
1.0
 40
1.0
 10
30.2873647974
 20
18.1783864841
 30
0.0
 10
30.3001328292
 20
18.1961551293
 30
0.0
 10
30.3247315963
 20
18.2303880299
 30
0.0
 10
30.359741599
 20
18.2800452605
 30
0.0
 10
30.3911458145
 20
18.3261860464
 30
0.0
 10
30.4190373421
 20
18.3688622051
 30
0.0
 10
30.4434175691
 20
18.4079473345
 30
0.0
 10
30.4646102445
 20
18.4433815627
 30
0.0
 10
30.4819390152
 20
18.4753837525
 30
0.0
 10
30.5002160791
 20
18.5132785032
 30
0.0
 10
30.5184063097
 20
18.5589929111
 30
0.0
 10
30.5334747938
 20
18.6147536784
 30
0.0
 10
30.5429358693
 20
18.6719324369
 30
0.0
 10
30.5439460103
 20
18.7105611932
 30
0.0
 10
30.5444561436
 20
18.7300691764
 30
0.0
  0
SPLINE
  5
36E
100
AcDbEntity
  8
0
100
AcDbSpline
 62
7
  6
BYLAYER
 70
0
 71
3
 72
19
 73
15
 74
0
 42
0.0000001
 43
0.0000001
 44
0.0000000001
 40
0.0
 40
0.0
 40
0.0
 40
0.0
 40
0.1051079423
 40
0.2080472272
 40
0.3095348865
 40
0.4102650949
 40
0.4635646173
 40
0.5224235182
 40
0.5873724282
 40
0.6580285421
 40
0.7347065208
 40
0.8169237508
 40
0.9056721344
 40
1.0
 40
1.0
 40
1.0
 40
1.0
 10
30.682917682
 20
18.7405259072
 30
0.0
 10
30.6821611913
 20
18.7153776043
 30
0.0
 10
30.6806638183
 20
18.6655998751
 30
0.0
 10
30.6706466199
 20
18.5920316151
 30
0.0
 10
30.6526240725
 20
18.5211617014
 30
0.0
 10
30.6323568279
 20
18.4633720485
 30
0.0
 10
30.6115737836
 20
18.4168437512
 30
0.0
 10
30.5926582472
 20
18.3789142724
 30
0.0
 10
30.5706752365
 20
18.3379004291
 30
0.0
 10
30.5454388485
 20
18.2938085903
 30
0.0
 10
30.5164133813
 20
18.247173741
 30
0.0
 10
30.4846887131
 20
18.1971265574
 30
0.0
 10
30.449335086
 20
18.144400353
 30
0.0
 10
30.4245394785
 20
18.1082899948
 30
0.0
 10
30.4117638359
 20
18.0896845611
 30
0.0
  0
SPLINE
  5
36F
100
AcDbEntity
  8
0
100
AcDbSpline
 62
7
  6
BYLAYER
 70
0
 71
3
 72
23
 73
19
 74
0
 42
0.0000001
 43
0.0000001
 44
0.0000000001
 40
0.0
 40
0.0
 40
0.0
 40
0.0
 40
0.0606744397
 40
0.1188012934
 40
0.1756972325
 40
0.2320690474
 40
0.2892164269
 40
0.3471695885
 40
0.4077479542
 40
0.4710232123
 40
0.5358721132
 40
0.5998655512
 40
0.6640704343
 40
0.7288934209
 40
0.7944449716
 40
0.8609111643
 40
0.9294368431
 40
1.0
 40
1.0
 40
1.0
 40
1.0
 10
30.261042682
 20
19.2795884072
 30
0.0
 10
30.2764592343
 20
19.2791267633
 30
0.0
 10
30.3066450318
 20
19.2782228589
 30
0.0
 10
30.3507440797
 20
19.2704274507
 30
0.0
 10
30.3924404583
 20
19.2576848964
 30
0.0
 10
30.4322570853
 20
19.2404007204
 30
0.0
 10
30.4693785907
 20
19.2174044354
 30
0.0
 10
30.5045058996
 20
19.1897298177
 30
0.0
 10
30.536812252
 20
19.1566036228
 30
0.0
 10
30.5669639024
 20
19.1192701411
 30
0.0
 10
30.5938390435
 20
19.0784956694
 30
0.0
 10
30.6180992677
 20
19.0358193344
 30
0.0
 10
30.637643004
 20
18.9908027415
 30
0.0
 10
30.6545672454
 20
18.9443228156
 30
0.0
 10
30.6668455388
 20
18.8958065435
 30
0.0
 10
30.6765369524
 20
18.8457774224
 30
0.0
 10
30.6818773134
 20
18.7937678783
 30
0.0
 10
30.6825675223
 20
18.7584457061
 30
0.0
 10
30.682917682
 20
18.7405259072
 30
0.0
  0
SPLINE
  5
370
100
AcDbEntity
  8
0
100
AcDbSpline
 62
7
  6
BYLAYER
 70
0
 71
3
 72
23
 73
19
 74
0
 42
0.0000001
 43
0.0000001
 44
0.0000000001
 40
0.0
 40
0.0
 40
0.0
 40
0.0
 40
0.0769336855
 40
0.150822027
 40
0.2215958892
 40
0.2903871577
 40
0.3568810608
 40
0.4223640848
 40
0.4865596781
 40
0.5501428153
 40
0.6123213801
 40
0.671237872
 40
0.7275343854
 40
0.7821696894
 40
0.8360788592
 40
0.8898721157
 40
0.9442338996
 40
1.0
 40
1.0
 40
1.0
 40
1.0
 10
29.8059946051
 20
18.6795884072
 30
0.0
 10
29.8067814657
 20
18.7010019131
 30
0.0
 10
29.8083240399
 20
18.7429812926
 30
0.0
 10
29.815585588
 20
18.804333147
 30
0.0
 10
29.8268997074
 20
18.8627165583
 30
0.0
 10
29.8414070019
 20
18.9182921798
 30
0.0
 10
29.8603867341
 20
18.9709434374
 30
0.0
 10
29.8829172043
 20
19.0207851716
 30
0.0
 10
29.9098718015
 20
19.0674437616
 30
0.0
 10
29.9399270565
 20
19.111048604
 30
0.0
 10
29.9731746864
 20
19.1503818067
 30
0.0
 10
30.0085668543
 20
19.1849699261
 30
0.0
 10
30.0460112535
 20
19.2140051236
 30
0.0
 10
30.085135717
 20
19.2382246918
 30
0.0
 10
30.1265835607
 20
19.2565837836
 30
0.0
 10
30.1697328138
 20
19.2700677076
 30
0.0
 10
30.2148179339
 20
19.2782611609
 30
0.0
 10
30.2455039996
 20
19.2791422466
 30
0.0
 10
30.261042682
 20
19.2795884072
 30
0.0
  0
SPLINE
  5
371
100
AcDbEntity
  8
0
100
AcDbSpline
 62
7
  6
BYLAYER
 70
0
 71
3
 72
23
 73
19
 74
0
 42
0.0000001
 43
0.0000001
 44
0.0000000001
 40
0.0
 40
0.0
 40
0.0
 40
0.0
 40
0.0546814249
 40
0.107498513
 40
0.159907741
 40
0.2118983372
 40
0.2642022804
 40
0.3179174879
 40
0.3742831203
 40
0.4330193616
 40
0.4937819806
 40
0.5564364572
 40
0.6218698125
 40
0.6897428769
 40
0.7614550266
 40
0.8370144314
 40
0.9162593194
 40
1.0
 40
1.0
 40
1.0
 40
1.0
 10
30.2545522974
 20
19.0949730225
 30
0.0
 10
30.2440759837
 20
19.0946082915
 30
0.0
 10
30.2234805411
 20
19.0938912649
 30
0.0
 10
30.193181858
 20
19.088750395
 30
0.0
 10
30.1642804414
 20
19.0800475995
 30
0.0
 10
30.1366918782
 20
19.0680603472
 30
0.0
 10
30.1104413175
 20
19.0528325265
 30
0.0
 10
30.0857728866
 20
19.0337622472
 30
0.0
 10
30.0623682153
 20
19.0113695293
 30
0.0
 10
30.0404654412
 20
18.9857177257
 30
0.0
 10
30.0201324988
 20
18.9572868394
 30
0.0
 10
30.0025541463
 20
18.925604422
 30
0.0
 10
29.986982649
 20
18.8913980589
 30
0.0
 10
29.974194955
 20
18.8542299723
 30
0.0
 10
29.9627977893
 20
18.8145926566
 30
0.0
 10
29.9544640827
 20
18.7719772047
 30
0.0
 10
29.9477136442
 20
18.7267539225
 30
0.0
 10
29.9455617629
 20
18.6955967256
 30
0.0
 10
29.9444561436
 20
18.6795884072
 30
0.0
  0
SPLINE
  5
372
100
AcDbEntity
  8
0
100
AcDbSpline
 62
7
  6
BYLAYER
 70
0
 71
3
 72
17
 73
13
 74
0
 42
0.0000001
 43
0.0000001
 44
0.0000000001
 40
0.0
 40
0.0
 40
0.0
 40
0.0
 40
0.038090274
 40
0.0853907762
 40
0.2035371377
 40
0.3454821816
 40
0.4999808785
 40
0.6544712459
 40
0.7964796789
 40
0.9147003476
 40
0.9619465927
 40
1.0
 40
1.0
 40
1.0
 40
1.0
 10
22.9775330666
 20
34.5568733299
 30
0.0
 10
22.9960629827
 20
34.5612863534
 30
0.0
 10
23.038086497
 20
34.5691140574
 30
0.0
 10
23.138981178
 20
34.5826720568
 30
0.0
 10
23.2923173894
 20
34.5948195905
 30
0.0
 10
23.4994860957
 20
34.6033959867
 30
0.0
 10
23.7250010887
 20
34.6062360037
 30
0.0
 10
23.950547379
 20
34.6033686984
 30
0.0
 10
24.1577804527
 20
34.5948099309
 30
0.0
 10
24.3111629617
 20
34.5827050044
 30
0.0
 10
24.4120464382
 20
34.5691204255
 30
0.0
 10
24.4540210853
 20
34.5612820821
 30
0.0
 10
24.4725330666
 20
34.5568733299
 30
0.0
  0
SPLINE
  5
373
100
AcDbEntity
  8
0
100
AcDbSpline
 62
7
  6
BYLAYER
 70
0
 71
3
 72
17
 73
13
 74
0
 42
0.0000001
 43
0.0000001
 44
0.0000000001
 40
0.0
 40
0.0
 40
0.0
 40
0.0
 40
0.0385142099
 40
0.0860944746
 40
0.2043723439
 40
0.3460133977
 40
0.4999771021
 40
0.6539283274
 40
0.7956497323
 40
0.9140237399
 40
0.961533636
 40
1.0
 40
1.0
 40
1.0
 40
1.0
 10
19.3975330666
 20
34.5568733299
 30
0.0
 10
19.4164791893
 20
34.5612795331
 30
0.0
 10
19.4592932067
 20
34.5691097943
 30
0.0
 10
19.5616356667
 20
34.5826610869
 30
0.0
 10
19.7165557386
 20
34.5948235374
 30
0.0
 10
19.9254314926
 20
34.6033996751
 30
0.0
 10
20.1524931747
 20
34.6062357343
 30
0.0
 10
20.3795949569
 20
34.6033649122
 30
0.0
 10
20.5885530452
 20
34.5948101573
 30
0.0
 10
20.7435326927
 20
34.5827043533
 30
0.0
 10
20.8458603546
 20
34.5691181441
 30
0.0
 10
20.8886104806
 20
34.5612740593
 30
0.0
 10
20.9075330666
 20
34.5568733299
 30
0.0
  0
SPLINE
  5
374
100
AcDbEntity
  8
0
100
AcDbSpline
 62
7
  6
BYLAYER
 70
0
 71
3
 72
17
 73
13
 74
0
 42
0.0000001
 43
0.0000001
 44
0.0000000001
 40
0.0
 40
0.0
 40
0.0
 40
0.0
 40
0.038232775
 40
0.0856273937
 40
0.203818016
 40
0.3456608429
 40
0.4999796125
 40
0.6542886639
 40
0.7962005478
 40
0.9144727891
 40
0.9618077626
 40
1.0
 40
1.0
 40
1.0
 40
1.0
 10
26.7075330666
 20
34.5568733299
 30
0.0
 10
26.7262019209
 20
34.5612840239
 30
0.0
 10
26.7684892096
 20
34.5691125973
 30
0.0
 10
26.8698668382
 20
34.5826683235
 30
0.0
 10
27.0237310327
 20
34.5948209346
 30
0.0
 10
27.2314684752
 20
34.6033972077
 30
0.0
 10
27.4574984557
 20
34.6062359146
 30
0.0
 10
27.6835626571
 20
34.6033674578
 30
0.0
 10
27.8913704373
 20
34.5948100287
 30
0.0
 10
28.0452853481
 20
34.5827046988
 30
0.0
 10
28.1466505834
 20
34.5691196257
 30
0.0
 10
28.1888840067
 20
34.5612793473
 30
0.0
 10
28.2075330666
 20
34.5568733299
 30
0.0
  0
SPLINE
  5
375
100
AcDbEntity
  8
0
100
AcDbSpline
 62
7
  6
BYLAYER
 70
0
 71
3
 72
17
 73
13
 74
0
 42
0.0000001
 43
0.0000001
 44
0.0000000001
 40
0.0
 40
0.0
 40
0.0
 40
0.0
 40
0.0385142099
 40
0.0860944746
 40
0.2043723439
 40
0.3460133977
 40
0.4999771021
 40
0.6539283274
 40
0.7956497323
 40
0.9140237399
 40
0.961533636
 40
1.0
 40
1.0
 40
1.0
 40
1.0
 10
30.2775330666
 20
34.5568733299
 30
0.0
 10
30.2964791893
 20
34.5612795331
 30
0.0
 10
30.3392932067
 20
34.5691097943
 30
0.0
 10
30.4416356667
 20
34.5826610869
 30
0.0
 10
30.5965557386
 20
34.5948235374
 30
0.0
 10
30.8054314926
 20
34.6033996751
 30
0.0
 10
31.0324931747
 20
34.6062357343
 30
0.0
 10
31.2595949569
 20
34.6033649122
 30
0.0
 10
31.4685530452
 20
34.5948101573
 30
0.0
 10
31.6235326927
 20
34.5827043533
 30
0.0
 10
31.7258603546
 20
34.5691181441
 30
0.0
 10
31.7686104806
 20
34.5612740593
 30
0.0
 10
31.7875330666
 20
34.5568733299
 30
0.0
  0
SPLINE
  5
376
100
AcDbEntity
  8
0
100
AcDbSpline
 62
7
  6
BYLAYER
 70
0
 71
3
 72
9
 73
5
 74
0
 42
0.0000001
 43
0.0000001
 44
0.0000000001
 40
0.0
 40
0.0
 40
0.0
 40
0.0
 40
0.478219368
 40
1.0
 40
1.0
 40
1.0
 40
1.0
 10
21.2155711738
 20
34.7147847399
 30
0.0
 10
21.2409456497
 20
34.7136075864
 30
0.0
 10
21.2938359156
 20
34.7006935858
 30
0.0
 10
21.3386130229
 20
34.6692491264
 30
0.0
 10
21.3575930844
 20
34.6490522643
 30
0.0
  0
SPLINE
  5
377
100
AcDbEntity
  8
0
100
AcDbSpline
 62
7
  6
BYLAYER
 70
0
 71
3
 72
9
 73
5
 74
0
 42
0.0000001
 43
0.0000001
 44
0.0000000001
 40
0.0
 40
0.0
 40
0.0
 40
0.0
 40
0.2352747132
 40
1.0
 40
1.0
 40
1.0
 40
1.0
 10
21.3575930844
 20
34.6490522643
 30
0.0
 10
21.362948302
 20
34.6433537269
 30
0.0
 10
21.3843314444
 20
34.617864488
 30
0.0
 10
21.3995100297
 20
34.5872457001
 30
0.0
 10
21.4068330657
 20
34.5629058738
 30
0.0
  0
SPLINE
  5
378
100
AcDbEntity
  8
0
100
AcDbSpline
 62
7
  6
BYLAYER
 70
0
 71
3
 72
9
 73
5
 74
0
 42
0.0000001
 43
0.0000001
 44
0.0000000001
 40
0.0
 40
0.0
 40
0.0
 40
0.0
 40
0.2695279021
 40
1.0
 40
1.0
 40
1.0
 40
1.0
 10
20.9205744563
 20
34.5607981791
 30
0.0
 10
20.9220593728
 20
34.5689889771
 30
0.0
 10
20.928798619
 20
34.5991350196
 30
0.0
 10
20.9406529658
 20
34.6281929908
 30
0.0
 10
20.9521013455
 20
34.6476328852
 30
0.0
  0
SPLINE
  5
379
100
AcDbEntity
  8
0
100
AcDbSpline
 62
7
  6
BYLAYER
 70
0
 71
3
 72
9
 73
5
 74
0
 42
0.0000001
 43
0.0000001
 44
0.0000000001
 40
0.0
 40
0.0
 40
0.0
 40
0.0
 40
0.5648347382
 40
1.0
 40
1.0
 40
1.0
 40
1.0
 10
20.9521013455
 20
34.6476328852
 30
0.0
 10
20.9628122549
 20
34.6658205199
 30
0.0
 10
20.9861113284
 20
34.6960650088
 30
0.0
 10
21.0218775163
 20
34.7134412776
 30
0.0
 10
21.0380835276
 20
34.7147847399
 30
0.0
  0
SPLINE
  5
37A
100
AcDbEntity
  8
0
100
AcDbSpline
 62
7
  6
BYLAYER
 70
0
 71
3
 72
10
 73
6
 74
0
 42
0.0000001
 43
0.0000001
 44
0.0000000001
 40
0.0
 40
0.0
 40
0.0
 40
0.0
 40
0.5754649886
 40
0.8145509731
 40
1.0
 40
1.0
 40
1.0
 40
1.0
 10
20.1605705482
 20
34.7380045839
 30
0.0
 10
19.9921578081
 20
34.7379327821
 30
0.0
 10
19.7537466289
 20
34.7355911853
 30
0.0
 10
19.4612497673
 20
34.7257657483
 30
0.0
 10
19.3371710822
 20
34.7189419441
 30
0.0
 10
19.2830579359
 20
34.71478471
 30
0.0
  0
SPLINE
  5
37B
100
AcDbEntity
  8
0
100
AcDbSpline
 62
7
  6
BYLAYER
 70
0
 71
3
 72
10
 73
6
 74
0
 42
0.0000001
 43
0.0000001
 44
0.0000000001
 40
0.0
 40
0.0
 40
0.0
 40
0.0
 40
0.1854490269
 40
0.4245350114
 40
1.0
 40
1.0
 40
1.0
 40
1.0
 10
21.0380831606
 20
34.71478471
 30
0.0
 10
20.9839700143
 20
34.7189419441
 30
0.0
 10
20.8598913292
 20
34.7257657483
 30
0.0
 10
20.5673944675
 20
34.7355911853
 30
0.0
 10
20.3289832883
 20
34.7379327821
 30
0.0
 10
20.1605705482
 20
34.7380045839
 30
0.0
  0
SPLINE
  5
37C
100
AcDbEntity
  8
0
100
AcDbSpline
 62
7
  6
BYLAYER
 70
0
 71
3
 72
9
 73
5
 74
0
 42
0.0000001
 43
0.0000001
 44
0.0000000001
 40
0.0
 40
0.0
 40
0.0
 40
0.0
 40
0.2671197129
 40
1.0
 40
1.0
 40
1.0
 40
1.0
 10
18.9142932803
 20
34.5628582648
 30
0.0
 10
18.9168330192
 20
34.5713072573
 30
0.0
 10
18.9281661459
 20
34.6023597275
 30
0.0
 10
18.9465481584
 20
34.6308383579
 30
0.0
 10
18.963062922
 20
34.648535132
 30
0.0
  0
SPLINE
  5
37D
100
AcDbEntity
  8
0
100
AcDbSpline
 62
7
  6
BYLAYER
 70
0
 71
3
 72
9
 73
5
 74
0
 42
0.0000001
 43
0.0000001
 44
0.0000000001
 40
0.0
 40
0.0
 40
0.0
 40
0.0
 40
0.5219303337
 40
1.0
 40
1.0
 40
1.0
 40
1.0
 10
18.963062922
 20
34.648535132
 30
0.0
 10
18.9820604011
 20
34.6688923169
 30
0.0
 10
19.0269718257
 20
34.700589645
 30
0.0
 10
19.0800926998
 20
34.7136028199
 30
0.0
 10
19.1055699227
 20
34.7147847399
 30
0.0
  0
SPLINE
  5
37E
100
AcDbEntity
  8
0
100
AcDbSpline
 62
7
  6
BYLAYER
 70
0
 71
3
 72
11
 73
7
 74
0
 42
0.0000001
 43
0.0000001
 44
0.0000000001
 40
0.0
 40
0.0
 40
0.0
 40
0.0
 40
0.1824925436
 40
0.4056901804
 40
0.6789002651
 40
1.0
 40
1.0
 40
1.0
 40
1.0
 10
19.2830575682
 20
34.7147847399
 30
0.0
 10
19.2955596117
 20
34.7137483329
 30
0.0
 10
19.3226800504
 20
34.7031840765
 30
0.0
 10
19.3567844972
 20
34.6702248373
 30
0.0
 10
19.3849615716
 20
34.6209277098
 30
0.0
 10
19.3966680662
 20
34.5813579459
 30
0.0
 10
19.4006216308
 20
34.5596418148
 30
0.0
  0
SPLINE
  5
37F
100
AcDbEntity
  8
0
100
AcDbSpline
 62
7
  6
BYLAYER
 70
0
 71
3
 72
9
 73
5
 74
0
 42
0.0000001
 43
0.0000001
 44
0.0000000001
 40
0.0
 40
0.0
 40
0.0
 40
0.0
 40
0.2117256938
 40
1.0
 40
1.0
 40
1.0
 40
1.0
 10
28.26410381
 20
34.8314733899
 30
0.0
 10
28.2536048077
 20
34.8324050423
 30
0.0
 10
28.2039806185
 20
34.8363936463
 30
0.0
 10
28.1542658551
 20
34.8391611907
 30
0.0
 10
28.1150681319
 20
34.8410321904
 30
0.0
  0
SPLINE
  5
380
100
AcDbEntity
  8
0
100
AcDbSpline
 62
7
  6
BYLAYER
 70
0
 71
3
 72
9
 73
5
 74
0
 42
0.0000001
 43
0.0000001
 44
0.0000000001
 40
0.0
 40
0.0
 40
0.0
 40
0.0
 40
0.4582140672
 40
1.0
 40
1.0
 40
1.0
 40
1.0
 10
28.1150681319
 20
34.8410321904
 30
0.0
 10
28.0402943959
 20
34.8446013169
 30
0.0
 10
27.8769880178
 20
34.8497927179
 30
0.0
 10
27.7136294479
 20
34.8521808833
 30
0.0
 10
27.6251198212
 20
34.8528404617
 30
0.0
  0
SPLINE
  5
381
100
AcDbEntity
  8
0
100
AcDbSpline
 62
7
  6
BYLAYER
 70
0
 71
3
 72
9
 73
5
 74
0
 42
0.0000001
 43
0.0000001
 44
0.0000000001
 40
0.0
 40
0.0
 40
0.0
 40
0.0
 40
0.5417859328
 40
1.0
 40
1.0
 40
1.0
 40
1.0
 10
27.3468802068
 20
34.8528404617
 30
0.0
 10
27.2583705801
 20
34.8521808833
 30
0.0
 10
27.0950120102
 20
34.8497927179
 30
0.0
 10
26.9317056321
 20
34.8446013169
 30
0.0
 10
26.8569318961
 20
34.8410321904
 30
0.0
  0
SPLINE
  5
382
100
AcDbEntity
  8
0
100
AcDbSpline
 62
7
  6
BYLAYER
 70
0
 71
3
 72
9
 73
5
 74
0
 42
0.0000001
 43
0.0000001
 44
0.0000000001
 40
0.0
 40
0.0
 40
0.0
 40
0.0
 40
0.2868813248
 40
1.0
 40
1.0
 40
1.0
 40
1.0
 10
26.8569318961
 20
34.8410321904
 30
0.0
 10
26.8426665381
 20
34.8403512712
 30
0.0
 10
26.7929511031
 20
34.8377982664
 30
0.0
 10
26.7432579235
 20
34.8346112898
 30
0.0
 10
26.707896218
 20
34.8314733899
 30
0.0
  0
SPLINE
  5
383
100
AcDbEntity
  8
0
100
AcDbSpline
 62
7
  6
BYLAYER
 70
0
 71
3
 72
10
 73
6
 74
0
 42
0.0000001
 43
0.0000001
 44
0.0000000001
 40
0.0
 40
0.0
 40
0.0
 40
0.0
 40
0.5754649886
 40
0.8145509731
 40
1.0
 40
1.0
 40
1.0
 40
1.0
 10
27.486000014
 20
34.7648137188
 30
0.0
 10
27.3175872739
 20
34.764741917
 30
0.0
 10
27.0791760947
 20
34.7624003202
 30
0.0
 10
26.786679233
 20
34.7525748832
 30
0.0
 10
26.6626005479
 20
34.745751079
 30
0.0
 10
26.6084874016
 20
34.7415938449
 30
0.0
  0
SPLINE
  5
384
100
AcDbEntity
  8
0
100
AcDbSpline
 62
7
  6
BYLAYER
 70
0
 71
3
 72
10
 73
6
 74
0
 42
0.0000001
 43
0.0000001
 44
0.0000000001
 40
0.0
 40
0.0
 40
0.0
 40
0.0
 40
0.1854490269
 40
0.4245350114
 40
1.0
 40
1.0
 40
1.0
 40
1.0
 10
28.3635126263
 20
34.7415938449
 30
0.0
 10
28.30939948
 20
34.745751079
 30
0.0
 10
28.1853207949
 20
34.7525748832
 30
0.0
 10
27.8928239333
 20
34.7624003202
 30
0.0
 10
27.6544127541
 20
34.764741917
 30
0.0
 10
27.486000014
 20
34.7648137188
 30
0.0
  0
SPLINE
  5
385
100
AcDbEntity
  8
0
100
AcDbSpline
 62
7
  6
BYLAYER
 70
0
 71
3
 72
9
 73
5
 74
0
 42
0.0000001
 43
0.0000001
 44
0.0000000001
 40
0.0
 40
0.0
 40
0.0
 40
0.0
 40
0.478219368
 40
1.0
 40
1.0
 40
1.0
 40
1.0
 10
28.5410006396
 20
34.7415938748
 30
0.0
 10
28.5663751155
 20
34.7404167213
 30
0.0
 10
28.6192653813
 20
34.7275027207
 30
0.0
 10
28.6640424887
 20
34.6960582613
 30
0.0
 10
28.6830225502
 20
34.6758613993
 30
0.0
  0
SPLINE
  5
386
100
AcDbEntity
  8
0
100
AcDbSpline
 62
7
  6
BYLAYER
 70
0
 71
3
 72
9
 73
5
 74
0
 42
0.0000001
 43
0.0000001
 44
0.0000000001
 40
0.0
 40
0.0
 40
0.0
 40
0.0
 40
0.231888588
 40
1.0
 40
1.0
 40
1.0
 40
1.0
 10
28.6830225502
 20
34.6758613993
 30
0.0
 10
28.6904846919
 20
34.667920864
 30
0.0
 10
28.7198865296
 20
34.6312043597
 30
0.0
 10
28.7371648569
 20
34.5844903305
 30
0.0
 10
28.7403123559
 20
34.5485337936
 30
0.0
  0
SPLINE
  5
387
100
AcDbEntity
  8
0
100
AcDbSpline
 62
7
  6
BYLAYER
 70
0
 71
3
 72
9
 73
5
 74
0
 42
0.0000001
 43
0.0000001
 44
0.0000000001
 40
0.0
 40
0.0
 40
0.0
 40
0.0
 40
0.2706624059
 40
1.0
 40
1.0
 40
1.0
 40
1.0
 10
28.2420687587
 20
34.5576807804
 30
0.0
 10
28.2429810235
 20
34.5687044085
 30
0.0
 10
28.2484274522
 20
34.6092078999
 30
0.0
 10
28.2624055418
 20
34.6487585918
 30
0.0
 10
28.2775308112
 20
34.6744420201
 30
0.0
  0
SPLINE
  5
388
100
AcDbEntity
  8
0
100
AcDbSpline
 62
7
  6
BYLAYER
 70
0
 71
3
 72
9
 73
5
 74
0
 42
0.0000001
 43
0.0000001
 44
0.0000000001
 40
0.0
 40
0.0
 40
0.0
 40
0.0
 40
0.5648347382
 40
1.0
 40
1.0
 40
1.0
 40
1.0
 10
28.2775308112
 20
34.6744420201
 30
0.0
 10
28.2882417207
 20
34.6926296548
 30
0.0
 10
28.3115407941
 20
34.7228741437
 30
0.0
 10
28.3473069821
 20
34.7402504125
 30
0.0
 10
28.3635129934
 20
34.7415938748
 30
0.0
  0
SPLINE
  5
389
100
AcDbEntity
  8
0
100
AcDbSpline
 62
7
  6
BYLAYER
 70
0
 71
3
 72
9
 73
5
 74
0
 42
0.0000001
 43
0.0000001
 44
0.0000000001
 40
0.0
 40
0.0
 40
0.0
 40
0.0
 40
0.2117256902
 40
1.0
 40
1.0
 40
1.0
 40
1.0
 10
31.8341038105
 20
34.8314733899
 30
0.0
 10
31.8236048083
 20
34.8324050424
 30
0.0
 10
31.773980619
 20
34.8363936464
 30
0.0
 10
31.7242658554
 20
34.8391611907
 30
0.0
 10
31.6850681319
 20
34.8410321904
 30
0.0
  0
SPLINE
  5
38A
100
AcDbEntity
  8
0
100
AcDbSpline
 62
7
  6
BYLAYER
 70
0
 71
3
 72
9
 73
5
 74
0
 42
0.0000001
 43
0.0000001
 44
0.0000000001
 40
0.0
 40
0.0
 40
0.0
 40
0.0
 40
0.4582140672
 40
1.0
 40
1.0
 40
1.0
 40
1.0
 10
31.6850681319
 20
34.8410321904
 30
0.0
 10
31.6102943959
 20
34.8446013169
 30
0.0
 10
31.4469880178
 20
34.8497927179
 30
0.0
 10
31.2836294479
 20
34.8521808833
 30
0.0
 10
31.1951198212
 20
34.8528404617
 30
0.0
  0
SPLINE
  5
38B
100
AcDbEntity
  8
0
100
AcDbSpline
 62
7
  6
BYLAYER
 70
0
 71
3
 72
9
 73
5
 74
0
 42
0.0000001
 43
0.0000001
 44
0.0000000001
 40
0.0
 40
0.0
 40
0.0
 40
0.0
 40
0.5417859328
 40
1.0
 40
1.0
 40
1.0
 40
1.0
 10
30.9168802068
 20
34.8528404617
 30
0.0
 10
30.8283705801
 20
34.8521808833
 30
0.0
 10
30.6650120102
 20
34.8497927179
 30
0.0
 10
30.5017056321
 20
34.8446013169
 30
0.0
 10
30.4269318961
 20
34.8410321904
 30
0.0
  0
SPLINE
  5
38C
100
AcDbEntity
  8
0
100
AcDbSpline
 62
7
  6
BYLAYER
 70
0
 71
3
 72
9
 73
5
 74
0
 42
0.0000001
 43
0.0000001
 44
0.0000000001
 40
0.0
 40
0.0
 40
0.0
 40
0.0
 40
0.2868813267
 40
1.0
 40
1.0
 40
1.0
 40
1.0
 10
30.4269318961
 20
34.8410321904
 30
0.0
 10
30.4126665379
 20
34.8403512712
 30
0.0
 10
30.3629511028
 20
34.8377982664
 30
0.0
 10
30.313257923
 20
34.8346112899
 30
0.0
 10
30.2778962175
 20
34.8314733899
 30
0.0
  0
SPLINE
  5
38D
100
AcDbEntity
  8
0
100
AcDbSpline
 62
7
  6
BYLAYER
 70
0
 71
3
 72
9
 73
5
 74
0
 42
0.0000001
 43
0.0000001
 44
0.0000000001
 40
0.0
 40
0.0
 40
0.0
 40
0.0
 40
0.2687359948
 40
1.0
 40
1.0
 40
1.0
 40
1.0
 10
26.2328065635
 20
34.5583439227
 30
0.0
 10
26.2344325563
 20
34.5699410055
 30
0.0
 10
26.244248537
 20
34.6124917703
 30
0.0
 10
26.2667513589
 20
34.6520471682
 30
0.0
 10
26.2884923878
 20
34.6753442669
 30
0.0
  0
SPLINE
  5
38E
100
AcDbEntity
  8
0
100
AcDbSpline
 62
7
  6
BYLAYER
 70
0
 71
3
 72
9
 73
5
 74
0
 42
0.0000001
 43
0.0000001
 44
0.0000000001
 40
0.0
 40
0.0
 40
0.0
 40
0.0
 40
0.5219303337
 40
1.0
 40
1.0
 40
1.0
 40
1.0
 10
26.2884923878
 20
34.6753442669
 30
0.0
 10
26.3074898669
 20
34.6957014518
 30
0.0
 10
26.3524012915
 20
34.7273987799
 30
0.0
 10
26.4055221656
 20
34.7404119548
 30
0.0
 10
26.4309993885
 20
34.7415938748
 30
0.0
  0
SPLINE
  5
38F
100
AcDbEntity
  8
0
100
AcDbSpline
 62
7
  6
BYLAYER
 70
0
 71
3
 72
11
 73
7
 74
0
 42
0.0000001
 43
0.0000001
 44
0.0000000001
 40
0.0
 40
0.0
 40
0.0
 40
0.0
 40
0.1787639728
 40
0.4014593532
 40
0.6775997415
 40
1.0
 40
1.0
 40
1.0
 40
1.0
 10
26.608487034
 20
34.7415938748
 30
0.0
 10
26.6221410933
 20
34.7404619668
 30
0.0
 10
26.6519427897
 20
34.7279807494
 30
0.0
 10
26.6881382377
 20
34.6895018758
 30
0.0
 10
26.7167507292
 20
34.6326586217
 30
0.0
 10
26.7268901131
 20
34.5873622959
 30
0.0
 10
26.7294202787
 20
34.5627826545
 30
0.0
  0
SPLINE
  5
390
100
AcDbEntity
  8
0
100
AcDbSpline
 62
7
  6
BYLAYER
 70
0
 71
3
 72
9
 73
5
 74
0
 42
0.0000001
 43
0.0000001
 44
0.0000000001
 40
0.0
 40
0.0
 40
0.0
 40
0.0
 40
0.2712710746
 40
1.0
 40
1.0
 40
1.0
 40
1.0
 10
30.299986145
 20
34.5607315352
 30
0.0
 10
30.2988980864
 20
34.5716483241
 30
0.0
 10
30.2926617204
 20
34.6116068101
 30
0.0
 10
30.2786187271
 20
34.6505809361
 30
0.0
 10
30.2635548554
 20
34.6759118591
 30
0.0
  0
SPLINE
  5
391
100
AcDbEntity
  8
0
100
AcDbSpline
 62
7
  6
BYLAYER
 70
0
 71
3
 72
9
 73
5
 74
0
 42
0.0000001
 43
0.0000001
 44
0.0000000001
 40
0.0
 40
0.0
 40
0.0
 40
0.0
 40
0.5635782837
 40
1.0
 40
1.0
 40
1.0
 40
1.0
 10
30.2635548554
 20
34.6759118591
 30
0.0
 10
30.2529520832
 20
34.6937411405
 30
0.0
 10
30.2297860794
 20
34.7233926169
 30
0.0
 10
30.1944955704
 20
34.740266783
 30
0.0
 10
30.178487034
 20
34.7415938748
 30
0.0
  0
SPLINE
  5
392
100
AcDbEntity
  8
0
100
AcDbSpline
 62
7
  6
BYLAYER
 70
0
 71
3
 72
9
 73
5
 74
0
 42
0.0000001
 43
0.0000001
 44
0.0000000001
 40
0.0
 40
0.0
 40
0.0
 40
0.0
 40
0.4794823114
 40
1.0
 40
1.0
 40
1.0
 40
1.0
 10
30.001000014
 20
34.7415939047
 30
0.0
 10
29.9755986986
 20
34.7404155061
 30
0.0
 10
29.9226912342
 20
34.727735107
 30
0.0
 10
29.8781901103
 20
34.6961008609
 30
0.0
 10
29.8591713129
 20
34.6760929871
 30
0.0
  0
SPLINE
  5
393
100
AcDbEntity
  8
0
100
AcDbSpline
 62
7
  6
BYLAYER
 70
0
 71
3
 72
9
 73
5
 74
0
 42
0.0000001
 43
0.0000001
 44
0.0000000001
 40
0.0
 40
0.0
 40
0.0
 40
0.0
 40
0.4762269532
 40
1.0
 40
1.0
 40
1.0
 40
1.0
 10
29.8591713129
 20
34.6760929871
 30
0.0
 10
29.8447147085
 20
34.6608845642
 30
0.0
 10
29.818780513
 20
34.6243724172
 30
0.0
 10
29.8057508043
 20
34.5812782429
 30
0.0
 10
29.8027202995
 20
34.5584000746
 30
0.0
  0
SPLINE
  5
394
100
AcDbEntity
  8
0
100
AcDbSpline
 62
7
  6
BYLAYER
 70
0
 71
3
 72
10
 73
6
 74
0
 42
0.0000001
 43
0.0000001
 44
0.0000000001
 40
0.0
 40
0.0
 40
0.0
 40
0.0
 40
0.5754649886
 40
0.8145509731
 40
1.0
 40
1.0
 40
1.0
 40
1.0
 10
31.056000014
 20
34.7648137188
 30
0.0
 10
30.8875872739
 20
34.764741917
 30
0.0
 10
30.6491760947
 20
34.7624003202
 30
0.0
 10
30.356679233
 20
34.7525748832
 30
0.0
 10
30.2326005479
 20
34.745751079
 30
0.0
 10
30.1784874016
 20
34.7415938449
 30
0.0
  0
SPLINE
  5
395
100
AcDbEntity
  8
0
100
AcDbSpline
 62
7
  6
BYLAYER
 70
0
 71
3
 72
10
 73
6
 74
0
 42
0.0000001
 43
0.0000001
 44
0.0000000001
 40
0.0
 40
0.0
 40
0.0
 40
0.0
 40
0.1854490269
 40
0.4245350114
 40
1.0
 40
1.0
 40
1.0
 40
1.0
 10
31.9335126263
 20
34.7415938449
 30
0.0
 10
31.87939948
 20
34.745751079
 30
0.0
 10
31.7553207949
 20
34.7525748832
 30
0.0
 10
31.4628239333
 20
34.7624003202
 30
0.0
 10
31.2244127541
 20
34.764741917
 30
0.0
 10
31.056000014
 20
34.7648137188
 30
0.0
  0
SPLINE
  5
396
100
AcDbEntity
  8
0
100
AcDbSpline
 62
7
  6
BYLAYER
 70
0
 71
3
 72
9
 73
5
 74
0
 42
0.0000001
 43
0.0000001
 44
0.0000000001
 40
0.0
 40
0.0
 40
0.0
 40
0.0
 40
0.5235112819
 40
1.0
 40
1.0
 40
1.0
 40
1.0
 10
32.3092825138
 20
34.5583910763
 30
0.0
 10
32.3062720031
 20
34.5811483306
 30
0.0
 10
32.293342369
 20
34.6240369258
 30
0.0
 10
32.2676251458
 20
34.6604299966
 30
0.0
 10
32.2532782858
 20
34.6756191679
 30
0.0
  0
SPLINE
  5
397
100
AcDbEntity
  8
0
100
AcDbSpline
 62
7
  6
BYLAYER
 70
0
 71
3
 72
9
 73
5
 74
0
 42
0.0000001
 43
0.0000001
 44
0.0000000001
 40
0.0
 40
0.0
 40
0.0
 40
0.0
 40
0.5206710461
 40
1.0
 40
1.0
 40
1.0
 40
1.0
 10
32.2532782858
 20
34.6756191679
 30
0.0
 10
32.2342410355
 20
34.6957741047
 30
0.0
 10
32.1896159599
 20
34.7276392373
 30
0.0
 10
32.136495567
 20
34.7404111343
 30
0.0
 10
32.111000014
 20
34.7415939047
 30
0.0
  0
SPLINE
  5
398
100
AcDbEntity
  8
0
100
AcDbSpline
 62
7
  6
BYLAYER
 70
0
 71
3
 72
9
 73
5
 74
0
 42
0.0000001
 43
0.0000001
 44
0.0000000001
 40
0.0
 40
0.0
 40
0.0
 40
0.0
 40
0.2711337506
 40
1.0
 40
1.0
 40
1.0
 40
1.0
 10
31.8117205899
 20
34.557712786
 30
0.0
 10
31.8126992181
 20
34.5688891364
 30
0.0
 10
31.8186058053
 20
34.6098439529
 30
0.0
 10
31.8328502321
 20
34.6498368158
 30
0.0
 10
31.8483004968
 20
34.6757381528
 30
0.0
  0
SPLINE
  5
399
100
AcDbEntity
  8
0
100
AcDbSpline
 62
7
  6
BYLAYER
 70
0
 71
3
 72
9
 73
5
 74
0
 42
0.0000001
 43
0.0000001
 44
0.0000000001
 40
0.0
 40
0.0
 40
0.0
 40
0.0
 40
0.5640855811
 40
1.0
 40
1.0
 40
1.0
 40
1.0
 10
31.8483004968
 20
34.6757381528
 30
0.0
 10
31.8589564976
 20
34.6936022265
 30
0.0
 10
31.8821758166
 20
34.7232700886
 30
0.0
 10
31.9174934477
 20
34.7402658703
 30
0.0
 10
31.9335129934
 20
34.7415938748
 30
0.0
  0
SPLINE
  5
39A
100
AcDbEntity
  8
0
100
AcDbSpline
 62
7
  6
BYLAYER
 70
0
 71
3
 72
12
 73
8
 74
0
 42
0.0000001
 43
0.0000001
 44
0.0000000001
 40
0.0
 40
0.0
 40
0.0
 40
0.0
 40
0.2609061467
 40
0.5153851166
 40
0.6396328268
 40
0.7617511115
 40
1.0
 40
1.0
 40
1.0
 40
1.0
 10
33.2675330666
 20
32.0507439426
 30
0.0
 10
33.2999374165
 20
32.0507439426
 30
0.0
 10
33.3645183408
 20
32.0393515422
 30
0.0
 10
33.4344026525
 20
31.9975475236
 30
0.0
 10
33.4764654143
 20
31.951179471
 30
0.0
 10
33.5073891309
 20
31.8991961849
 30
0.0
 10
33.5175330666
 20
31.853757331
 30
0.0
 10
33.5175330666
 20
31.8241669958
 30
0.0
  0
SPLINE
  5
39B
100
AcDbEntity
  8
0
100
AcDbSpline
 62
7
  6
BYLAYER
 70
0
 71
3
 72
11
 73
7
 74
0
 42
0.0000001
 43
0.0000001
 44
0.0000000001
 40
0.0
 40
0.0
 40
0.0
 40
0.0
 40
0.251354459
 40
0.5019176416
 40
0.7513575055
 40
1.0
 40
1.0
 40
1.0
 40
1.0
 10
33.2675330666
 20
34.3832374955
 30
0.0
 10
33.3000337555
 20
34.3832374955
 30
0.0
 10
33.3656318545
 20
34.3704316054
 30
0.0
 10
33.4487207307
 20
34.315555237
 30
0.0
 10
33.5044695005
 20
34.2334249839
 30
0.0
 10
33.5175330666
 20
34.1683058302
 30
0.0
 10
33.5175330666
 20
34.1361558043
 30
0.0
  0
SPLINE
  5
39C
100
AcDbEntity
  8
0
100
AcDbSpline
 62
7
  6
BYLAYER
 70
0
 71
3
 72
12
 73
8
 74
0
 42
0.0000001
 43
0.0000001
 44
0.0000000001
 40
0.0
 40
0.0
 40
0.0
 40
0.0
 40
0.2382488885
 40
0.3603671732
 40
0.4846148834
 40
0.7390938533
 40
1.0
 40
1.0
 40
1.0
 40
1.0
 10
33.5175330666
 20
33.9106036164
 30
0.0
 10
33.5175330666
 20
33.9401939516
 30
0.0
 10
33.5073891309
 20
33.9856328054
 30
0.0
 10
33.4764654143
 20
34.0376160916
 30
0.0
 10
33.4344026525
 20
34.0839841442
 30
0.0
 10
33.3645183408
 20
34.1257881627
 30
0.0
 10
33.2999374165
 20
34.1371805631
 30
0.0
 10
33.2675330666
 20
34.1371805631
 30
0.0
  0
SPLINE
  5
39D
100
AcDbEntity
  8
0
100
AcDbSpline
 62
7
  6
BYLAYER
 70
0
 71
3
 72
12
 73
8
 74
0
 42
0.0000001
 43
0.0000001
 44
0.0000000001
 40
0.0
 40
0.0
 40
0.0
 40
0.0
 40
0.3134673946
 40
0.600055231
 40
0.8348515711
 40
0.9270374369
 40
1.0
 40
1.0
 40
1.0
 40
1.0
 10
31.8675330666
 20
34.4450063808
 30
0.0
 10
31.9163074963
 20
34.4450063808
 30
0.0
 10
32.0096945451
 20
34.443166997
 30
0.0
 10
32.1393507628
 20
34.4348176156
 30
0.0
 10
32.2342546087
 20
34.4232764563
 30
0.0
 10
32.2952430032
 20
34.4108049811
 30
0.0
 10
32.3200181274
 20
34.4037560719
 30
0.0
 10
32.3306666819
 20
34.3998200172
 30
0.0
  0
SPLINE
  5
39E
100
AcDbEntity
  8
0
100
AcDbSpline
 62
7
  6
BYLAYER
 70
0
 71
3
 72
12
 73
8
 74
0
 42
0.0000001
 43
0.0000001
 44
0.0000000001
 40
0.0
 40
0.0
 40
0.0
 40
0.0
 40
0.0729660535
 40
0.1651546416
 40
0.3999501954
 40
0.6865383591
 40
1.0
 40
1.0
 40
1.0
 40
1.0
 10
26.2293994513
 20
34.3998200172
 30
0.0
 10
26.2400485555
 20
34.4037562751
 30
0.0
 10
26.2648209823
 20
34.4108164797
 30
0.0
 10
26.3258055053
 20
34.4233164665
 30
0.0
 10
26.4207177859
 20
34.4348112461
 30
0.0
 10
26.5503734644
 20
34.4431250944
 30
0.0
 10
26.6437593477
 20
34.4450063808
 30
0.0
 10
26.6925330666
 20
34.4450063808
 30
0.0
  0
SPLINE
  5
39F
100
AcDbEntity
  8
0
100
AcDbSpline
 62
7
  6
BYLAYER
 70
0
 71
3
 72
10
 73
6
 74
0
 42
0.0000001
 43
0.0000001
 44
0.0000000001
 40
0.0
 40
0.0
 40
0.0
 40
0.0
 40
0.2406581245
 40
0.4797361208
 40
1.0
 40
1.0
 40
1.0
 40
1.0
 10
26.1858123306
 20
34.3832374955
 30
0.0
 10
26.1602722896
 20
34.3730075739
 30
0.0
 10
26.1112492761
 20
34.3472268355
 30
0.0
 10
26.0243979815
 20
34.2714510093
 30
0.0
 10
25.9812348538
 20
34.1927663711
 30
0.0
 10
25.9600727808
 20
34.1371805631
 30
0.0
  0
SPLINE
  5
3A0
100
AcDbEntity
  8
0
100
AcDbSpline
 62
7
  6
BYLAYER
 70
0
 71
3
 72
10
 73
6
 74
0
 42
0.0000001
 43
0.0000001
 44
0.0000000001
 40
0.0
 40
0.0
 40
0.0
 40
0.0
 40
0.5202639063
 40
0.7593418768
 40
1.0
 40
1.0
 40
1.0
 40
1.0
 10
25.2248739697
 20
34.1371805631
 30
0.0
 10
25.2037118957
 20
34.192766374
 30
0.0
 10
25.1605487634
 20
34.2714510094
 30
0.0
 10
25.0736974744
 20
34.3472268408
 30
0.0
 10
25.0246744627
 20
34.3730075784
 30
0.0
 10
24.99913442
 20
34.3832374955
 30
0.0
  0
SPLINE
  5
3A1
100
AcDbEntity
  8
0
100
AcDbSpline
 62
7
  6
BYLAYER
 70
0
 71
3
 72
10
 73
6
 74
0
 42
0.0000001
 43
0.0000001
 44
0.0000000001
 40
0.0
 40
0.0
 40
0.0
 40
0.0
 40
0.2406613621
 40
0.4796498056
 40
1.0
 40
1.0
 40
1.0
 40
1.0
 10
18.8109317133
 20
34.3832374955
 30
0.0
 10
18.785392317
 20
34.3730078321
 30
0.0
 10
18.7363701605
 20
34.3472428731
 30
0.0
 10
18.6495836601
 20
34.2714054233
 30
0.0
 10
18.6063569284
 20
34.1927734418
 30
0.0
 10
18.5851921636
 20
34.1371805631
 30
0.0
  0
SPLINE
  5
3A2
100
AcDbEntity
  8
0
100
AcDbSpline
 62
7
  6
BYLAYER
 70
0
 71
3
 72
12
 73
8
 74
0
 42
0.0000001
 43
0.0000001
 44
0.0000000001
 40
0.0
 40
0.0
 40
0.0
 40
0.0
 40
0.3153720615
 40
0.603001946
 40
0.8372596723
 40
0.9284741814
 40
1.0
 40
1.0
 40
1.0
 40
1.0
 10
24.4925330666
 20
34.4450063808
 30
0.0
 10
24.5419212201
 20
34.4450063808
 30
0.0
 10
24.6363748154
 20
34.4431059149
 30
0.0
 10
24.7672368147
 20
34.4345783432
 30
0.0
 10
24.8626730939
 20
34.4228047926
 30
0.0
 10
24.9235353315
 20
34.4100133628
 30
0.0
 10
24.9480498768
 20
34.4027936639
 30
0.0
 10
24.9584956971
 20
34.3987500912
 30
0.0
  0
SPLINE
  5
3A3
100
AcDbEntity
  8
0
100
AcDbSpline
 62
7
  6
BYLAYER
 70
0
 71
3
 72
12
 73
8
 74
0
 42
0.0000001
 43
0.0000001
 44
0.0000000001
 40
0.0
 40
0.0
 40
0.0
 40
0.0
 40
0.2382488885
 40
0.3603671732
 40
0.4846148834
 40
0.7390938533
 40
1.0
 40
1.0
 40
1.0
 40
1.0
 10
17.6675330666
 20
31.8241669958
 30
0.0
 10
17.6675330666
 20
31.853757331
 30
0.0
 10
17.6776770024
 20
31.8991961849
 30
0.0
 10
17.708600719
 20
31.951179471
 30
0.0
 10
17.7506634808
 20
31.9975475236
 30
0.0
 10
17.8205477925
 20
32.0393515422
 30
0.0
 10
17.8851287167
 20
32.0507439426
 30
0.0
 10
17.9175330666
 20
32.0507439426
 30
0.0
  0
SPLINE
  5
3A4
100
AcDbEntity
  8
0
100
AcDbSpline
 62
7
  6
BYLAYER
 70
0
 71
3
 72
11
 73
7
 74
0
 42
0.0000001
 43
0.0000001
 44
0.0000000001
 40
0.0
 40
0.0
 40
0.0
 40
0.0
 40
0.2486424945
 40
0.4980823584
 40
0.748645541
 40
1.0
 40
1.0
 40
1.0
 40
1.0
 10
17.6675330666
 20
34.1361558043
 30
0.0
 10
17.6675330666
 20
34.1683058302
 30
0.0
 10
17.6805966328
 20
34.2334249839
 30
0.0
 10
17.7363454026
 20
34.315555237
 30
0.0
 10
17.8194342788
 20
34.3704316054
 30
0.0
 10
17.8850323778
 20
34.3832374955
 30
0.0
 10
17.9175330666
 20
34.3832374955
 30
0.0
  0
SPLINE
  5
3A5
100
AcDbEntity
  8
0
100
AcDbSpline
 62
7
  6
BYLAYER
 70
0
 71
3
 72
12
 73
8
 74
0
 42
0.0000001
 43
0.0000001
 44
0.0000000001
 40
0.0
 40
0.0
 40
0.0
 40
0.0
 40
0.2609061467
 40
0.5153851166
 40
0.6396328268
 40
0.7617511115
 40
1.0
 40
1.0
 40
1.0
 40
1.0
 10
17.9175330666
 20
34.1371805631
 30
0.0
 10
17.8851287167
 20
34.1371805631
 30
0.0
 10
17.8205477925
 20
34.1257881627
 30
0.0
 10
17.7506634808
 20
34.0839841442
 30
0.0
 10
17.708600719
 20
34.0376160916
 30
0.0
 10
17.6776770024
 20
33.9856328054
 30
0.0
 10
17.6675330666
 20
33.9401939516
 30
0.0
 10
17.6675330666
 20
33.9106036164
 30
0.0
  0
SPLINE
  5
3A6
100
AcDbEntity
  8
0
100
AcDbSpline
 62
7
  6
BYLAYER
 70
0
 71
3
 72
12
 73
8
 74
0
 42
0.0000001
 43
0.0000001
 44
0.0000000001
 40
0.0
 40
0.0
 40
0.0
 40
0.0
 40
0.0715209811
 40
0.1627293556
 40
0.3969977787
 40
0.6846330764
 40
1.0
 40
1.0
 40
1.0
 40
1.0
 10
18.8515704362
 20
34.3987500912
 30
0.0
 10
18.8620155289
 20
34.4027933823
 30
0.0
 10
18.8865295973
 20
34.4100091339
 30
0.0
 10
18.9473935504
 20
34.4227903147
 30
0.0
 10
19.0428288981
 20
34.4345765279
 30
0.0
 10
19.1736921276
 20
34.4431183599
 30
0.0
 10
19.2681458178
 20
34.4450063808
 30
0.0
 10
19.3175330666
 20
34.4450063808
 30
0.0
  0
SPLINE
  5
3A7
100
AcDbEntity
  8
0
100
AcDbSpline
 62
7
  6
BYLAYER
 70
0
 71
3
 72
9
 73
5
 74
0
 42
0.0000001
 43
0.0000001
 44
0.0000000001
 40
0.0
 40
0.0
 40
0.0
 40
0.0
 40
0.2117256902
 40
1.0
 40
1.0
 40
1.0
 40
1.0
 10
24.5086743447
 20
34.804664255
 30
0.0
 10
24.4981753426
 20
34.8055959075
 30
0.0
 10
24.4485511532
 20
34.8095845115
 30
0.0
 10
24.3988363896
 20
34.8123520558
 30
0.0
 10
24.3596386661
 20
34.8142230555
 30
0.0
  0
SPLINE
  5
3A8
100
AcDbEntity
  8
0
100
AcDbSpline
 62
7
  6
BYLAYER
 70
0
 71
3
 72
9
 73
5
 74
0
 42
0.0000001
 43
0.0000001
 44
0.0000000001
 40
0.0
 40
0.0
 40
0.0
 40
0.0
 40
0.4582140672
 40
1.0
 40
1.0
 40
1.0
 40
1.0
 10
24.3596386661
 20
34.8142230555
 30
0.0
 10
24.2848649301
 20
34.817792182
 30
0.0
 10
24.1215585521
 20
34.822983583
 30
0.0
 10
23.9581999821
 20
34.8253717484
 30
0.0
 10
23.8696903554
 20
34.8260313268
 30
0.0
  0
SPLINE
  5
3A9
100
AcDbEntity
  8
0
100
AcDbSpline
 62
7
  6
BYLAYER
 70
0
 71
3
 72
9
 73
5
 74
0
 42
0.0000001
 43
0.0000001
 44
0.0000000001
 40
0.0
 40
0.0
 40
0.0
 40
0.0
 40
0.5417859328
 40
1.0
 40
1.0
 40
1.0
 40
1.0
 10
23.591450741
 20
34.8260313268
 30
0.0
 10
23.5029411143
 20
34.8253717484
 30
0.0
 10
23.3395825444
 20
34.822983583
 30
0.0
 10
23.1762761664
 20
34.817792182
 30
0.0
 10
23.1015024303
 20
34.8142230555
 30
0.0
  0
SPLINE
  5
3AA
100
AcDbEntity
  8
0
100
AcDbSpline
 62
7
  6
BYLAYER
 70
0
 71
3
 72
9
 73
5
 74
0
 42
0.0000001
 43
0.0000001
 44
0.0000000001
 40
0.0
 40
0.0
 40
0.0
 40
0.0
 40
0.2868813267
 40
1.0
 40
1.0
 40
1.0
 40
1.0
 10
23.1015024303
 20
34.8142230555
 30
0.0
 10
23.0872370722
 20
34.8135421363
 30
0.0
 10
23.037521637
 20
34.8109891315
 30
0.0
 10
22.9878284573
 20
34.807802155
 30
0.0
 10
22.9524667517
 20
34.804664255
 30
0.0
  0
SPLINE
  5
3AB
100
AcDbEntity
  8
0
100
AcDbSpline
 62
7
  6
BYLAYER
 70
0
 71
3
 72
10
 73
6
 74
0
 42
0.0000001
 43
0.0000001
 44
0.0000000001
 40
0.0
 40
0.0
 40
0.0
 40
0.0
 40
0.5204295188
 40
0.7594465843
 40
1.0
 40
1.0
 40
1.0
 40
1.0
 10
32.5999933525
 20
34.1371805631
 30
0.0
 10
32.5788264498
 20
34.1927790573
 30
0.0
 10
32.5355638613
 20
34.2714053603
 30
0.0
 10
32.4487736213
 20
34.3472186377
 30
0.0
 10
32.399780433
 20
34.3730129519
 30
0.0
 10
32.3742538027
 20
34.3832374955
 30
0.0
  0
SPLINE
  5
3AC
100
AcDbEntity
  8
0
100
AcDbSpline
 62
7
  6
BYLAYER
 70
0
 71
3
 72
10
 73
6
 74
0
 42
0.0000001
 43
0.0000001
 44
0.0000000001
 40
0.0
 40
0.0
 40
0.0
 40
0.0
 40
0.5754649886
 40
0.8145509731
 40
1.0
 40
1.0
 40
1.0
 40
1.0
 10
23.7305705482
 20
34.7380045839
 30
0.0
 10
23.5621578081
 20
34.7379327821
 30
0.0
 10
23.3237466289
 20
34.7355911853
 30
0.0
 10
23.0312497673
 20
34.7257657483
 30
0.0
 10
22.9071710822
 20
34.7189419441
 30
0.0
 10
22.8530579359
 20
34.71478471
 30
0.0
  0
SPLINE
  5
3AD
100
AcDbEntity
  8
0
100
AcDbSpline
 62
7
  6
BYLAYER
 70
0
 71
3
 72
10
 73
6
 74
0
 42
0.0000001
 43
0.0000001
 44
0.0000000001
 40
0.0
 40
0.0
 40
0.0
 40
0.0
 40
0.1854490269
 40
0.4245350114
 40
1.0
 40
1.0
 40
1.0
 40
1.0
 10
24.6080831606
 20
34.71478471
 30
0.0
 10
24.5539700143
 20
34.7189419441
 30
0.0
 10
24.4298913292
 20
34.7257657483
 30
0.0
 10
24.1373944675
 20
34.7355911853
 30
0.0
 10
23.8989832883
 20
34.7379327821
 30
0.0
 10
23.7305705482
 20
34.7380045839
 30
0.0
  0
SPLINE
  5
3AE
100
AcDbEntity
  8
0
100
AcDbSpline
 62
7
  6
BYLAYER
 70
0
 71
3
 72
9
 73
5
 74
0
 42
0.0000001
 43
0.0000001
 44
0.0000000001
 40
0.0
 40
0.0
 40
0.0
 40
0.0
 40
0.2704182459
 40
1.0
 40
1.0
 40
1.0
 40
1.0
 10
22.9706215498
 20
34.5609224584
 30
0.0
 10
22.9690226865
 20
34.5692651658
 30
0.0
 10
22.9618519736
 20
34.5998468113
 30
0.0
 10
22.9498395273
 20
34.6294046064
 30
0.0
 10
22.9381253897
 20
34.6491027242
 30
0.0
  0
SPLINE
  5
3AF
100
AcDbEntity
  8
0
100
AcDbSpline
 62
7
  6
BYLAYER
 70
0
 71
3
 72
9
 73
5
 74
0
 42
0.0000001
 43
0.0000001
 44
0.0000000001
 40
0.0
 40
0.0
 40
0.0
 40
0.0
 40
0.5635782837
 40
1.0
 40
1.0
 40
1.0
 40
1.0
 10
22.9381253897
 20
34.6491027242
 30
0.0
 10
22.9275226174
 20
34.6669320056
 30
0.0
 10
22.9043566136
 20
34.696583482
 30
0.0
 10
22.8690661046
 20
34.7134576481
 30
0.0
 10
22.8530575682
 20
34.7147847399
 30
0.0
  0
SPLINE
  5
3B0
100
AcDbEntity
  8
0
100
AcDbSpline
 62
7
  6
BYLAYER
 70
0
 71
3
 72
9
 73
5
 74
0
 42
0.0000001
 43
0.0000001
 44
0.0000000001
 40
0.0
 40
0.0
 40
0.0
 40
0.0
 40
0.2702691118
 40
1.0
 40
1.0
 40
1.0
 40
1.0
 10
24.490440744
 20
34.5609069602
 30
0.0
 10
24.4920154466
 20
34.5692345196
 30
0.0
 10
24.4990991879
 20
34.5997823117
 30
0.0
 10
24.5111483729
 20
34.6292767644
 30
0.0
 10
24.5228710311
 20
34.6489290179
 30
0.0
  0
SPLINE
  5
3B1
100
AcDbEntity
  8
0
100
AcDbSpline
 62
7
  6
BYLAYER
 70
0
 71
3
 72
9
 73
5
 74
0
 42
0.0000001
 43
0.0000001
 44
0.0000000001
 40
0.0
 40
0.0
 40
0.0
 40
0.0
 40
0.5640855811
 40
1.0
 40
1.0
 40
1.0
 40
1.0
 10
24.5228710311
 20
34.6489290179
 30
0.0
 10
24.5335270319
 20
34.6667930916
 30
0.0
 10
24.5567463508
 20
34.6964609537
 30
0.0
 10
24.592063982
 20
34.7134567354
 30
0.0
 10
24.6080835276
 20
34.7147847399
 30
0.0
  0
SPLINE
  5
3B2
100
AcDbEntity
  8
0
100
AcDbSpline
 62
7
  6
BYLAYER
 70
0
 71
3
 72
9
 73
5
 74
0
 42
0.0000001
 43
0.0000001
 44
0.0000000001
 40
0.0
 40
0.0
 40
0.0
 40
0.0
 40
0.5196862237
 40
1.0
 40
1.0
 40
1.0
 40
1.0
 10
24.9772320541
 20
34.562963776
 30
0.0
 10
24.9724043414
 20
34.5795544256
 30
0.0
 10
24.9591074101
 20
34.6104722834
 30
0.0
 10
24.9388146186
 20
34.6372004269
 30
0.0
 10
24.9278488201
 20
34.648810033
 30
0.0
  0
SPLINE
  5
3B3
100
AcDbEntity
  8
0
100
AcDbSpline
 62
7
  6
BYLAYER
 70
0
 71
3
 72
9
 73
5
 74
0
 42
0.0000001
 43
0.0000001
 44
0.0000000001
 40
0.0
 40
0.0
 40
0.0
 40
0.0
 40
0.5206710461
 40
1.0
 40
1.0
 40
1.0
 40
1.0
 10
24.9278488201
 20
34.648810033
 30
0.0
 10
24.9088115698
 20
34.6689649698
 30
0.0
 10
24.8641864941
 20
34.7008301024
 30
0.0
 10
24.8110661013
 20
34.7136019994
 30
0.0
 10
24.7855705482
 20
34.7147847698
 30
0.0
  0
SPLINE
  5
3B4
100
AcDbEntity
  8
0
100
AcDbSpline
 62
7
  6
BYLAYER
 70
0
 71
3
 72
9
 73
5
 74
0
 42
0.0000001
 43
0.0000001
 44
0.0000000001
 40
0.0
 40
0.0
 40
0.0
 40
0.0
 40
0.4794823114
 40
1.0
 40
1.0
 40
1.0
 40
1.0
 10
22.6755705482
 20
34.7147847698
 30
0.0
 10
22.6501692329
 20
34.7136063712
 30
0.0
 10
22.5972617685
 20
34.7009259721
 30
0.0
 10
22.5527606445
 20
34.669291726
 30
0.0
 10
22.5337418471
 20
34.6492838522
 30
0.0
  0
SPLINE
  5
3B5
100
AcDbEntity
  8
0
100
AcDbSpline
 62
7
  6
BYLAYER
 70
0
 71
3
 72
9
 73
5
 74
0
 42
0.0000001
 43
0.0000001
 44
0.0000000001
 40
0.0
 40
0.0
 40
0.0
 40
0.0
 40
0.4800501712
 40
1.0
 40
1.0
 40
1.0
 40
1.0
 10
22.5337418471
 20
34.6492838522
 30
0.0
 10
22.5226791318
 20
34.6376458181
 30
0.0
 10
22.5021915446
 20
34.6108063875
 30
0.0
 10
22.4887917608
 20
34.5797065704
 30
0.0
 10
22.4839278608
 20
34.5630089632
 30
0.0
  0
SPLINE
  5
3B6
100
AcDbEntity
  8
0
100
AcDbSpline
 62
7
  6
BYLAYER
 70
0
 71
3
 72
9
 73
5
 74
0
 42
0.0000001
 43
0.0000001
 44
0.0000000001
 40
0.0
 40
0.0
 40
0.0
 40
0.0
 40
0.2117256938
 40
1.0
 40
1.0
 40
1.0
 40
1.0
 10
20.9386743442
 20
34.804664255
 30
0.0
 10
20.9281753419
 20
34.8055959074
 30
0.0
 10
20.8785511527
 20
34.8095845114
 30
0.0
 10
20.8288363893
 20
34.8123520558
 30
0.0
 10
20.7896386661
 20
34.8142230555
 30
0.0
  0
SPLINE
  5
3B7
100
AcDbEntity
  8
0
100
AcDbSpline
 62
7
  6
BYLAYER
 70
0
 71
3
 72
9
 73
5
 74
0
 42
0.0000001
 43
0.0000001
 44
0.0000000001
 40
0.0
 40
0.0
 40
0.0
 40
0.0
 40
0.4582140672
 40
1.0
 40
1.0
 40
1.0
 40
1.0
 10
20.7896386661
 20
34.8142230555
 30
0.0
 10
20.7148649301
 20
34.817792182
 30
0.0
 10
20.5515585521
 20
34.822983583
 30
0.0
 10
20.3881999821
 20
34.8253717484
 30
0.0
 10
20.2996903554
 20
34.8260313268
 30
0.0
  0
SPLINE
  5
3B8
100
AcDbEntity
  8
0
100
AcDbSpline
 62
7
  6
BYLAYER
 70
0
 71
3
 72
9
 73
5
 74
0
 42
0.0000001
 43
0.0000001
 44
0.0000000001
 40
0.0
 40
0.0
 40
0.0
 40
0.0
 40
0.5417859328
 40
1.0
 40
1.0
 40
1.0
 40
1.0
 10
20.021450741
 20
34.8260313268
 30
0.0
 10
19.9329411143
 20
34.8253717484
 30
0.0
 10
19.7695825444
 20
34.822983583
 30
0.0
 10
19.6062761663
 20
34.817792182
 30
0.0
 10
19.5315024303
 20
34.8142230555
 30
0.0
  0
SPLINE
  5
3B9
100
AcDbEntity
  8
0
100
AcDbSpline
 62
7
  6
BYLAYER
 70
0
 71
3
 72
9
 73
5
 74
0
 42
0.0000001
 43
0.0000001
 44
0.0000000001
 40
0.0
 40
0.0
 40
0.0
 40
0.0
 40
0.2868813248
 40
1.0
 40
1.0
 40
1.0
 40
1.0
 10
19.5315024303
 20
34.8142230555
 30
0.0
 10
19.5172370723
 20
34.8135421363
 30
0.0
 10
19.4675216374
 20
34.8109891315
 30
0.0
 10
19.4178284578
 20
34.8078021549
 30
0.0
 10
19.3824667522
 20
34.804664255
 30
0.0
  0
ELLIPSE
  5
3BA
100
AcDbEntity
  8
0
100
AcDbEllipse
 62
7
  6
BYLAYER
 10
32.111000014
 20
34.6713787868
 30
0.0
 11
0.2
 21
0.0
 31
0.0
 40
0.9871308353
 41
0.2343515735
 42
1.5707963268
  0
ELLIPSE
  5
3BB
100
AcDbEntity
  8
0
100
AcDbEllipse
 62
7
  6
BYLAYER
 10
30.001000014
 20
34.6713787868
 30
0.0
 11
0.2
 21
0.0
 31
0.0
 40
0.9871308353
 41
1.5707963268
 42
3.0034887685
  0
ELLIPSE
  5
3BC
100
AcDbEntity
  8
0
100
AcDbEllipse
 62
7
  6
BYLAYER
 10
30.001000014
 20
34.5928928117
 30
0.0
 11
-0.0
 21
0.2002155478
 31
0.0
 40
0.9989234215
 41
0.0
 42
1.5707963268
  0
ELLIPSE
  5
3BD
100
AcDbEntity
  8
0
100
AcDbEllipse
 62
7
  6
BYLAYER
 10
31.056000014
 20
34.8125675431
 30
0.0
 11
0.8781570533
 21
-0.0
 31
0.0
 40
0.0464505211
 41
-2.6443001561
 42
-0.4972924974
  0
ELLIPSE
  5
3BE
100
AcDbEntity
  8
0
100
AcDbEllipse
 62
7
  6
BYLAYER
 10
32.111000014
 20
34.5928928117
 30
0.0
 11
-0.0
 21
0.2002155478
 31
0.0
 40
0.9989234215
 41
-1.5707963268
 42
0.0
  0
ELLIPSE
  5
3BF
100
AcDbEntity
  8
0
100
AcDbEllipse
 62
7
  6
BYLAYER
 10
24.7855705482
 20
34.6445696519
 30
0.0
 11
0.2
 21
0.0
 31
0.0
 40
0.9871308353
 41
-0.0
 42
1.5707963268
  0
ELLIPSE
  5
3C0
100
AcDbEntity
  8
0
100
AcDbEllipse
 62
7
  6
BYLAYER
 10
22.6755705482
 20
34.6445696519
 30
0.0
 11
0.2
 21
-0.0
 31
0.0
 40
0.9871308353
 41
1.5707963268
 42
3.1415926536
  0
ELLIPSE
  5
3C1
100
AcDbEntity
  8
0
100
AcDbEllipse
 62
7
  6
BYLAYER
 10
23.7305705482
 20
34.7857584082
 30
0.0
 11
0.8781570533
 21
0.0
 31
0.0
 40
0.0464505211
 41
-2.6443001561
 42
-0.4972924974
  0
ELLIPSE
  5
3C2
100
AcDbEntity
  8
0
100
AcDbEllipse
 62
7
  6
BYLAYER
 10
24.7855705482
 20
34.5660836768
 30
0.0
 11
0.0
 21
0.2002155478
 31
0.0
 40
0.9989234215
 41
-1.5707963268
 42
0.0
  0
ELLIPSE
  5
3C3
100
AcDbEntity
  8
0
100
AcDbEllipse
 62
7
  6
BYLAYER
 10
22.6755705482
 20
34.5660836768
 30
0.0
 11
-0.0
 21
0.2002155478
 31
0.0
 40
0.9989234215
 41
-0.0
 42
1.5707963268
  0
ELLIPSE
  5
3C4
100
AcDbEntity
  8
0
100
AcDbEllipse
 62
7
  6
BYLAYER
 10
21.2155705482
 20
34.6445696519
 30
0.0
 11
0.2
 21
-0.0
 31
0.0
 40
0.9871308353
 41
-0.0
 42
1.5707963268
  0
ELLIPSE
  5
3C5
100
AcDbEntity
  8
0
100
AcDbEllipse
 62
7
  6
BYLAYER
 10
19.1055705482
 20
34.6445696519
 30
0.0
 11
0.2
 21
-0.0
 31
0.0
 40
0.9871308353
 41
1.5707963268
 42
3.1415926536
  0
ELLIPSE
  5
3C6
100
AcDbEntity
  8
0
100
AcDbEllipse
 62
7
  6
BYLAYER
 10
19.1055705482
 20
34.5660836768
 30
0.0
 11
0.0
 21
-0.2002155478
 31
0.0
 40
0.9989234215
 41
9.4247779608
 42
10.9955742876
  0
ELLIPSE
  5
3C7
100
AcDbEntity
  8
0
100
AcDbEllipse
 62
7
  6
BYLAYER
 10
21.2155705482
 20
34.5660836768
 30
0.0
 11
0.0
 21
0.2002155478
 31
0.0
 40
0.9989234215
 41
4.7123889804
 42
6.2831853072
  0
ELLIPSE
  5
3C8
100
AcDbEntity
  8
0
100
AcDbEllipse
 62
7
  6
BYLAYER
 10
20.1605705482
 20
34.7857584082
 30
0.0
 11
0.8781570533
 21
0.0
 31
0.0
 40
0.0464505211
 41
-2.6443001561
 42
-0.4972924974
  0
ELLIPSE
  5
3C9
100
AcDbEntity
  8
0
100
AcDbEllipse
 62
7
  6
BYLAYER
 10
28.541000014
 20
34.6713787868
 30
0.0
 11
0.2
 21
0.0
 31
0.0
 40
0.9871308353
 41
0.2551759136
 42
1.5707963268
  0
ELLIPSE
  5
3CA
100
AcDbEntity
  8
0
100
AcDbEllipse
 62
7
  6
BYLAYER
 10
26.431000014
 20
34.6713787868
 30
0.0
 11
0.2
 21
-0.0
 31
0.0
 40
0.9871308353
 41
1.5707963268
 42
3.0034887685
  0
ELLIPSE
  5
3CB
100
AcDbEntity
  8
0
100
AcDbEllipse
 62
7
  6
BYLAYER
 10
27.486000014
 20
34.8125675431
 30
0.0
 11
0.8781570533
 21
0.0
 31
0.0
 40
0.0464505211
 41
-2.6443001561
 42
-0.4972924974
  0
ELLIPSE
  5
3CC
100
AcDbEntity
  8
0
100
AcDbEllipse
 62
7
  6
BYLAYER
 10
26.431000014
 20
34.5928928117
 30
0.0
 11
0.0
 21
-0.2002155478
 31
0.0
 40
0.9989234215
 41
9.4247779608
 42
10.9955742876
  0
ELLIPSE
  5
3CD
100
AcDbEntity
  8
0
100
AcDbEllipse
 62
7
  6
BYLAYER
 10
28.541000014
 20
34.5928928117
 30
0.0
 11
0.0
 21
0.2002155478
 31
0.0
 40
0.9989234215
 41
4.7123889804
 42
6.2831853072
  0
ELLIPSE
  5
3CE
100
AcDbEntity
  8
0
100
AcDbEllipse
 62
7
  6
BYLAYER
 10
26.6925330666
 20
33.0792575577
 30
0.0
 11
0.5
 21
-0.0
 31
0.0
 40
0.4663076582
 41
-2.760470415
 42
-1.5707963268
  0
ELLIPSE
  5
3CF
100
AcDbEntity
  8
0
100
AcDbEllipse
 62
7
  6
BYLAYER
 10
24.4925330666
 20
33.0792575577
 30
0.0
 11
0.5
 21
0.0
 31
0.0
 40
0.4663076582
 41
-1.5707963268
 42
-0.3687438672
  0
ELLIPSE
  5
3D0
100
AcDbEntity
  8
0
100
AcDbEllipse
 62
7
  6
BYLAYER
 10
19.3175330666
 20
33.0792575577
 30
0.0
 11
0.5
 21
-0.0
 31
0.0
 40
0.4663076582
 41
-2.7728487864
 42
-1.5707963268
  0
ELLIPSE
  5
3D1
100
AcDbEntity
  8
0
100
AcDbEllipse
 62
7
  6
BYLAYER
 10
30.0070558327
 20
48.2201525879
 30
0.0
 11
0.2
 21
0.0
 31
0.0
 40
0.9871308353
 41
1.5707963268
 42
3.0725843225
  0
ELLIPSE
  5
3D2
100
AcDbEntity
  8
0
100
AcDbEllipse
 62
7
  6
BYLAYER
 10
31.8675330666
 20
33.0792575577
 30
0.0
 11
0.5
 21
0.0
 31
0.0
 40
0.4663076582
 41
-1.5707963268
 42
-0.3811222386
  0
ELLIPSE
  5
3D3
100
AcDbEntity
  8
0
100
AcDbEllipse
 62
7
  6
BYLAYER
 10
26.4370558327
 20
48.2201525879
 30
0.0
 11
0.2
 21
0.0
 31
0.0
 40
0.9871308353
 41
1.5707963268
 42
3.0725843225
  0
ELLIPSE
  5
3D4
100
AcDbEntity
  8
0
100
AcDbEllipse
 62
7
  6
BYLAYER
 10
28.5470558327
 20
48.2201525879
 30
0.0
 11
0.2
 21
0.0
 31
0.0
 40
0.9871308353
 41
0.0690147978
 42
1.5707963268
  0
ELLIPSE
  5
3D5
100
AcDbEntity
  8
0
100
AcDbEllipse
 62
7
  6
BYLAYER
 10
28.541000014
 20
34.6300445145
 30
0.0
 11
0.0
 21
-0.2002155478
 31
0.0
 40
0.9989234215
 41
7.853981634
 42
9.4247779608
  0
ELLIPSE
  5
3D6
100
AcDbEntity
  8
0
100
AcDbEllipse
 62
7
  6
BYLAYER
 10
26.431000014
 20
34.6300445145
 30
0.0
 11
0.0
 21
0.2002155478
 31
0.0
 40
0.9989234215
 41
6.2831853072
 42
7.853981634
  0
ELLIPSE
  5
3D7
100
AcDbEntity
  8
0
100
AcDbEllipse
 62
7
  6
BYLAYER
 10
32.111000014
 20
34.6300445145
 30
0.0
 11
-0.0
 21
0.2002155478
 31
0.0
 40
0.9989234215
 41
-1.5707963268
 42
0.0
  0
ELLIPSE
  5
3D8
100
AcDbEntity
  8
0
100
AcDbEllipse
 62
7
  6
BYLAYER
 10
30.001000014
 20
34.6300445145
 30
0.0
 11
0.0
 21
0.2002155478
 31
0.0
 40
0.9989234215
 41
0.0
 42
1.5707963268
  0
ELLIPSE
  5
3D9
100
AcDbEntity
  8
0
100
AcDbEllipse
 62
7
  6
BYLAYER
 10
28.2700351218
 20
33.7787351008
 30
0.0
 11
4.3976608227
 21
-0.0
 31
0.0
 40
0.4663076582
 41
5.8897221928
 42
6.4588827856
  0
ELLIPSE
  5
3DA
100
AcDbEntity
  8
0
100
AcDbEllipse
 62
7
  6
BYLAYER
 10
30.2900310115
 20
33.7787351008
 30
0.0
 11
4.3976608227
 21
0.0
 31
0.0
 40
0.4663076582
 41
2.9658951752
 42
3.5350557679
  0
ELLIPSE
  5
3DB
100
AcDbEntity
  8
0
100
AcDbEllipse
 62
7
  6
BYLAYER
 10
20.894915739
 20
33.7787351008
 30
0.0
 11
4.3976608227
 21
-0.0
 31
0.0
 40
0.4663076582
 41
5.8911397319
 42
6.4588827856
  0
ELLIPSE
  5
3DC
100
AcDbEntity
  8
0
100
AcDbEllipse
 62
7
  6
BYLAYER
 10
22.9151503942
 20
33.7787351008
 30
0.0
 11
4.3976608227
 21
0.0
 31
0.0
 40
0.4663076582
 41
2.9658951752
 42
3.5336382289
  0
ELLIPSE
  5
3DD
100
AcDbEntity
  8
0
100
AcDbEllipse
 62
7
  6
BYLAYER
 10
24.7855705482
 20
34.6032353796
 30
0.0
 11
0.0
 21
0.2002155478
 31
0.0
 40
0.9989234215
 41
-1.5707963268
 42
0.0
  0
ELLIPSE
  5
3DE
100
AcDbEntity
  8
0
100
AcDbEllipse
 62
7
  6
BYLAYER
 10
22.6755705482
 20
34.6032353796
 30
0.0
 11
0.0
 21
0.2002155478
 31
0.0
 40
0.9989234215
 41
-0.0
 42
1.5707963268
  0
ELLIPSE
  5
3DF
100
AcDbEntity
  8
0
100
AcDbEllipse
 62
7
  6
BYLAYER
 10
21.2155705482
 20
34.6032353796
 30
0.0
 11
0.0
 21
-0.2002155478
 31
0.0
 40
0.9989234215
 41
7.853981634
 42
9.4247779608
  0
ELLIPSE
  5
3E0
100
AcDbEntity
  8
0
100
AcDbEllipse
 62
7
  6
BYLAYER
 10
19.1055705482
 20
34.6032353796
 30
0.0
 11
0.0
 21
0.2002155478
 31
0.0
 40
0.9989234215
 41
6.2831853072
 42
7.853981634
  0
ENDSEC
  0
SECTION
  2
OBJECTS
  0
DICTIONARY
  5
C
100
AcDbDictionary
280
0
281
1
  3
ACAD_GROUP
350
D
  3
ACAD_MLINESTYLE
350
17
  3
ACAD_LAYOUT
350
1A
  3
ACAD_PLOTSETTINGS
350
19
  3
ACAD_PLOTSTYLENAME
350
E
  0
DICTIONARY
  5
D
102
{ACAD_REACTORS
330
C
102
}
100
AcDbDictionary
280
0
281
1
  0
ACDBDICTIONARYWDFLT
  5
E
102
{ACAD_REACTORS
330
C
102
}
100
AcDbDictionary
281
1
  3
Normal
350
F
100
AcDbDictionaryWithDefault
340
F
  0
DICTIONARY
  5
17
102
{ACAD_REACTORS
330
C
102
}
100
AcDbDictionary
280
0
281
1
  3
Standard
350
18
  0
DICTIONARY
  5
19
102
{ACAD_REACTORS
330
C
102
}
100
AcDbDictionary
281
1
  0
DICTIONARY
  5
1A
102
{ACAD_REACTORS
330
C
102
}
100
AcDbDictionary
281
1
  3
Model
350
3E1
  3
Layout1
350
3E2
  0
ACDBPLACEHOLDER
  5
F
102
{ACAD_REACTORS
330
E
102
}
  0
MLINESTYLE
  5
18
102
{ACAD_REACTORS
330
17
102
}
100
AcDbMlineStyle
  2
STANDARD
 70
0
  3

 62
256
 51
90.0
 52
90.0
 71
2
 49
0.5
 62
256
  6
BYLAYER
 49
-0.5
 62
256
  6
BYLAYER
  0
LAYOUT
  5
3E1
102
{ACAD_REACTORS
330
1A
102
}
100
AcDbPlotSettings
  1

  2
none_device
  4

  6

 40
0.0
 41
0.0
 42
0.0
 43
0.0
 44
210.0
 45
297.0
 46
0.0
 47
0.0
 48
0.0
 49
0.0
140
0.0
141
0.0
142
1.0
143
1.0
 70
1024
 72
1
 73
0
 74
0
  7

 75
0
147
1.0
148
0.0
149
0.0
100
AcDbLayout
  1
Model
 70
0
 71
0
 10
0.0
 20
0.0
 11
210.0
 21
297.0
 12
0.0
 22
0.0
 32
0.0
 14
0.0
 24
0.0
 34
0.0
 15
0.0
 25
0.0
 35
0.0
146
0.0
 13
0.0
 23
0.0
 33
0.0
 16
1.0
 26
0.0
 36
0.0
 17
0.0
 27
1.0
 37
0.0
 76
0
330
210
345
0
346
0
  0
LAYOUT
  5
3E2
102
{ACAD_REACTORS
330
1A
102
}
100
AcDbPlotSettings
  1

  2
none_device
  4

  6

 40
0.0
 41
0.0
 42
0.0
 43
0.0
 44
210.0
 45
297.0
 46
0.0
 47
0.0
 48
0.0
 49
0.0
140
0.0
141
0.0
142
1.0
143
1.0
 70
0
 72
1
 73
0
 74
0
  7

 75
0
147
1.0
148
0.0
149
0.0
100
AcDbLayout
  1
Layout1
 70
0
 71
1
 10
0.0
 20
0.0
 11
210.0
 21
297.0
 12
0.0
 22
0.0
 32
0.0
 14
0.0
 24
0.0
 34
0.0
 15
0.0
 25
0.0
 35
0.0
146
0.0
 13
0.0
 23
0.0
 33
0.0
 16
1.0
 26
0.0
 36
0.0
 17
0.0
 27
1.0
 37
0.0
 76
0
330
211
345
0
346
0
  0
ENDSEC
  0
EOF
