999
DXF file: C:\Users\sesa63760\Dev\_Creo\CAD\MCADPD0004128_3D-CAD\drw0001_4.dxf
999
Pro/ENGINEER 2019471 by Parametric Technology Corporation
  0
SECTION
  2
HEADER
  9
$ACADVER
  1
AC1024
  9
$DWGCODEPAGE
  3
ANSI_1252
  9
$EXTMAX
 10
111.4162755992
 20
157.5744469189
 30
0.0
  9
$EXTMIN
 10
0.0
 20
0.0
 30
0.0
  9
$LIMMIN
 10
0.0
 20
0.0
  9
$LIMMAX
 10
111.4162755992
 20
157.5744469189
  9
$VIEWCTR
 10
55.7081377996
 20
78.7872234595
  9
$VIEWSIZE
 40
157.5744469189
  9
$CLAYER
  8
0
  9
$LTSCALE
 40
10.2715195029
  9
$CELTYPE
  6
BYLAYER
  9
$DIMSCALE
 40
1.0
  9
$DIMASZ
 40
1.3263842333
  9
$DIMEXO
 40
1.0
  9
$DIMDLI
 40
7.096686202
  9
$DIMEXE
 40
1.0
  9
$DIMCEN
 40
1.6807941005
  9
$DIMLFAC
 40
1.0
  9
$DIMBLK
  1
_FILLED
  9
$DIMALT
 70
0
  9
$DIMALTF
 40
0.0393700787
  9
$DIMTXT
 40
1.8569379267
  9
$DIMTOL
 70
1
  9
$DIMLIM
 70
0
  9
$DIMTFAC
 40
1.0
  9
$DIMTP
 40
0.01
  9
$DIMTM
 40
0.01
  9
$DIMGAP
 40
0.625
  9
$DIMDSEP
 70
46
  9
$AUNITS
 70
0
  9
$PDMODE
 70
3
  9
$PDSIZE
 40
0.3125
  9
$HANDSEED
  5
386
  9
$TILEMODE
 70
1
  9
$MEASUREMENT
 70
1
  9
$INSUNITS
 70
4
  0
ENDSEC
  0
SECTION
  2
CLASSES
  0
CLASS
  1
ACDBDICTIONARYWDFLT
  2
AcDbDictionaryWithDefault
  3
AutoCAD 2000
 90
0
 91
1
280
0
281
0
  0
CLASS
  1
ACDBPLACEHOLDER
  2
AcDbPlaceHolder
  3
AutoCAD 2000
 90
0
 91
1
280
0
281
0
  0
CLASS
  1
LAYOUT
  2
AcDbLayout
  3
AutoCAD 2000
 90
0
 91
0
280
0
281
0
  0
ENDSEC
  0
SECTION
  2
TABLES
  0
TABLE
  2
VPORT
  5
8
100
AcDbSymbolTable
 70
2
  0
VPORT
  5
1F4
100
AcDbSymbolTableRecord
100
AcDbViewportTableRecord
  2
*ACTIVE
 70
0
 10
0.0
 20
0.0
 11
1.0
 21
1.0
 12
55.7081377996
 22
78.7872234595
 13
0.0
 23
0.0
 14
1.0
 24
1.0
 15
0.0
 25
0.0
 16
0.0
 26
0.0
 36
1.0
 17
0.0
 27
0.0
 37
0.0
 40
157.5744469189
 41
0.7070707071
 42
50.0
 43
0.0
 44
0.0
 50
0.0
 51
0.0
 71
0
 72
100
 73
1
 74
1
 75
0
 76
0
 77
0
 78
0
  0
ENDTAB
  0
TABLE
  2
LTYPE
  5
5
100
AcDbSymbolTable
 70
6
  0
LTYPE
  5
14
100
AcDbSymbolTableRecord
100
AcDbLinetypeTableRecord
  2
BYBLOCK
 70
0
  3

 72
65
 73
0
 40
0.0
  0
LTYPE
  5
15
100
AcDbSymbolTableRecord
100
AcDbLinetypeTableRecord
  2
BYLAYER
 70
0
  3

 72
65
 73
0
 40
0.0
  0
LTYPE
  5
16
100
AcDbSymbolTableRecord
100
AcDbLinetypeTableRecord
  2
CONTINUOUS
 70
64
  3
Solid line
 72
65
 73
0
 40
0.0
  0
LTYPE
  5
1F5
100
AcDbSymbolTableRecord
100
AcDbLinetypeTableRecord
  2
CENTER
 70
64
  3
____ _ ____ _ ____ _ ____ _ ____ _ ____ _ ____
 72
65
 73
4
 40
0.6
 49
0.375
 74
0
 49
-0.075
 74
0
 49
0.075
 74
0
 49
-0.075
 74
0
  0
LTYPE
  5
1F6
100
AcDbSymbolTableRecord
100
AcDbLinetypeTableRecord
  2
HIDDEN
 70
64
  3
- - - - - - - - - - - - - - - - - - - -
 72
65
 73
2
 40
0.2
 49
0.1
 74
0
 49
-0.1
 74
0
  0
LTYPE
  5
1F7
100
AcDbSymbolTableRecord
100
AcDbLinetypeTableRecord
  2
PHANTOM
 70
64
  3
_____ _ _ _____ _ _ _____ _ _ _____
 72
65
 73
6
 40
0.8
 49
0.45
 74
0
 49
-0.05
 74
0
 49
0.1
 74
0
 49
-0.05
 74
0
 49
0.1
 74
0
 49
-0.05
 74
0
  0
LTYPE
  5
1F8
100
AcDbSymbolTableRecord
100
AcDbLinetypeTableRecord
  2
DOT
 70
64
  3
. . . . . . . . . . . . . . . . . . . .
 72
65
 73
2
 40
0.2
 49
0.1
 74
0
 49
-0.1
 74
0
  0
LTYPE
  5
1F9
100
AcDbSymbolTableRecord
100
AcDbLinetypeTableRecord
  2
DASHED
 70
64
  3
- - - - - - - - - - - - - - - - - - - -
 72
65
 73
2
 40
0.2
 49
0.1
 74
0
 49
-0.1
 74
0
  0
ENDTAB
  0
TABLE
  2
LAYER
  5
2
100
AcDbSymbolTable
 70
36
  0
LAYER
  5
10
100
AcDbSymbolTableRecord
100
AcDbLayerTableRecord
  2
0
 70
0
 62
7
  6
CONTINUOUS
370
-3
390
F
  0
LAYER
  5
1FA
100
AcDbSymbolTableRecord
100
AcDbLayerTableRecord
  2
DEFAULT_1
 70
0
 62
7
  6
CENTER
370
-3
390
F
  0
LAYER
  5
1FB
100
AcDbSymbolTableRecord
100
AcDbLayerTableRecord
  2
DEFAULT_2
 70
0
 62
7
  6
HIDDEN
370
-3
390
F
  0
LAYER
  5
1FC
100
AcDbSymbolTableRecord
100
AcDbLayerTableRecord
  2
DEFAULT_3
 70
0
 62
7
  6
PHANTOM
370
-3
390
F
  0
LAYER
  5
1FD
100
AcDbSymbolTableRecord
100
AcDbLayerTableRecord
  2
00_COMPONENTS
 70
0
 62
7
  6
CONTINUOUS
370
-3
390
F
  0
LAYER
  5
1FE
100
AcDbSymbolTableRecord
100
AcDbLayerTableRecord
  2
01_1_DEFAULT_DATUMS
 70
0
 62
7
  6
CONTINUOUS
370
-3
390
F
  0
LAYER
  5
1FF
100
AcDbSymbolTableRecord
100
AcDbLayerTableRecord
  2
01_PLANES
 70
0
 62
7
  6
CONTINUOUS
370
-3
390
F
  0
LAYER
  5
200
100
AcDbSymbolTableRecord
100
AcDbLayerTableRecord
  2
02_COORD_SYS
 70
0
 62
7
  6
CONTINUOUS
370
-3
390
F
  0
LAYER
  5
201
100
AcDbSymbolTableRecord
100
AcDbLayerTableRecord
  2
03_AXES
 70
0
 62
7
  6
CONTINUOUS
370
-3
390
F
  0
LAYER
  5
202
100
AcDbSymbolTableRecord
100
AcDbLayerTableRecord
  2
04_POINTS
 70
0
 62
7
  6
CONTINUOUS
370
-3
390
F
  0
LAYER
  5
203
100
AcDbSymbolTableRecord
100
AcDbLayerTableRecord
  2
05_CURVES
 70
0
 62
7
  6
CONTINUOUS
370
-3
390
F
  0
LAYER
  5
204
100
AcDbSymbolTableRecord
100
AcDbLayerTableRecord
  2
06_SURFS
 70
0
 62
7
  6
CONTINUOUS
370
-3
390
F
  0
LAYER
  5
205
100
AcDbSymbolTableRecord
100
AcDbLayerTableRecord
  2
07_COSMETICS
 70
0
 62
7
  6
CONTINUOUS
370
-3
390
F
  0
LAYER
  5
206
100
AcDbSymbolTableRecord
100
AcDbLayerTableRecord
  2
10_NOTES
 70
0
 62
7
  6
CONTINUOUS
370
-3
390
F
  0
LAYER
  5
207
100
AcDbSymbolTableRecord
100
AcDbLayerTableRecord
  2
11_NOTES_PUB
 70
0
 62
7
  6
CONTINUOUS
370
-3
390
F
  0
LAYER
  5
208
100
AcDbSymbolTableRecord
100
AcDbLayerTableRecord
  2
13_REF_GTOL
 70
0
 62
7
  6
CONTINUOUS
370
-3
390
F
  0
LAYER
  5
209
100
AcDbSymbolTableRecord
100
AcDbLayerTableRecord
  2
16_MISC
 70
0
 62
7
  6
CONTINUOUS
370
-3
390
F
  0
LAYER
  5
20A
100
AcDbSymbolTableRecord
100
AcDbLayerTableRecord
  2
17_NO_PRINT
 70
0
 62
7
  6
CONTINUOUS
370
-3
390
F
  0
LAYER
  5
20B
100
AcDbSymbolTableRecord
100
AcDbLayerTableRecord
  2
18_DATUM_CAMS_JOINTS
 70
0
 62
7
  6
CONTINUOUS
370
-3
390
F
  0
LAYER
  5
20C
100
AcDbSymbolTableRecord
100
AcDbLayerTableRecord
  2
19_DATUM_FUNCTIONAL
 70
0
 62
7
  6
CONTINUOUS
370
-3
390
F
  0
LAYER
  5
20D
100
AcDbSymbolTableRecord
100
AcDbLayerTableRecord
  2
20_DATUM_KINEMATIC_SCHEME
 70
0
 62
7
  6
CONTINUOUS
370
-3
390
F
  0
ENDTAB
  0
TABLE
  2
STYLE
  5
3
100
AcDbSymbolTable
 70
1
  0
STYLE
  5
11
100
AcDbSymbolTableRecord
100
AcDbTextStyleTableRecord
  2
STANDARD
 70
0
 40
0.0
 41
1.0
 50
0.0
 71
0
 42
0.2
  3
ARIAL.TTF
  4

  0
STYLE
  5
20E
100
AcDbSymbolTableRecord
100
AcDbTextStyleTableRecord
  2
TEXTSTYLE_1
 70
0
 40
0.0
 41
0.8
 50
0.0
 71
0
 42
0.2
  3
gdt
  4

  0
ENDTAB
  0
TABLE
  2
VIEW
  5
6
100
AcDbSymbolTable
 70
0
  0
ENDTAB
  0
TABLE
  2
UCS
  5
7
100
AcDbSymbolTable
 70
0
  0
ENDTAB
  0
TABLE
  2
APPID
  5
9
100
AcDbSymbolTable
 70
1
  0
APPID
  5
20F
100
AcDbSymbolTableRecord
100
AcDbRegAppTableRecord
  2
ACAD
 70
0
  0
ENDTAB
  0
TABLE
  2
BLOCK_RECORD
  5
1
100
AcDbSymbolTable
 70
0
  0
BLOCK_RECORD
  5
210
100
AcDbSymbolTableRecord
100
AcDbBlockTableRecord
  2
*Model_Space
  0
BLOCK_RECORD
  5
211
100
AcDbSymbolTableRecord
100
AcDbBlockTableRecord
  2
*Paper_Space
  0
BLOCK_RECORD
  5
212
100
AcDbSymbolTableRecord
100
AcDbBlockTableRecord
  2
_FILLED
  0
ENDTAB
  0
TABLE
  2
DIMSTYLE
  5
A
100
AcDbSymbolTable
 70
1
100
AcDbDimStyleTable
 71
0
  0
DIMSTYLE
105
213
100
AcDbSymbolTableRecord
100
AcDbDimStyleTableRecord
  2
STANDARD
 70
0
  3

  4

 40
1.0
 41
1.3263842333
 42
1.0
 43
0.38
 44
1.0
 45
0.0
 46
0.0
 47
0.01
 48
0.01
140
1.8569379267
141
0.09
142
0.0
143
25.4
144
1.0
145
0.0
146
1.0
147
0.625
 71
1
 72
0
 73
0
 74
0
 75
0
 76
0
 77
1
 78
8
 79
2
170
0
171
1
172
0
173
0
174
0
175
0
176
0
177
0
178
0
270
2
179
2
271
2
272
2
273
2
274
2
275
0
280
0
281
0
282
0
283
1
284
8
285
0
286
0
287
3
288
0
340
11
278
46
341
212
342
212
343
212
344
212
  0
ENDTAB
  0
ENDSEC
  0
SECTION
  2
BLOCKS
  0
BLOCK
  5
20
100
AcDbEntity
  8
0
100
AcDbBlockBegin
  2
*Model_Space
 70
0
 10
0.0
 20
0.0
 30
0.0
  3
*Model_Space
  1

  0
ENDBLK
  5
21
100
AcDbEntity
  8
0
100
AcDbBlockEnd
  0
BLOCK
  5
1C
100
AcDbEntity
  8
0
100
AcDbBlockBegin
  2
*Paper_Space
 70
0
 10
0.0
 20
0.0
 30
0.0
  3
*Paper_Space
  1

  0
ENDBLK
  5
1D
100
AcDbEntity
  8
0
100
AcDbBlockEnd
  0
BLOCK
  5
214
100
AcDbEntity
  8
0
100
AcDbBlockBegin
  2
_FILLED
 70
64
 10
0.0
 20
0.0
  3
_FILLED
  1

  0
SOLID
  5
215
100
AcDbEntity
  8
0
  6
BYBLOCK
 62
0
100
AcDbTrace
 10
0.0
 20
0.0
 11
-1.0
 21
0.25
 12
-1.0
 22
-0.25
 13
-1.0
 23
-0.25
  0
ENDBLK
  5
216
100
AcDbEntity
  8
0
  6
BYBLOCK
 62
0
100
AcDbBlockEnd
  0
ENDSEC
  0
SECTION
  2
ENTITIES
  0
LINE
  5
217
100
AcDbEntity
  8
0
100
AcDbLine
 62
7
  6
BYLAYER
 10
12.4134128378
 20
42.3888510222
 11
12.4134128378
 21
114.2050495093
  0
LINE
  5
218
100
AcDbEntity
  8
0
100
AcDbLine
 62
7
  6
BYLAYER
 10
12.4634128378
 20
52.7050495093
 11
12.4634128378
 21
104.3050495093
  0
LINE
  5
219
100
AcDbEntity
  8
0
100
AcDbLine
 62
7
  6
BYLAYER
 10
12.8994042487
 20
63.9050495093
 11
12.8994042487
 21
93.1609632194
  0
LINE
  5
21A
100
AcDbEntity
  8
0
100
AcDbLine
 62
7
  6
BYLAYER
 10
13.2375380148
 20
42.5550495093
 11
13.2375380148
 21
52.7050495093
  0
LINE
  5
21B
100
AcDbEntity
  8
0
100
AcDbLine
 62
7
  6
BYLAYER
 10
13.3149549648
 20
114.2050495093
 11
13.3149549648
 21
104.3050495093
  0
LINE
  5
21C
100
AcDbEntity
  8
0
100
AcDbLine
 62
7
  6
BYLAYER
 10
13.3278931609
 20
52.7050495093
 11
13.3278931609
 21
63.9050495093
  0
LINE
  5
21D
100
AcDbEntity
  8
0
100
AcDbLine
 62
7
  6
BYLAYER
 10
13.3384271389
 20
104.3050495093
 11
13.3384271389
 21
93.353515339
  0
LINE
  5
21E
100
AcDbEntity
  8
0
100
AcDbLine
 62
7
  6
BYLAYER
 10
17.8945776523
 20
109.7041476141
 11
17.8945776523
 21
108.2041476141
  0
LINE
  5
21F
100
AcDbEntity
  8
0
100
AcDbLine
 62
7
  6
BYLAYER
 10
17.8945776523
 20
48.7059514045
 11
17.8945776523
 21
47.2059514045
  0
LINE
  5
220
100
AcDbEntity
  8
0
100
AcDbLine
 62
7
  6
BYLAYER
 10
20.1445776523
 20
111.9541476141
 11
20.1445776523
 21
109.7041476141
  0
LINE
  5
221
100
AcDbEntity
  8
0
100
AcDbLine
 62
7
  6
BYLAYER
 10
20.1445776523
 20
108.2041476141
 11
20.1445776523
 21
105.9541476141
  0
LINE
  5
222
100
AcDbEntity
  8
0
100
AcDbLine
 62
7
  6
BYLAYER
 10
20.1445776523
 20
50.9559514045
 11
20.1445776523
 21
48.7059514045
  0
LINE
  5
223
100
AcDbEntity
  8
0
100
AcDbLine
 62
7
  6
BYLAYER
 10
20.1445776523
 20
47.2059514045
 11
20.1445776523
 21
44.9559514045
  0
LINE
  5
224
100
AcDbEntity
  8
0
100
AcDbLine
 62
7
  6
BYLAYER
 10
21.6445776523
 20
44.9559514045
 11
21.6445776523
 21
47.2059514045
  0
LINE
  5
225
100
AcDbEntity
  8
0
100
AcDbLine
 62
7
  6
BYLAYER
 10
21.6445776523
 20
48.7059514045
 11
21.6445776523
 21
50.9559514045
  0
LINE
  5
226
100
AcDbEntity
  8
0
100
AcDbLine
 62
7
  6
BYLAYER
 10
21.6445776523
 20
105.9541476141
 11
21.6445776523
 21
108.2041476141
  0
LINE
  5
227
100
AcDbEntity
  8
0
100
AcDbLine
 62
7
  6
BYLAYER
 10
21.6445776523
 20
109.7041476141
 11
21.6445776523
 21
111.9541476141
  0
LINE
  5
228
100
AcDbEntity
  8
0
100
AcDbLine
 62
7
  6
BYLAYER
 10
12.4117775988
 20
42.5550495093
 11
101.9004022269
 21
42.5550495093
  0
LINE
  5
229
100
AcDbEntity
  8
0
100
AcDbLine
 62
7
  6
BYLAYER
 10
23.8945776523
 20
47.2059514045
 11
23.8945776523
 21
48.7059514045
  0
LINE
  5
22A
100
AcDbEntity
  8
0
100
AcDbLine
 62
7
  6
BYLAYER
 10
23.8945776523
 20
108.2041476141
 11
23.8945776523
 21
109.7041476141
  0
LINE
  5
22B
100
AcDbEntity
  8
0
100
AcDbLine
 62
7
  6
BYLAYER
 10
64.9367212513
 20
44.9303556574
 11
66.4367212513
 21
44.9303556574
  0
LINE
  5
22C
100
AcDbEntity
  8
0
100
AcDbLine
 62
7
  6
BYLAYER
 10
92.9443956665
 20
44.9550495093
 11
94.4443956665
 21
44.9550495093
  0
LINE
  5
22D
100
AcDbEntity
  8
0
100
AcDbLine
 62
7
  6
BYLAYER
 10
34.1445740985
 20
44.9550636219
 11
35.6445740985
 21
44.9550636219
  0
LINE
  5
22E
100
AcDbEntity
  8
0
100
AcDbLine
 62
7
  6
BYLAYER
 10
20.1445776523
 20
44.9559514045
 11
21.6445776523
 21
44.9559514045
  0
LINE
  5
22F
100
AcDbEntity
  8
0
100
AcDbLine
 62
7
  6
BYLAYER
 10
78.9485332408
 20
44.9582932882
 11
80.4485332408
 21
44.9582932882
  0
LINE
  5
230
100
AcDbEntity
  8
0
100
AcDbLine
 62
7
  6
BYLAYER
 10
48.1547868256
 20
44.9689281151
 11
49.6547868256
 21
44.9689281151
  0
LINE
  5
231
100
AcDbEntity
  8
0
100
AcDbLine
 62
7
  6
BYLAYER
 10
62.6867212513
 20
47.1803556574
 11
64.9367212513
 21
47.1803556574
  0
LINE
  5
232
100
AcDbEntity
  8
0
100
AcDbLine
 62
7
  6
BYLAYER
 10
66.4367212513
 20
47.1803556574
 11
68.6867212513
 21
47.1803556574
  0
LINE
  5
233
100
AcDbEntity
  8
0
100
AcDbLine
 62
7
  6
BYLAYER
 10
90.6943956665
 20
47.2050495093
 11
92.9443956665
 21
47.2050495093
  0
LINE
  5
234
100
AcDbEntity
  8
0
100
AcDbLine
 62
7
  6
BYLAYER
 10
94.4443956665
 20
47.2050495093
 11
96.6943956665
 21
47.2050495093
  0
LINE
  5
235
100
AcDbEntity
  8
0
100
AcDbLine
 62
7
  6
BYLAYER
 10
31.8945740985
 20
47.2050636219
 11
34.1445740985
 21
47.2050636219
  0
LINE
  5
236
100
AcDbEntity
  8
0
100
AcDbLine
 62
7
  6
BYLAYER
 10
35.6445740985
 20
47.2050636219
 11
37.8945740985
 21
47.2050636219
  0
LINE
  5
237
100
AcDbEntity
  8
0
100
AcDbLine
 62
7
  6
BYLAYER
 10
17.8945776523
 20
47.2059514045
 11
20.1445776523
 21
47.2059514045
  0
LINE
  5
238
100
AcDbEntity
  8
0
100
AcDbLine
 62
7
  6
BYLAYER
 10
21.6445776523
 20
47.2059514045
 11
23.8945776523
 21
47.2059514045
  0
LINE
  5
239
100
AcDbEntity
  8
0
100
AcDbLine
 62
7
  6
BYLAYER
 10
76.6985332408
 20
47.2082932882
 11
78.9485332408
 21
47.2082932882
  0
LINE
  5
23A
100
AcDbEntity
  8
0
100
AcDbLine
 62
7
  6
BYLAYER
 10
80.4485332408
 20
47.2082932882
 11
82.6985332408
 21
47.2082932882
  0
LINE
  5
23B
100
AcDbEntity
  8
0
100
AcDbLine
 62
7
  6
BYLAYER
 10
45.9047868256
 20
47.2189281151
 11
48.1547868256
 21
47.2189281151
  0
LINE
  5
23C
100
AcDbEntity
  8
0
100
AcDbLine
 62
7
  6
BYLAYER
 10
49.6547868256
 20
47.2189281151
 11
51.9047868256
 21
47.2189281151
  0
LINE
  5
23D
100
AcDbEntity
  8
0
100
AcDbLine
 62
7
  6
BYLAYER
 10
26.5934128378
 20
59.9550495093
 11
26.5934128378
 21
58.4550495093
  0
LINE
  5
23E
100
AcDbEntity
  8
0
100
AcDbLine
 62
7
  6
BYLAYER
 10
26.6034128378
 20
98.5150495093
 11
26.6034128378
 21
97.0150495093
  0
LINE
  5
23F
100
AcDbEntity
  8
0
100
AcDbLine
 62
7
  6
BYLAYER
 10
28.8434128378
 20
62.2050495093
 11
28.8434128378
 21
59.9550495093
  0
LINE
  5
240
100
AcDbEntity
  8
0
100
AcDbLine
 62
7
  6
BYLAYER
 10
28.8434128378
 20
58.4550495093
 11
28.8434128378
 21
56.2050495093
  0
LINE
  5
241
100
AcDbEntity
  8
0
100
AcDbLine
 62
7
  6
BYLAYER
 10
28.8534128378
 20
100.7650495093
 11
28.8534128378
 21
98.5150495093
  0
LINE
  5
242
100
AcDbEntity
  8
0
100
AcDbLine
 62
7
  6
BYLAYER
 10
28.8534128378
 20
97.0150495093
 11
28.8534128378
 21
94.7650495093
  0
LINE
  5
243
100
AcDbEntity
  8
0
100
AcDbLine
 62
7
  6
BYLAYER
 10
68.6867212513
 20
48.6803556574
 11
66.4367212513
 21
48.6803556574
  0
LINE
  5
244
100
AcDbEntity
  8
0
100
AcDbLine
 62
7
  6
BYLAYER
 10
64.9367212513
 20
48.6803556574
 11
62.6867212513
 21
48.6803556574
  0
LINE
  5
245
100
AcDbEntity
  8
0
100
AcDbLine
 62
7
  6
BYLAYER
 10
96.6943956665
 20
48.7050495093
 11
94.4443956665
 21
48.7050495093
  0
LINE
  5
246
100
AcDbEntity
  8
0
100
AcDbLine
 62
7
  6
BYLAYER
 10
92.9443956665
 20
48.7050495093
 11
90.6943956665
 21
48.7050495093
  0
LINE
  5
247
100
AcDbEntity
  8
0
100
AcDbLine
 62
7
  6
BYLAYER
 10
37.8945740985
 20
48.7050636219
 11
35.6445740985
 21
48.7050636219
  0
LINE
  5
248
100
AcDbEntity
  8
0
100
AcDbLine
 62
7
  6
BYLAYER
 10
34.1445740985
 20
48.7050636219
 11
31.8945740985
 21
48.7050636219
  0
LINE
  5
249
100
AcDbEntity
  8
0
100
AcDbLine
 62
7
  6
BYLAYER
 10
23.8945776523
 20
48.7059514045
 11
21.6445776523
 21
48.7059514045
  0
LINE
  5
24A
100
AcDbEntity
  8
0
100
AcDbLine
 62
7
  6
BYLAYER
 10
20.1445776523
 20
48.7059514045
 11
17.8945776523
 21
48.7059514045
  0
LINE
  5
24B
100
AcDbEntity
  8
0
100
AcDbLine
 62
7
  6
BYLAYER
 10
82.6985332408
 20
48.7082932882
 11
80.4485332408
 21
48.7082932882
  0
LINE
  5
24C
100
AcDbEntity
  8
0
100
AcDbLine
 62
7
  6
BYLAYER
 10
78.9485332408
 20
48.7082932882
 11
76.6985332408
 21
48.7082932882
  0
LINE
  5
24D
100
AcDbEntity
  8
0
100
AcDbLine
 62
7
  6
BYLAYER
 10
51.9047868256
 20
48.7189281151
 11
49.6547868256
 21
48.7189281151
  0
LINE
  5
24E
100
AcDbEntity
  8
0
100
AcDbLine
 62
7
  6
BYLAYER
 10
48.1547868256
 20
48.7189281151
 11
45.9047868256
 21
48.7189281151
  0
LINE
  5
24F
100
AcDbEntity
  8
0
100
AcDbLine
 62
7
  6
BYLAYER
 10
66.4367212513
 20
50.9303556574
 11
64.9367212513
 21
50.9303556574
  0
LINE
  5
250
100
AcDbEntity
  8
0
100
AcDbLine
 62
7
  6
BYLAYER
 10
94.4443956665
 20
50.9550495093
 11
92.9443956665
 21
50.9550495093
  0
LINE
  5
251
100
AcDbEntity
  8
0
100
AcDbLine
 62
7
  6
BYLAYER
 10
35.6445740985
 20
50.9550636219
 11
34.1445740985
 21
50.9550636219
  0
LINE
  5
252
100
AcDbEntity
  8
0
100
AcDbLine
 62
7
  6
BYLAYER
 10
21.6445776523
 20
50.9559514045
 11
20.1445776523
 21
50.9559514045
  0
LINE
  5
253
100
AcDbEntity
  8
0
100
AcDbLine
 62
7
  6
BYLAYER
 10
80.4485332408
 20
50.9582932882
 11
78.9485332408
 21
50.9582932882
  0
LINE
  5
254
100
AcDbEntity
  8
0
100
AcDbLine
 62
7
  6
BYLAYER
 10
49.6547868256
 20
50.9689281151
 11
48.1547868256
 21
50.9689281151
  0
LINE
  5
255
100
AcDbEntity
  8
0
100
AcDbLine
 62
7
  6
BYLAYER
 10
30.3434128378
 20
56.2050495093
 11
30.3434128378
 21
58.4550495093
  0
LINE
  5
256
100
AcDbEntity
  8
0
100
AcDbLine
 62
7
  6
BYLAYER
 10
30.3434128378
 20
59.9550495093
 11
30.3434128378
 21
62.2050495093
  0
LINE
  5
257
100
AcDbEntity
  8
0
100
AcDbLine
 62
7
  6
BYLAYER
 10
30.3534128378
 20
94.7650495093
 11
30.3534128378
 21
97.0150495093
  0
LINE
  5
258
100
AcDbEntity
  8
0
100
AcDbLine
 62
7
  6
BYLAYER
 10
30.3534128378
 20
98.5150495093
 11
30.3534128378
 21
100.7650495093
  0
LINE
  5
259
100
AcDbEntity
  8
0
100
AcDbLine
 62
7
  6
BYLAYER
 10
31.8945740985
 20
109.7050353967
 11
31.8945740985
 21
108.2050353967
  0
LINE
  5
25A
100
AcDbEntity
  8
0
100
AcDbLine
 62
7
  6
BYLAYER
 10
31.8945740985
 20
48.7050636219
 11
31.8945740985
 21
47.2050636219
  0
LINE
  5
25B
100
AcDbEntity
  8
0
100
AcDbLine
 62
7
  6
BYLAYER
 10
32.5934128378
 20
58.4550495093
 11
32.5934128378
 21
59.9550495093
  0
LINE
  5
25C
100
AcDbEntity
  8
0
100
AcDbLine
 62
7
  6
BYLAYER
 10
32.6034128378
 20
97.0150495093
 11
32.6034128378
 21
98.5150495093
  0
LINE
  5
25D
100
AcDbEntity
  8
0
100
AcDbLine
 62
7
  6
BYLAYER
 10
12.4089170734
 20
52.7050495093
 11
101.9004022269
 21
52.7050495093
  0
LINE
  5
25E
100
AcDbEntity
  8
0
100
AcDbLine
 62
7
  6
BYLAYER
 10
34.1445740985
 20
111.9550353967
 11
34.1445740985
 21
109.7050353967
  0
LINE
  5
25F
100
AcDbEntity
  8
0
100
AcDbLine
 62
7
  6
BYLAYER
 10
34.1445740985
 20
108.2050353967
 11
34.1445740985
 21
105.9550353967
  0
LINE
  5
260
100
AcDbEntity
  8
0
100
AcDbLine
 62
7
  6
BYLAYER
 10
34.1445740985
 20
50.9550636219
 11
34.1445740985
 21
48.7050636219
  0
LINE
  5
261
100
AcDbEntity
  8
0
100
AcDbLine
 62
7
  6
BYLAYER
 10
34.1445740985
 20
47.2050636219
 11
34.1445740985
 21
44.9550636219
  0
LINE
  5
262
100
AcDbEntity
  8
0
100
AcDbLine
 62
7
  6
BYLAYER
 10
35.6445740985
 20
44.9550636219
 11
35.6445740985
 21
47.2050636219
  0
LINE
  5
263
100
AcDbEntity
  8
0
100
AcDbLine
 62
7
  6
BYLAYER
 10
35.6445740985
 20
48.7050636219
 11
35.6445740985
 21
50.9550636219
  0
LINE
  5
264
100
AcDbEntity
  8
0
100
AcDbLine
 62
7
  6
BYLAYER
 10
35.6445740985
 20
105.9550353967
 11
35.6445740985
 21
108.2050353967
  0
LINE
  5
265
100
AcDbEntity
  8
0
100
AcDbLine
 62
7
  6
BYLAYER
 10
35.6445740985
 20
109.7050353967
 11
35.6445740985
 21
111.9550353967
  0
LINE
  5
266
100
AcDbEntity
  8
0
100
AcDbLine
 62
7
  6
BYLAYER
 10
37.1934128378
 20
98.5350495093
 11
37.1934128378
 21
97.0350495093
  0
LINE
  5
267
100
AcDbEntity
  8
0
100
AcDbLine
 62
7
  6
BYLAYER
 10
37.1934128378
 20
59.9550495093
 11
37.1934128378
 21
58.4550495093
  0
LINE
  5
268
100
AcDbEntity
  8
0
100
AcDbLine
 62
7
  6
BYLAYER
 10
37.8945740985
 20
47.2050636219
 11
37.8945740985
 21
48.7050636219
  0
LINE
  5
269
100
AcDbEntity
  8
0
100
AcDbLine
 62
7
  6
BYLAYER
 10
37.8945740985
 20
108.2050353967
 11
37.8945740985
 21
109.7050353967
  0
LINE
  5
26A
100
AcDbEntity
  8
0
100
AcDbLine
 62
7
  6
BYLAYER
 10
28.8434128378
 20
56.2050495093
 11
30.3434128378
 21
56.2050495093
  0
LINE
  5
26B
100
AcDbEntity
  8
0
100
AcDbLine
 62
7
  6
BYLAYER
 10
39.4434128378
 20
56.2050495093
 11
40.9434128378
 21
56.2050495093
  0
LINE
  5
26C
100
AcDbEntity
  8
0
100
AcDbLine
 62
7
  6
BYLAYER
 10
50.0434128378
 20
56.2050495093
 11
51.5434128378
 21
56.2050495093
  0
LINE
  5
26D
100
AcDbEntity
  8
0
100
AcDbLine
 62
7
  6
BYLAYER
 10
73.6434128378
 20
56.2050495093
 11
75.1434128378
 21
56.2050495093
  0
LINE
  5
26E
100
AcDbEntity
  8
0
100
AcDbLine
 62
7
  6
BYLAYER
 10
84.2434128378
 20
56.2050495093
 11
85.7434128378
 21
56.2050495093
  0
LINE
  5
26F
100
AcDbEntity
  8
0
100
AcDbLine
 62
7
  6
BYLAYER
 10
94.8434128378
 20
56.2050495093
 11
96.3434128378
 21
56.2050495093
  0
LINE
  5
270
100
AcDbEntity
  8
0
100
AcDbLine
 62
7
  6
BYLAYER
 10
26.5934128378
 20
58.4550495093
 11
28.8434128378
 21
58.4550495093
  0
LINE
  5
271
100
AcDbEntity
  8
0
100
AcDbLine
 62
7
  6
BYLAYER
 10
30.3434128378
 20
58.4550495093
 11
32.5934128378
 21
58.4550495093
  0
LINE
  5
272
100
AcDbEntity
  8
0
100
AcDbLine
 62
7
  6
BYLAYER
 10
37.1934128378
 20
58.4550495093
 11
39.4434128378
 21
58.4550495093
  0
LINE
  5
273
100
AcDbEntity
  8
0
100
AcDbLine
 62
7
  6
BYLAYER
 10
40.9434128378
 20
58.4550495093
 11
43.1934128378
 21
58.4550495093
  0
LINE
  5
274
100
AcDbEntity
  8
0
100
AcDbLine
 62
7
  6
BYLAYER
 10
47.7934128378
 20
58.4550495093
 11
50.0434128378
 21
58.4550495093
  0
LINE
  5
275
100
AcDbEntity
  8
0
100
AcDbLine
 62
7
  6
BYLAYER
 10
51.5434128378
 20
58.4550495093
 11
53.7934128378
 21
58.4550495093
  0
LINE
  5
276
100
AcDbEntity
  8
0
100
AcDbLine
 62
7
  6
BYLAYER
 10
71.3934128378
 20
58.4550495093
 11
73.6434128378
 21
58.4550495093
  0
LINE
  5
277
100
AcDbEntity
  8
0
100
AcDbLine
 62
7
  6
BYLAYER
 10
75.1434128378
 20
58.4550495093
 11
77.3934128378
 21
58.4550495093
  0
LINE
  5
278
100
AcDbEntity
  8
0
100
AcDbLine
 62
7
  6
BYLAYER
 10
81.9934128378
 20
58.4550495093
 11
84.2434128378
 21
58.4550495093
  0
LINE
  5
279
100
AcDbEntity
  8
0
100
AcDbLine
 62
7
  6
BYLAYER
 10
85.7434128378
 20
58.4550495093
 11
87.9934128378
 21
58.4550495093
  0
LINE
  5
27A
100
AcDbEntity
  8
0
100
AcDbLine
 62
7
  6
BYLAYER
 10
92.5934128378
 20
58.4550495093
 11
94.8434128378
 21
58.4550495093
  0
LINE
  5
27B
100
AcDbEntity
  8
0
100
AcDbLine
 62
7
  6
BYLAYER
 10
96.3434128378
 20
58.4550495093
 11
98.5934128378
 21
58.4550495093
  0
LINE
  5
27C
100
AcDbEntity
  8
0
100
AcDbLine
 62
7
  6
BYLAYER
 10
39.4434128378
 20
100.7850495093
 11
39.4434128378
 21
98.5350495093
  0
LINE
  5
27D
100
AcDbEntity
  8
0
100
AcDbLine
 62
7
  6
BYLAYER
 10
39.4434128378
 20
97.0350495093
 11
39.4434128378
 21
94.7850495093
  0
LINE
  5
27E
100
AcDbEntity
  8
0
100
AcDbLine
 62
7
  6
BYLAYER
 10
39.4434128378
 20
62.2050495093
 11
39.4434128378
 21
59.9550495093
  0
LINE
  5
27F
100
AcDbEntity
  8
0
100
AcDbLine
 62
7
  6
BYLAYER
 10
39.4434128378
 20
58.4550495093
 11
39.4434128378
 21
56.2050495093
  0
LINE
  5
280
100
AcDbEntity
  8
0
100
AcDbLine
 62
7
  6
BYLAYER
 10
40.9434128378
 20
56.2050495093
 11
40.9434128378
 21
58.4550495093
  0
LINE
  5
281
100
AcDbEntity
  8
0
100
AcDbLine
 62
7
  6
BYLAYER
 10
40.9434128378
 20
59.9550495093
 11
40.9434128378
 21
62.2050495093
  0
LINE
  5
282
100
AcDbEntity
  8
0
100
AcDbLine
 62
7
  6
BYLAYER
 10
40.9434128378
 20
94.7850495093
 11
40.9434128378
 21
97.0350495093
  0
LINE
  5
283
100
AcDbEntity
  8
0
100
AcDbLine
 62
7
  6
BYLAYER
 10
40.9434128378
 20
98.5350495093
 11
40.9434128378
 21
100.7850495093
  0
LINE
  5
284
100
AcDbEntity
  8
0
100
AcDbLine
 62
7
  6
BYLAYER
 10
98.5934128378
 20
59.9550495093
 11
96.3434128378
 21
59.9550495093
  0
LINE
  5
285
100
AcDbEntity
  8
0
100
AcDbLine
 62
7
  6
BYLAYER
 10
94.8434128378
 20
59.9550495093
 11
92.5934128378
 21
59.9550495093
  0
LINE
  5
286
100
AcDbEntity
  8
0
100
AcDbLine
 62
7
  6
BYLAYER
 10
87.9934128378
 20
59.9550495093
 11
85.7434128378
 21
59.9550495093
  0
LINE
  5
287
100
AcDbEntity
  8
0
100
AcDbLine
 62
7
  6
BYLAYER
 10
84.2434128378
 20
59.9550495093
 11
81.9934128378
 21
59.9550495093
  0
LINE
  5
288
100
AcDbEntity
  8
0
100
AcDbLine
 62
7
  6
BYLAYER
 10
77.3934128378
 20
59.9550495093
 11
75.1434128378
 21
59.9550495093
  0
LINE
  5
289
100
AcDbEntity
  8
0
100
AcDbLine
 62
7
  6
BYLAYER
 10
73.6434128378
 20
59.9550495093
 11
71.3934128378
 21
59.9550495093
  0
LINE
  5
28A
100
AcDbEntity
  8
0
100
AcDbLine
 62
7
  6
BYLAYER
 10
53.7934128378
 20
59.9550495093
 11
51.5434128378
 21
59.9550495093
  0
LINE
  5
28B
100
AcDbEntity
  8
0
100
AcDbLine
 62
7
  6
BYLAYER
 10
50.0434128378
 20
59.9550495093
 11
47.7934128378
 21
59.9550495093
  0
LINE
  5
28C
100
AcDbEntity
  8
0
100
AcDbLine
 62
7
  6
BYLAYER
 10
43.1934128378
 20
59.9550495093
 11
40.9434128378
 21
59.9550495093
  0
LINE
  5
28D
100
AcDbEntity
  8
0
100
AcDbLine
 62
7
  6
BYLAYER
 10
39.4434128378
 20
59.9550495093
 11
37.1934128378
 21
59.9550495093
  0
LINE
  5
28E
100
AcDbEntity
  8
0
100
AcDbLine
 62
7
  6
BYLAYER
 10
32.5934128378
 20
59.9550495093
 11
30.3434128378
 21
59.9550495093
  0
LINE
  5
28F
100
AcDbEntity
  8
0
100
AcDbLine
 62
7
  6
BYLAYER
 10
28.8434128378
 20
59.9550495093
 11
26.5934128378
 21
59.9550495093
  0
LINE
  5
290
100
AcDbEntity
  8
0
100
AcDbLine
 62
7
  6
BYLAYER
 10
96.3434128378
 20
62.2050495093
 11
94.8434128378
 21
62.2050495093
  0
LINE
  5
291
100
AcDbEntity
  8
0
100
AcDbLine
 62
7
  6
BYLAYER
 10
85.7434128378
 20
62.2050495093
 11
84.2434128378
 21
62.2050495093
  0
LINE
  5
292
100
AcDbEntity
  8
0
100
AcDbLine
 62
7
  6
BYLAYER
 10
75.1434128378
 20
62.2050495093
 11
73.6434128378
 21
62.2050495093
  0
LINE
  5
293
100
AcDbEntity
  8
0
100
AcDbLine
 62
7
  6
BYLAYER
 10
51.5434128378
 20
62.2050495093
 11
50.0434128378
 21
62.2050495093
  0
LINE
  5
294
100
AcDbEntity
  8
0
100
AcDbLine
 62
7
  6
BYLAYER
 10
40.9434128378
 20
62.2050495093
 11
39.4434128378
 21
62.2050495093
  0
LINE
  5
295
100
AcDbEntity
  8
0
100
AcDbLine
 62
7
  6
BYLAYER
 10
30.3434128378
 20
62.2050495093
 11
28.8434128378
 21
62.2050495093
  0
LINE
  5
296
100
AcDbEntity
  8
0
100
AcDbLine
 62
7
  6
BYLAYER
 10
43.1934128378
 20
58.4550495093
 11
43.1934128378
 21
59.9550495093
  0
LINE
  5
297
100
AcDbEntity
  8
0
100
AcDbLine
 62
7
  6
BYLAYER
 10
43.1934128378
 20
97.0350495093
 11
43.1934128378
 21
98.5350495093
  0
LINE
  5
298
100
AcDbEntity
  8
0
100
AcDbLine
 62
7
  6
BYLAYER
 10
12.4634128378
 20
63.9050495093
 11
101.8134128378
 21
63.9050495093
  0
LINE
  5
299
100
AcDbEntity
  8
0
100
AcDbLine
 62
7
  6
BYLAYER
 10
45.9047868256
 20
109.6911709034
 11
45.9047868256
 21
108.1911709034
  0
LINE
  5
29A
100
AcDbEntity
  8
0
100
AcDbLine
 62
7
  6
BYLAYER
 10
45.9047868256
 20
48.7189281151
 11
45.9047868256
 21
47.2189281151
  0
LINE
  5
29B
100
AcDbEntity
  8
0
100
AcDbLine
 62
7
  6
BYLAYER
 10
47.7934128378
 20
59.9550495093
 11
47.7934128378
 21
58.4550495093
  0
LINE
  5
29C
100
AcDbEntity
  8
0
100
AcDbLine
 62
7
  6
BYLAYER
 10
47.8034128715
 20
98.5542546809
 11
47.8034130063
 21
97.0542546809
  0
LINE
  5
29D
100
AcDbEntity
  8
0
100
AcDbLine
 62
7
  6
BYLAYER
 10
48.1547868256
 20
111.9411709034
 11
48.1547868256
 21
109.6911709034
  0
LINE
  5
29E
100
AcDbEntity
  8
0
100
AcDbLine
 62
7
  6
BYLAYER
 10
48.1547868256
 20
108.1911709034
 11
48.1547868256
 21
105.9411709034
  0
LINE
  5
29F
100
AcDbEntity
  8
0
100
AcDbLine
 62
7
  6
BYLAYER
 10
48.1547868256
 20
50.9689281151
 11
48.1547868256
 21
48.7189281151
  0
LINE
  5
2A0
100
AcDbEntity
  8
0
100
AcDbLine
 62
7
  6
BYLAYER
 10
48.1547868256
 20
47.2189281151
 11
48.1547868256
 21
44.9689281151
  0
LINE
  5
2A1
100
AcDbEntity
  8
0
100
AcDbLine
 62
7
  6
BYLAYER
 10
49.6547868256
 20
44.9689281151
 11
49.6547868256
 21
47.2189281151
  0
LINE
  5
2A2
100
AcDbEntity
  8
0
100
AcDbLine
 62
7
  6
BYLAYER
 10
49.6547868256
 20
48.7189281151
 11
49.6547868256
 21
50.9689281151
  0
LINE
  5
2A3
100
AcDbEntity
  8
0
100
AcDbLine
 62
7
  6
BYLAYER
 10
49.6547868256
 20
105.9411709034
 11
49.6547868256
 21
108.1911709034
  0
LINE
  5
2A4
100
AcDbEntity
  8
0
100
AcDbLine
 62
7
  6
BYLAYER
 10
49.6547868256
 20
109.6911709034
 11
49.6547868256
 21
111.9411709034
  0
LINE
  5
2A5
100
AcDbEntity
  8
0
100
AcDbLine
 62
7
  6
BYLAYER
 10
50.0434128378
 20
62.2050495093
 11
50.0434128378
 21
59.9550495093
  0
LINE
  5
2A6
100
AcDbEntity
  8
0
100
AcDbLine
 62
7
  6
BYLAYER
 10
50.0434128378
 20
58.4550495093
 11
50.0434128378
 21
56.2050495093
  0
LINE
  5
2A7
100
AcDbEntity
  8
0
100
AcDbLine
 62
7
  6
BYLAYER
 10
50.0534128041
 20
100.8050495093
 11
50.0534126693
 21
98.5548905436
  0
LINE
  5
2A8
100
AcDbEntity
  8
0
100
AcDbLine
 62
7
  6
BYLAYER
 10
50.0534128378
 20
97.0548905436
 11
50.0534128378
 21
94.8050495093
  0
LINE
  5
2A9
100
AcDbEntity
  8
0
100
AcDbLine
 62
7
  6
BYLAYER
 10
51.5434128378
 20
56.2050495093
 11
51.5434128378
 21
58.4550495093
  0
LINE
  5
2AA
100
AcDbEntity
  8
0
100
AcDbLine
 62
7
  6
BYLAYER
 10
51.5434128378
 20
59.9550495093
 11
51.5434128378
 21
62.2050495093
  0
LINE
  5
2AB
100
AcDbEntity
  8
0
100
AcDbLine
 62
7
  6
BYLAYER
 10
51.5534128378
 20
94.8050495093
 11
51.5534128378
 21
97.0550495093
  0
LINE
  5
2AC
100
AcDbEntity
  8
0
100
AcDbLine
 62
7
  6
BYLAYER
 10
51.5534128378
 20
98.5550495093
 11
51.5534128378
 21
100.8050495093
  0
LINE
  5
2AD
100
AcDbEntity
  8
0
100
AcDbLine
 62
7
  6
BYLAYER
 10
51.9047868256
 20
47.2189281151
 11
51.9047868256
 21
48.7189281151
  0
LINE
  5
2AE
100
AcDbEntity
  8
0
100
AcDbLine
 62
7
  6
BYLAYER
 10
51.9047868256
 20
108.1911709034
 11
51.9047868256
 21
109.6911709034
  0
LINE
  5
2AF
100
AcDbEntity
  8
0
100
AcDbLine
 62
7
  6
BYLAYER
 10
53.7934128378
 20
58.4550495093
 11
53.7934128378
 21
59.9550495093
  0
LINE
  5
2B0
100
AcDbEntity
  8
0
100
AcDbLine
 62
7
  6
BYLAYER
 10
53.8034128378
 20
97.0550495093
 11
53.8034128378
 21
98.5550495093
  0
LINE
  5
2B1
100
AcDbEntity
  8
0
100
AcDbLine
 62
7
  6
BYLAYER
 10
57.2134128378
 20
42.3888510222
 11
57.2134128378
 21
42.5550495093
  0
LINE
  5
2B2
100
AcDbEntity
  8
0
100
AcDbLine
 62
7
  6
BYLAYER
 10
57.2865305248
 20
42.5550495093
 11
57.287262272
 21
63.9050495093
  0
LINE
  5
2B3
100
AcDbEntity
  8
0
100
AcDbLine
 62
7
  6
BYLAYER
 10
57.2873816884
 20
104.3050495093
 11
57.2873816884
 21
93.3576643954
  0
LINE
  5
2B4
100
AcDbEntity
  8
0
100
AcDbLine
 62
7
  6
BYLAYER
 10
57.3224843421
 20
63.9050495093
 11
57.3224843421
 21
93.1637155226
  0
LINE
  5
2B5
100
AcDbEntity
  8
0
100
AcDbLine
 62
7
  6
BYLAYER
 10
57.3748186841
 20
114.2050495093
 11
57.3748186841
 21
104.3050495093
  0
LINE
  5
2B6
100
AcDbEntity
  8
0
100
AcDbLine
 62
7
  6
BYLAYER
 10
62.6867212513
 20
109.7297433612
 11
62.6867212513
 21
108.2297433612
  0
LINE
  5
2B7
100
AcDbEntity
  8
0
100
AcDbLine
 62
7
  6
BYLAYER
 10
62.6867212513
 20
48.6803556574
 11
62.6867212513
 21
47.1803556574
  0
LINE
  5
2B8
100
AcDbEntity
  8
0
100
AcDbLine
 62
7
  6
BYLAYER
 10
64.9367212513
 20
111.9797433612
 11
64.9367212513
 21
109.7297433612
  0
LINE
  5
2B9
100
AcDbEntity
  8
0
100
AcDbLine
 62
7
  6
BYLAYER
 10
64.9367212513
 20
108.2297433612
 11
64.9367212513
 21
105.9797433612
  0
LINE
  5
2BA
100
AcDbEntity
  8
0
100
AcDbLine
 62
7
  6
BYLAYER
 10
64.9367212513
 20
50.9303556574
 11
64.9367212513
 21
48.6803556574
  0
LINE
  5
2BB
100
AcDbEntity
  8
0
100
AcDbLine
 62
7
  6
BYLAYER
 10
64.9367212513
 20
47.1803556574
 11
64.9367212513
 21
44.9303556574
  0
LINE
  5
2BC
100
AcDbEntity
  8
0
100
AcDbLine
 62
7
  6
BYLAYER
 10
66.4367212513
 20
44.9303556574
 11
66.4367212513
 21
47.1803556574
  0
LINE
  5
2BD
100
AcDbEntity
  8
0
100
AcDbLine
 62
7
  6
BYLAYER
 10
66.4367212513
 20
48.6803556574
 11
66.4367212513
 21
50.9303556574
  0
LINE
  5
2BE
100
AcDbEntity
  8
0
100
AcDbLine
 62
7
  6
BYLAYER
 10
66.4367212513
 20
105.9797433612
 11
66.4367212513
 21
108.2297433612
  0
LINE
  5
2BF
100
AcDbEntity
  8
0
100
AcDbLine
 62
7
  6
BYLAYER
 10
66.4367212513
 20
109.7297433612
 11
66.4367212513
 21
111.9797433612
  0
LINE
  5
2C0
100
AcDbEntity
  8
0
100
AcDbLine
 62
7
  6
BYLAYER
 10
68.6867212513
 20
47.1803556574
 11
68.6867212513
 21
48.6803556574
  0
LINE
  5
2C1
100
AcDbEntity
  8
0
100
AcDbLine
 62
7
  6
BYLAYER
 10
68.6867212513
 20
108.2297433612
 11
68.6867212513
 21
109.7297433612
  0
LINE
  5
2C2
100
AcDbEntity
  8
0
100
AcDbLine
 62
7
  6
BYLAYER
 10
71.3934128378
 20
59.9550495093
 11
71.3934128378
 21
58.4550495093
  0
LINE
  5
2C3
100
AcDbEntity
  8
0
100
AcDbLine
 62
7
  6
BYLAYER
 10
71.3934130044
 20
98.547170151
 11
71.3934136706
 21
97.0471701513
  0
LINE
  5
2C4
100
AcDbEntity
  8
0
100
AcDbLine
 62
7
  6
BYLAYER
 10
73.6434126713
 20
100.7950495093
 11
73.643412005
 21
98.5450495091
  0
LINE
  5
2C5
100
AcDbEntity
  8
0
100
AcDbLine
 62
7
  6
BYLAYER
 10
73.6434128378
 20
97.0450495093
 11
73.6434128378
 21
94.7950495093
  0
LINE
  5
2C6
100
AcDbEntity
  8
0
100
AcDbLine
 62
7
  6
BYLAYER
 10
73.6434128378
 20
62.2050495093
 11
73.6434128378
 21
59.9550495093
  0
LINE
  5
2C7
100
AcDbEntity
  8
0
100
AcDbLine
 62
7
  6
BYLAYER
 10
73.6434128378
 20
58.4550495093
 11
73.6434128378
 21
56.2050495093
  0
LINE
  5
2C8
100
AcDbEntity
  8
0
100
AcDbLine
 62
7
  6
BYLAYER
 10
75.1434128378
 20
56.2050495093
 11
75.1434128378
 21
58.4550495093
  0
LINE
  5
2C9
100
AcDbEntity
  8
0
100
AcDbLine
 62
7
  6
BYLAYER
 10
75.1434128378
 20
59.9550495093
 11
75.1434128378
 21
62.2050495093
  0
LINE
  5
2CA
100
AcDbEntity
  8
0
100
AcDbLine
 62
7
  6
BYLAYER
 10
75.1434128378
 20
94.7950495093
 11
75.1434128378
 21
97.0450495093
  0
LINE
  5
2CB
100
AcDbEntity
  8
0
100
AcDbLine
 62
7
  6
BYLAYER
 10
75.1434128378
 20
98.5450495093
 11
75.1434128378
 21
100.7950495093
  0
LINE
  5
2CC
100
AcDbEntity
  8
0
100
AcDbLine
 62
7
  6
BYLAYER
 10
76.6985332408
 20
109.7018057304
 11
76.6985332408
 21
108.2018057304
  0
LINE
  5
2CD
100
AcDbEntity
  8
0
100
AcDbLine
 62
7
  6
BYLAYER
 10
76.6985332408
 20
48.7082932882
 11
76.6985332408
 21
47.2082932882
  0
LINE
  5
2CE
100
AcDbEntity
  8
0
100
AcDbLine
 62
7
  6
BYLAYER
 10
47.8034130063
 20
97.0542546809
 11
50.0534128378
 21
97.0548905436
  0
LINE
  5
2CF
100
AcDbEntity
  8
0
100
AcDbLine
 62
7
  6
BYLAYER
 10
28.8534128378
 20
94.7650495093
 11
30.3534128378
 21
94.7650495093
  0
LINE
  5
2D0
100
AcDbEntity
  8
0
100
AcDbLine
 62
7
  6
BYLAYER
 10
39.4434128378
 20
94.7850495093
 11
40.9434128378
 21
94.7850495093
  0
LINE
  5
2D1
100
AcDbEntity
  8
0
100
AcDbLine
 62
7
  6
BYLAYER
 10
73.6434128378
 20
94.7950495093
 11
75.1434128378
 21
94.7950495093
  0
LINE
  5
2D2
100
AcDbEntity
  8
0
100
AcDbLine
 62
7
  6
BYLAYER
 10
50.0534128378
 20
94.8050495093
 11
51.5534128378
 21
94.8050495093
  0
LINE
  5
2D3
100
AcDbEntity
  8
0
100
AcDbLine
 62
7
  6
BYLAYER
 10
84.2534128378
 20
94.8050495093
 11
85.7534128378
 21
94.8050495093
  0
LINE
  5
2D4
100
AcDbEntity
  8
0
100
AcDbLine
 62
7
  6
BYLAYER
 10
94.8534128378
 20
94.8050495093
 11
96.3534128378
 21
94.8050495093
  0
LINE
  5
2D5
100
AcDbEntity
  8
0
100
AcDbLine
 62
7
  6
BYLAYER
 10
26.6034128378
 20
97.0150495093
 11
28.8534128378
 21
97.0150495093
  0
LINE
  5
2D6
100
AcDbEntity
  8
0
100
AcDbLine
 62
7
  6
BYLAYER
 10
30.3534128378
 20
97.0150495093
 11
32.6034128378
 21
97.0150495093
  0
LINE
  5
2D7
100
AcDbEntity
  8
0
100
AcDbLine
 62
7
  6
BYLAYER
 10
37.1934128378
 20
97.0350495093
 11
39.4434128378
 21
97.0350495093
  0
LINE
  5
2D8
100
AcDbEntity
  8
0
100
AcDbLine
 62
7
  6
BYLAYER
 10
40.9434128378
 20
97.0350495093
 11
43.1934128378
 21
97.0350495093
  0
LINE
  5
2D9
100
AcDbEntity
  8
0
100
AcDbLine
 62
7
  6
BYLAYER
 10
75.1434128378
 20
97.0450495093
 11
77.3934128378
 21
97.0450495093
  0
LINE
  5
2DA
100
AcDbEntity
  8
0
100
AcDbLine
 62
7
  6
BYLAYER
 10
51.5534128378
 20
97.0550495093
 11
53.8034128378
 21
97.0550495093
  0
LINE
  5
2DB
100
AcDbEntity
  8
0
100
AcDbLine
 62
7
  6
BYLAYER
 10
82.0034128378
 20
97.0550495093
 11
84.2534128378
 21
97.0550495093
  0
LINE
  5
2DC
100
AcDbEntity
  8
0
100
AcDbLine
 62
7
  6
BYLAYER
 10
85.7534128378
 20
97.0550495093
 11
88.0034128378
 21
97.0550495093
  0
LINE
  5
2DD
100
AcDbEntity
  8
0
100
AcDbLine
 62
7
  6
BYLAYER
 10
92.6034128378
 20
97.0550495093
 11
94.8534128378
 21
97.0550495093
  0
LINE
  5
2DE
100
AcDbEntity
  8
0
100
AcDbLine
 62
7
  6
BYLAYER
 10
96.3534128378
 20
97.0550495093
 11
98.6034128378
 21
97.0550495093
  0
LINE
  5
2DF
100
AcDbEntity
  8
0
100
AcDbLine
 62
7
  6
BYLAYER
 10
71.3934136706
 20
97.0471701513
 11
73.6434128378
 21
97.0450495093
  0
LINE
  5
2E0
100
AcDbEntity
  8
0
100
AcDbLine
 62
7
  6
BYLAYER
 10
77.3934128378
 20
58.4550495093
 11
77.3934128378
 21
59.9550495093
  0
LINE
  5
2E1
100
AcDbEntity
  8
0
100
AcDbLine
 62
7
  6
BYLAYER
 10
77.3934128378
 20
97.0450495093
 11
77.3934128378
 21
98.5450495093
  0
LINE
  5
2E2
100
AcDbEntity
  8
0
100
AcDbLine
 62
7
  6
BYLAYER
 10
78.9485332408
 20
111.9518057304
 11
78.9485332408
 21
109.7018057304
  0
LINE
  5
2E3
100
AcDbEntity
  8
0
100
AcDbLine
 62
7
  6
BYLAYER
 10
78.9485332408
 20
108.2018057304
 11
78.9485332408
 21
105.9518057304
  0
LINE
  5
2E4
100
AcDbEntity
  8
0
100
AcDbLine
 62
7
  6
BYLAYER
 10
78.9485332408
 20
50.9582932882
 11
78.9485332408
 21
48.7082932882
  0
LINE
  5
2E5
100
AcDbEntity
  8
0
100
AcDbLine
 62
7
  6
BYLAYER
 10
78.9485332408
 20
47.2082932882
 11
78.9485332408
 21
44.9582932882
  0
LINE
  5
2E6
100
AcDbEntity
  8
0
100
AcDbLine
 62
7
  6
BYLAYER
 10
80.4485332408
 20
44.9582932882
 11
80.4485332408
 21
47.2082932882
  0
LINE
  5
2E7
100
AcDbEntity
  8
0
100
AcDbLine
 62
7
  6
BYLAYER
 10
80.4485332408
 20
48.7082932882
 11
80.4485332408
 21
50.9582932882
  0
LINE
  5
2E8
100
AcDbEntity
  8
0
100
AcDbLine
 62
7
  6
BYLAYER
 10
80.4485332408
 20
105.9518057304
 11
80.4485332408
 21
108.2018057304
  0
LINE
  5
2E9
100
AcDbEntity
  8
0
100
AcDbLine
 62
7
  6
BYLAYER
 10
80.4485332408
 20
109.7018057304
 11
80.4485332408
 21
111.9518057304
  0
LINE
  5
2EA
100
AcDbEntity
  8
0
100
AcDbLine
 62
7
  6
BYLAYER
 10
50.0534126693
 20
98.5548905436
 11
47.8034128715
 21
98.5542546809
  0
LINE
  5
2EB
100
AcDbEntity
  8
0
100
AcDbLine
 62
7
  6
BYLAYER
 10
32.6034128378
 20
98.5150495093
 11
30.3534128378
 21
98.5150495093
  0
LINE
  5
2EC
100
AcDbEntity
  8
0
100
AcDbLine
 62
7
  6
BYLAYER
 10
28.8534128378
 20
98.5150495093
 11
26.6034128378
 21
98.5150495093
  0
LINE
  5
2ED
100
AcDbEntity
  8
0
100
AcDbLine
 62
7
  6
BYLAYER
 10
43.1934128378
 20
98.5350495093
 11
40.9434128378
 21
98.5350495093
  0
LINE
  5
2EE
100
AcDbEntity
  8
0
100
AcDbLine
 62
7
  6
BYLAYER
 10
39.4434128378
 20
98.5350495093
 11
37.1934128378
 21
98.5350495093
  0
LINE
  5
2EF
100
AcDbEntity
  8
0
100
AcDbLine
 62
7
  6
BYLAYER
 10
77.3934128378
 20
98.5450495093
 11
75.1434128378
 21
98.5450495093
  0
LINE
  5
2F0
100
AcDbEntity
  8
0
100
AcDbLine
 62
7
  6
BYLAYER
 10
98.6034128378
 20
98.5550495093
 11
96.3534128378
 21
98.5550495093
  0
LINE
  5
2F1
100
AcDbEntity
  8
0
100
AcDbLine
 62
7
  6
BYLAYER
 10
94.8534128378
 20
98.5550495093
 11
92.6034128378
 21
98.5550495093
  0
LINE
  5
2F2
100
AcDbEntity
  8
0
100
AcDbLine
 62
7
  6
BYLAYER
 10
88.0034128378
 20
98.5550495093
 11
85.7534128378
 21
98.5550495093
  0
LINE
  5
2F3
100
AcDbEntity
  8
0
100
AcDbLine
 62
7
  6
BYLAYER
 10
84.2534128378
 20
98.5550495093
 11
82.0034128378
 21
98.5550495093
  0
LINE
  5
2F4
100
AcDbEntity
  8
0
100
AcDbLine
 62
7
  6
BYLAYER
 10
53.8034128378
 20
98.5550495093
 11
51.5534128378
 21
98.5550495093
  0
LINE
  5
2F5
100
AcDbEntity
  8
0
100
AcDbLine
 62
7
  6
BYLAYER
 10
30.3534128378
 20
100.7650495093
 11
28.8534128378
 21
100.7650495093
  0
LINE
  5
2F6
100
AcDbEntity
  8
0
100
AcDbLine
 62
7
  6
BYLAYER
 10
40.9434128378
 20
100.7850495093
 11
39.4434128378
 21
100.7850495093
  0
LINE
  5
2F7
100
AcDbEntity
  8
0
100
AcDbLine
 62
7
  6
BYLAYER
 10
75.1434128378
 20
100.7950495093
 11
73.6434126713
 21
100.7950495093
  0
LINE
  5
2F8
100
AcDbEntity
  8
0
100
AcDbLine
 62
7
  6
BYLAYER
 10
96.3534128378
 20
100.8050495093
 11
94.8534128378
 21
100.8050495093
  0
LINE
  5
2F9
100
AcDbEntity
  8
0
100
AcDbLine
 62
7
  6
BYLAYER
 10
85.7534128378
 20
100.8050495093
 11
84.2534128378
 21
100.8050495093
  0
LINE
  5
2FA
100
AcDbEntity
  8
0
100
AcDbLine
 62
7
  6
BYLAYER
 10
51.5534128378
 20
100.8050495093
 11
50.0534128041
 21
100.8050495093
  0
LINE
  5
2FB
100
AcDbEntity
  8
0
100
AcDbLine
 62
7
  6
BYLAYER
 10
73.643412005
 20
98.5450495091
 11
71.3934130044
 21
98.547170151
  0
LINE
  5
2FC
100
AcDbEntity
  8
0
100
AcDbLine
 62
7
  6
BYLAYER
 10
81.9934128378
 20
59.9550495093
 11
81.9934128378
 21
58.4550495093
  0
LINE
  5
2FD
100
AcDbEntity
  8
0
100
AcDbLine
 62
7
  6
BYLAYER
 10
82.0034128378
 20
98.5550495093
 11
82.0034128378
 21
97.0550495093
  0
LINE
  5
2FE
100
AcDbEntity
  8
0
100
AcDbLine
 62
7
  6
BYLAYER
 10
82.6985332408
 20
47.2082932882
 11
82.6985332408
 21
48.7082932882
  0
LINE
  5
2FF
100
AcDbEntity
  8
0
100
AcDbLine
 62
7
  6
BYLAYER
 10
82.6985332408
 20
108.2018057304
 11
82.6985332408
 21
109.7018057304
  0
LINE
  5
300
100
AcDbEntity
  8
0
100
AcDbLine
 62
7
  6
BYLAYER
 10
84.2434128378
 20
62.2050495093
 11
84.2434128378
 21
59.9550495093
  0
LINE
  5
301
100
AcDbEntity
  8
0
100
AcDbLine
 62
7
  6
BYLAYER
 10
84.2434128378
 20
58.4550495093
 11
84.2434128378
 21
56.2050495093
  0
LINE
  5
302
100
AcDbEntity
  8
0
100
AcDbLine
 62
7
  6
BYLAYER
 10
84.2534128378
 20
100.8050495093
 11
84.2534128378
 21
98.5550495093
  0
LINE
  5
303
100
AcDbEntity
  8
0
100
AcDbLine
 62
7
  6
BYLAYER
 10
84.2534128378
 20
97.0550495093
 11
84.2534128378
 21
94.8050495093
  0
LINE
  5
304
100
AcDbEntity
  8
0
100
AcDbLine
 62
7
  6
BYLAYER
 10
12.4129579128
 20
104.3050495093
 11
101.863449891
 21
104.3050495093
  0
LINE
  5
305
100
AcDbEntity
  8
0
100
AcDbLine
 62
7
  6
BYLAYER
 10
48.1547868256
 20
105.9411709034
 11
49.6547868256
 21
105.9411709034
  0
LINE
  5
306
100
AcDbEntity
  8
0
100
AcDbLine
 62
7
  6
BYLAYER
 10
78.9485332408
 20
105.9518057304
 11
80.4485332408
 21
105.9518057304
  0
LINE
  5
307
100
AcDbEntity
  8
0
100
AcDbLine
 62
7
  6
BYLAYER
 10
20.1445776523
 20
105.9541476141
 11
21.6445776523
 21
105.9541476141
  0
LINE
  5
308
100
AcDbEntity
  8
0
100
AcDbLine
 62
7
  6
BYLAYER
 10
34.1445740985
 20
105.9550353967
 11
35.6445740985
 21
105.9550353967
  0
LINE
  5
309
100
AcDbEntity
  8
0
100
AcDbLine
 62
7
  6
BYLAYER
 10
92.9443956665
 20
105.9550495093
 11
94.4443956665
 21
105.9550495093
  0
LINE
  5
30A
100
AcDbEntity
  8
0
100
AcDbLine
 62
7
  6
BYLAYER
 10
64.9367212513
 20
105.9797433612
 11
66.4367212513
 21
105.9797433612
  0
LINE
  5
30B
100
AcDbEntity
  8
0
100
AcDbLine
 62
7
  6
BYLAYER
 10
85.7434128378
 20
56.2050495093
 11
85.7434128378
 21
58.4550495093
  0
LINE
  5
30C
100
AcDbEntity
  8
0
100
AcDbLine
 62
7
  6
BYLAYER
 10
85.7434128378
 20
59.9550495093
 11
85.7434128378
 21
62.2050495093
  0
LINE
  5
30D
100
AcDbEntity
  8
0
100
AcDbLine
 62
7
  6
BYLAYER
 10
85.7534128378
 20
94.8050495093
 11
85.7534128378
 21
97.0550495093
  0
LINE
  5
30E
100
AcDbEntity
  8
0
100
AcDbLine
 62
7
  6
BYLAYER
 10
85.7534128378
 20
98.5550495093
 11
85.7534128378
 21
100.8050495093
  0
LINE
  5
30F
100
AcDbEntity
  8
0
100
AcDbLine
 62
7
  6
BYLAYER
 10
87.9934128378
 20
58.4550495093
 11
87.9934128378
 21
59.9550495093
  0
LINE
  5
310
100
AcDbEntity
  8
0
100
AcDbLine
 62
7
  6
BYLAYER
 10
88.0034128378
 20
97.0550495093
 11
88.0034128378
 21
98.5550495093
  0
LINE
  5
311
100
AcDbEntity
  8
0
100
AcDbLine
 62
7
  6
BYLAYER
 10
45.9047868256
 20
108.1911709034
 11
48.1547868256
 21
108.1911709034
  0
LINE
  5
312
100
AcDbEntity
  8
0
100
AcDbLine
 62
7
  6
BYLAYER
 10
49.6547868256
 20
108.1911709034
 11
51.9047868256
 21
108.1911709034
  0
LINE
  5
313
100
AcDbEntity
  8
0
100
AcDbLine
 62
7
  6
BYLAYER
 10
76.6985332408
 20
108.2018057304
 11
78.9485332408
 21
108.2018057304
  0
LINE
  5
314
100
AcDbEntity
  8
0
100
AcDbLine
 62
7
  6
BYLAYER
 10
80.4485332408
 20
108.2018057304
 11
82.6985332408
 21
108.2018057304
  0
LINE
  5
315
100
AcDbEntity
  8
0
100
AcDbLine
 62
7
  6
BYLAYER
 10
17.8945776523
 20
108.2041476141
 11
20.1445776523
 21
108.2041476141
  0
LINE
  5
316
100
AcDbEntity
  8
0
100
AcDbLine
 62
7
  6
BYLAYER
 10
21.6445776523
 20
108.2041476141
 11
23.8945776523
 21
108.2041476141
  0
LINE
  5
317
100
AcDbEntity
  8
0
100
AcDbLine
 62
7
  6
BYLAYER
 10
31.8945740985
 20
108.2050353967
 11
34.1445740985
 21
108.2050353967
  0
LINE
  5
318
100
AcDbEntity
  8
0
100
AcDbLine
 62
7
  6
BYLAYER
 10
35.6445740985
 20
108.2050353967
 11
37.8945740985
 21
108.2050353967
  0
LINE
  5
319
100
AcDbEntity
  8
0
100
AcDbLine
 62
7
  6
BYLAYER
 10
90.6943956665
 20
108.2050495093
 11
92.9443956665
 21
108.2050495093
  0
LINE
  5
31A
100
AcDbEntity
  8
0
100
AcDbLine
 62
7
  6
BYLAYER
 10
94.4443956665
 20
108.2050495093
 11
96.6943956665
 21
108.2050495093
  0
LINE
  5
31B
100
AcDbEntity
  8
0
100
AcDbLine
 62
7
  6
BYLAYER
 10
62.6867212513
 20
108.2297433612
 11
64.9367212513
 21
108.2297433612
  0
LINE
  5
31C
100
AcDbEntity
  8
0
100
AcDbLine
 62
7
  6
BYLAYER
 10
66.4367212513
 20
108.2297433612
 11
68.6867212513
 21
108.2297433612
  0
LINE
  5
31D
100
AcDbEntity
  8
0
100
AcDbLine
 62
7
  6
BYLAYER
 10
51.9047868256
 20
109.6911709034
 11
49.6547868256
 21
109.6911709034
  0
LINE
  5
31E
100
AcDbEntity
  8
0
100
AcDbLine
 62
7
  6
BYLAYER
 10
48.1547868256
 20
109.6911709034
 11
45.9047868256
 21
109.6911709034
  0
LINE
  5
31F
100
AcDbEntity
  8
0
100
AcDbLine
 62
7
  6
BYLAYER
 10
82.6985332408
 20
109.7018057304
 11
80.4485332408
 21
109.7018057304
  0
LINE
  5
320
100
AcDbEntity
  8
0
100
AcDbLine
 62
7
  6
BYLAYER
 10
78.9485332408
 20
109.7018057304
 11
76.6985332408
 21
109.7018057304
  0
LINE
  5
321
100
AcDbEntity
  8
0
100
AcDbLine
 62
7
  6
BYLAYER
 10
23.8945776523
 20
109.7041476141
 11
21.6445776523
 21
109.7041476141
  0
LINE
  5
322
100
AcDbEntity
  8
0
100
AcDbLine
 62
7
  6
BYLAYER
 10
20.1445776523
 20
109.7041476141
 11
17.8945776523
 21
109.7041476141
  0
LINE
  5
323
100
AcDbEntity
  8
0
100
AcDbLine
 62
7
  6
BYLAYER
 10
37.8945740985
 20
109.7050353967
 11
35.6445740985
 21
109.7050353967
  0
LINE
  5
324
100
AcDbEntity
  8
0
100
AcDbLine
 62
7
  6
BYLAYER
 10
34.1445740985
 20
109.7050353967
 11
31.8945740985
 21
109.7050353967
  0
LINE
  5
325
100
AcDbEntity
  8
0
100
AcDbLine
 62
7
  6
BYLAYER
 10
96.6943956665
 20
109.7050495093
 11
94.4443956665
 21
109.7050495093
  0
LINE
  5
326
100
AcDbEntity
  8
0
100
AcDbLine
 62
7
  6
BYLAYER
 10
92.9443956665
 20
109.7050495093
 11
90.6943956665
 21
109.7050495093
  0
LINE
  5
327
100
AcDbEntity
  8
0
100
AcDbLine
 62
7
  6
BYLAYER
 10
68.6867212513
 20
109.7297433612
 11
66.4367212513
 21
109.7297433612
  0
LINE
  5
328
100
AcDbEntity
  8
0
100
AcDbLine
 62
7
  6
BYLAYER
 10
64.9367212513
 20
109.7297433612
 11
62.6867212513
 21
109.7297433612
  0
LINE
  5
329
100
AcDbEntity
  8
0
100
AcDbLine
 62
7
  6
BYLAYER
 10
90.6943956665
 20
109.7050495093
 11
90.6943956665
 21
108.2050495093
  0
LINE
  5
32A
100
AcDbEntity
  8
0
100
AcDbLine
 62
7
  6
BYLAYER
 10
90.6943956665
 20
48.7050495093
 11
90.6943956665
 21
47.2050495093
  0
LINE
  5
32B
100
AcDbEntity
  8
0
100
AcDbLine
 62
7
  6
BYLAYER
 10
92.5934128378
 20
59.9550495093
 11
92.5934128378
 21
58.4550495093
  0
LINE
  5
32C
100
AcDbEntity
  8
0
100
AcDbLine
 62
7
  6
BYLAYER
 10
92.6034128378
 20
98.5550495093
 11
92.6034128378
 21
97.0550495093
  0
LINE
  5
32D
100
AcDbEntity
  8
0
100
AcDbLine
 62
7
  6
BYLAYER
 10
92.9443956665
 20
111.9550495093
 11
92.9443956665
 21
109.7050495093
  0
LINE
  5
32E
100
AcDbEntity
  8
0
100
AcDbLine
 62
7
  6
BYLAYER
 10
92.9443956665
 20
108.2050495093
 11
92.9443956665
 21
105.9550495093
  0
LINE
  5
32F
100
AcDbEntity
  8
0
100
AcDbLine
 62
7
  6
BYLAYER
 10
92.9443956665
 20
50.9550495093
 11
92.9443956665
 21
48.7050495093
  0
LINE
  5
330
100
AcDbEntity
  8
0
100
AcDbLine
 62
7
  6
BYLAYER
 10
92.9443956665
 20
47.2050495093
 11
92.9443956665
 21
44.9550495093
  0
LINE
  5
331
100
AcDbEntity
  8
0
100
AcDbLine
 62
7
  6
BYLAYER
 10
49.6547868256
 20
111.9411709034
 11
48.1547868256
 21
111.9411709034
  0
LINE
  5
332
100
AcDbEntity
  8
0
100
AcDbLine
 62
7
  6
BYLAYER
 10
80.4485332408
 20
111.9518057304
 11
78.9485332408
 21
111.9518057304
  0
LINE
  5
333
100
AcDbEntity
  8
0
100
AcDbLine
 62
7
  6
BYLAYER
 10
21.6445776523
 20
111.9541476141
 11
20.1445776523
 21
111.9541476141
  0
LINE
  5
334
100
AcDbEntity
  8
0
100
AcDbLine
 62
7
  6
BYLAYER
 10
35.6445740985
 20
111.9550353967
 11
34.1445740985
 21
111.9550353967
  0
LINE
  5
335
100
AcDbEntity
  8
0
100
AcDbLine
 62
7
  6
BYLAYER
 10
94.4443956665
 20
111.9550495093
 11
92.9443956665
 21
111.9550495093
  0
LINE
  5
336
100
AcDbEntity
  8
0
100
AcDbLine
 62
7
  6
BYLAYER
 10
66.4367212513
 20
111.9797433612
 11
64.9367212513
 21
111.9797433612
  0
LINE
  5
337
100
AcDbEntity
  8
0
100
AcDbLine
 62
7
  6
BYLAYER
 10
101.8634128174
 20
114.2050495093
 11
12.4134128378
 21
114.2050495093
  0
LINE
  5
338
100
AcDbEntity
  8
0
100
AcDbLine
 62
7
  6
BYLAYER
 10
94.4443956665
 20
44.9550495093
 11
94.4443956665
 21
47.2050495093
  0
LINE
  5
339
100
AcDbEntity
  8
0
100
AcDbLine
 62
7
  6
BYLAYER
 10
94.4443956665
 20
48.7050495093
 11
94.4443956665
 21
50.9550495093
  0
LINE
  5
33A
100
AcDbEntity
  8
0
100
AcDbLine
 62
7
  6
BYLAYER
 10
94.4443956665
 20
105.9550495093
 11
94.4443956665
 21
108.2050495093
  0
LINE
  5
33B
100
AcDbEntity
  8
0
100
AcDbLine
 62
7
  6
BYLAYER
 10
94.4443956665
 20
109.7050495093
 11
94.4443956665
 21
111.9550495093
  0
LINE
  5
33C
100
AcDbEntity
  8
0
100
AcDbLine
 62
7
  6
BYLAYER
 10
94.8434128378
 20
62.2050495093
 11
94.8434128378
 21
59.9550495093
  0
LINE
  5
33D
100
AcDbEntity
  8
0
100
AcDbLine
 62
7
  6
BYLAYER
 10
94.8434128378
 20
58.4550495093
 11
94.8434128378
 21
56.2050495093
  0
LINE
  5
33E
100
AcDbEntity
  8
0
100
AcDbLine
 62
7
  6
BYLAYER
 10
94.8534128378
 20
100.8050495093
 11
94.8534128378
 21
98.5550495093
  0
LINE
  5
33F
100
AcDbEntity
  8
0
100
AcDbLine
 62
7
  6
BYLAYER
 10
94.8534128378
 20
97.0550495093
 11
94.8534128378
 21
94.8050495093
  0
LINE
  5
340
100
AcDbEntity
  8
0
100
AcDbLine
 62
7
  6
BYLAYER
 10
96.3434128378
 20
56.2050495093
 11
96.3434128378
 21
58.4550495093
  0
LINE
  5
341
100
AcDbEntity
  8
0
100
AcDbLine
 62
7
  6
BYLAYER
 10
96.3434128378
 20
59.9550495093
 11
96.3434128378
 21
62.2050495093
  0
LINE
  5
342
100
AcDbEntity
  8
0
100
AcDbLine
 62
7
  6
BYLAYER
 10
96.3534128378
 20
94.8050495093
 11
96.3534128378
 21
97.0550495093
  0
LINE
  5
343
100
AcDbEntity
  8
0
100
AcDbLine
 62
7
  6
BYLAYER
 10
96.3534128378
 20
98.5550495093
 11
96.3534128378
 21
100.8050495093
  0
LINE
  5
344
100
AcDbEntity
  8
0
100
AcDbLine
 62
7
  6
BYLAYER
 10
96.6943956665
 20
47.2050495093
 11
96.6943956665
 21
48.7050495093
  0
LINE
  5
345
100
AcDbEntity
  8
0
100
AcDbLine
 62
7
  6
BYLAYER
 10
96.6943956665
 20
108.2050495093
 11
96.6943956665
 21
109.7050495093
  0
LINE
  5
346
100
AcDbEntity
  8
0
100
AcDbLine
 62
7
  6
BYLAYER
 10
98.5934128378
 20
58.4550495093
 11
98.5934128378
 21
59.9550495093
  0
LINE
  5
347
100
AcDbEntity
  8
0
100
AcDbLine
 62
7
  6
BYLAYER
 10
98.6034128378
 20
97.0550495093
 11
98.6034128378
 21
98.5550495093
  0
LINE
  5
348
100
AcDbEntity
  8
0
100
AcDbLine
 62
7
  6
BYLAYER
 10
101.1944102758
 20
63.9050495093
 11
101.1944102758
 21
93.1591300755
  0
LINE
  5
349
100
AcDbEntity
  8
0
100
AcDbLine
 62
7
  6
BYLAYER
 10
101.2103704066
 20
114.2050495093
 11
101.2103704066
 21
104.3050495093
  0
LINE
  5
34A
100
AcDbEntity
  8
0
100
AcDbLine
 62
7
  6
BYLAYER
 10
101.2468185044
 20
52.7050495093
 11
101.2468185044
 21
63.9050495093
  0
LINE
  5
34B
100
AcDbEntity
  8
0
100
AcDbLine
 62
7
  6
BYLAYER
 10
101.2492153888
 20
104.3050495093
 11
101.2492153888
 21
93.3540835736
  0
LINE
  5
34C
100
AcDbEntity
  8
0
100
AcDbLine
 62
7
  6
BYLAYER
 10
101.3471608859
 20
42.5550495093
 11
101.3471608859
 21
52.7050495093
  0
LINE
  5
34D
100
AcDbEntity
  8
0
100
AcDbLine
 62
7
  6
BYLAYER
 10
101.8134128378
 20
52.7050495093
 11
101.8134128378
 21
104.3050495093
  0
LINE
  5
34E
100
AcDbEntity
  8
0
100
AcDbLine
 62
7
  6
BYLAYER
 10
101.8634128378
 20
52.7050495627
 11
101.8634128378
 21
114.9811822041
  0
LINE
  5
34F
100
AcDbEntity
  8
0
100
AcDbLine
 62
7
  6
BYLAYER
 10
101.9004022269
 20
52.7050495093
 11
101.9004022269
 21
42.5550495093
  0
ARC
  5
350
100
AcDbEntity
  8
0
100
AcDbCircle
 62
7
  6
BYLAYER
 10
34.8134128378
 20
35.3050495093
 40
80.0
100
AcDbArc
 50
80.9942443416
 51
97.53350019
  0
ARC
  5
351
100
AcDbEntity
  8
0
100
AcDbCircle
 62
7
  6
BYLAYER
 10
17.4134128378
 20
49.8050495093
 40
10.0
100
AcDbArc
 50
247.9756871629
 51
281.8652626884
  0
ARC
  5
352
100
AcDbEntity
  8
0
100
AcDbCircle
 62
7
  6
BYLAYER
 10
18.6488105882
 20
43.9250011127
 40
3.9915745201
100
AcDbArc
 50
281.8652626883
 51
335.8389758877
  0
CIRCLE
  5
353
100
AcDbEntity
  8
0
100
AcDbCircle
 62
7
  6
BYLAYER
 10
50.7943956665
 20
59.2050495093
 40
3.25
  0
CIRCLE
  5
354
100
AcDbEntity
  8
0
100
AcDbCircle
 62
7
  6
BYLAYER
 10
40.1943956665
 20
59.2050495093
 40
3.25
  0
CIRCLE
  5
355
100
AcDbEntity
  8
0
100
AcDbCircle
 62
7
  6
BYLAYER
 10
29.5943956665
 20
59.2050495093
 40
3.25
  0
CIRCLE
  5
356
100
AcDbEntity
  8
0
100
AcDbCircle
 62
7
  6
BYLAYER
 10
20.8943956665
 20
47.9550495093
 40
3.2
  0
CIRCLE
  5
357
100
AcDbEntity
  8
0
100
AcDbCircle
 62
7
  6
BYLAYER
 10
34.8943956665
 20
47.9550495093
 40
3.2
  0
CIRCLE
  5
358
100
AcDbEntity
  8
0
100
AcDbCircle
 62
7
  6
BYLAYER
 10
48.8943956665
 20
47.9550495093
 40
3.2
  0
ARC
  5
359
100
AcDbEntity
  8
0
100
AcDbCircle
 62
7
  6
BYLAYER
 10
17.3134128378
 20
43.3050495093
 40
2.25
100
AcDbArc
 50
208.5506897512
 51
331.3425325177
  0
ARC
  5
35A
100
AcDbEntity
  8
0
100
AcDbCircle
 62
7
  6
BYLAYER
 10
14.4134128378
 20
42.3888510222
 40
2.0
100
AcDbArc
 50
180.0
 51
247.9756871629
  0
ARC
  5
35B
100
AcDbEntity
  8
0
100
AcDbCircle
 62
7
  6
BYLAYER
 10
34.8134128378
 20
121.3050495093
 40
80.0
100
AcDbArc
 50
260.9942443416
 51
278.157315909
  0
ARC
  5
35C
100
AcDbEntity
  8
0
100
AcDbCircle
 62
7
  6
BYLAYER
 10
52.2134128378
 20
106.8050495093
 40
10.0
100
AcDbArc
 50
67.9756871628
 51
101.8652626886
  0
ARC
  5
35D
100
AcDbEntity
  8
0
100
AcDbCircle
 62
7
  6
BYLAYER
 10
50.9780150874
 20
112.6850979059
 40
3.9915745201
100
AcDbArc
 50
101.8652626889
 51
155.8389758877
  0
CIRCLE
  5
35E
100
AcDbEntity
  8
0
100
AcDbCircle
 62
7
  6
BYLAYER
 10
50.7943956665
 20
97.8050495093
 40
3.25
  0
CIRCLE
  5
35F
100
AcDbEntity
  8
0
100
AcDbCircle
 62
7
  6
BYLAYER
 10
40.1943956665
 20
97.8050495093
 40
3.25
  0
CIRCLE
  5
360
100
AcDbEntity
  8
0
100
AcDbCircle
 62
7
  6
BYLAYER
 10
29.5943956665
 20
97.8050495093
 40
3.25
  0
CIRCLE
  5
361
100
AcDbEntity
  8
0
100
AcDbCircle
 62
7
  6
BYLAYER
 10
20.8943956665
 20
108.9550495093
 40
3.2
  0
CIRCLE
  5
362
100
AcDbEntity
  8
0
100
AcDbCircle
 62
7
  6
BYLAYER
 10
34.8943956665
 20
108.9550495093
 40
3.2
  0
CIRCLE
  5
363
100
AcDbEntity
  8
0
100
AcDbCircle
 62
7
  6
BYLAYER
 10
48.8943956665
 20
108.9550495093
 40
3.2
  0
ARC
  5
364
100
AcDbEntity
  8
0
100
AcDbCircle
 62
7
  6
BYLAYER
 10
52.3134128378
 20
113.3050495093
 40
2.25
100
AcDbArc
 50
32.1587402523
 51
147.7206359643
  0
ARC
  5
365
100
AcDbEntity
  8
0
100
AcDbCircle
 62
7
  6
BYLAYER
 10
55.2134128378
 20
114.2212479964
 40
2.0
100
AcDbArc
 50
0.0
 51
67.975687162
  0
ARC
  5
366
100
AcDbEntity
  8
0
100
AcDbCircle
 62
7
  6
BYLAYER
 10
79.6134128378
 20
35.3050495093
 40
80.0
100
AcDbArc
 50
80.9942443416
 51
97.53350019
  0
ARC
  5
367
100
AcDbEntity
  8
0
100
AcDbCircle
 62
7
  6
BYLAYER
 10
62.2134128378
 20
49.8050495093
 40
10.0
100
AcDbArc
 50
247.9756871629
 51
281.8652626884
  0
ARC
  5
368
100
AcDbEntity
  8
0
100
AcDbCircle
 62
7
  6
BYLAYER
 10
63.4488105882
 20
43.9250011127
 40
3.9915745201
100
AcDbArc
 50
281.8652626883
 51
335.8389758877
  0
CIRCLE
  5
369
100
AcDbEntity
  8
0
100
AcDbCircle
 62
7
  6
BYLAYER
 10
84.9943956665
 20
59.2050495093
 40
3.25
  0
CIRCLE
  5
36A
100
AcDbEntity
  8
0
100
AcDbCircle
 62
7
  6
BYLAYER
 10
95.5943956665
 20
59.2050495093
 40
3.25
  0
CIRCLE
  5
36B
100
AcDbEntity
  8
0
100
AcDbCircle
 62
7
  6
BYLAYER
 10
74.3943956665
 20
59.2050495093
 40
3.25
  0
CIRCLE
  5
36C
100
AcDbEntity
  8
0
100
AcDbCircle
 62
7
  6
BYLAYER
 10
65.6943956665
 20
47.9550495093
 40
3.2
  0
CIRCLE
  5
36D
100
AcDbEntity
  8
0
100
AcDbCircle
 62
7
  6
BYLAYER
 10
79.6943956665
 20
47.9550495093
 40
3.2
  0
CIRCLE
  5
36E
100
AcDbEntity
  8
0
100
AcDbCircle
 62
7
  6
BYLAYER
 10
93.6943956665
 20
47.9550495093
 40
3.2
  0
ARC
  5
36F
100
AcDbEntity
  8
0
100
AcDbCircle
 62
7
  6
BYLAYER
 10
62.1134128378
 20
43.3050495093
 40
2.25
100
AcDbArc
 50
208.5506897512
 51
331.3425325177
  0
ARC
  5
370
100
AcDbEntity
  8
0
100
AcDbCircle
 62
7
  6
BYLAYER
 10
59.2134128378
 20
42.3888510222
 40
2.0
100
AcDbArc
 50
180.0
 51
247.9756871629
  0
ARC
  5
371
100
AcDbEntity
  8
0
100
AcDbCircle
 62
7
  6
BYLAYER
 10
79.6134128378
 20
121.3050495093
 40
80.0
100
AcDbArc
 50
260.9942443416
 51
278.1600168801
  0
ARC
  5
372
100
AcDbEntity
  8
0
100
AcDbCircle
 62
7
  6
BYLAYER
 10
97.0134128378
 20
106.8050495093
 40
10.0
100
AcDbArc
 50
67.9756871627
 51
101.8652626886
  0
ARC
  5
373
100
AcDbEntity
  8
0
100
AcDbCircle
 62
7
  6
BYLAYER
 10
95.7780150874
 20
112.6850979059
 40
3.9915745201
100
AcDbArc
 50
101.8652626889
 51
155.8389758877
  0
CIRCLE
  5
374
100
AcDbEntity
  8
0
100
AcDbCircle
 62
7
  6
BYLAYER
 10
74.3943956665
 20
97.8050495093
 40
3.25
  0
CIRCLE
  5
375
100
AcDbEntity
  8
0
100
AcDbCircle
 62
7
  6
BYLAYER
 10
84.9943956665
 20
97.8050495093
 40
3.25
  0
CIRCLE
  5
376
100
AcDbEntity
  8
0
100
AcDbCircle
 62
7
  6
BYLAYER
 10
95.5943956665
 20
97.8050495093
 40
3.25
  0
CIRCLE
  5
377
100
AcDbEntity
  8
0
100
AcDbCircle
 62
7
  6
BYLAYER
 10
65.6943956665
 20
108.9550495093
 40
3.2
  0
CIRCLE
  5
378
100
AcDbEntity
  8
0
100
AcDbCircle
 62
7
  6
BYLAYER
 10
79.6943956665
 20
108.9550495093
 40
3.2
  0
CIRCLE
  5
379
100
AcDbEntity
  8
0
100
AcDbCircle
 62
7
  6
BYLAYER
 10
93.6943956665
 20
108.9550495093
 40
3.2
  0
ARC
  5
37A
100
AcDbEntity
  8
0
100
AcDbCircle
 62
7
  6
BYLAYER
 10
97.1134128378
 20
113.3050495093
 40
2.25
100
AcDbArc
 50
32.1587402523
 51
147.7206359643
  0
ARC
  5
37B
100
AcDbEntity
  8
0
100
AcDbCircle
 62
7
  6
BYLAYER
 10
100.0134128378
 20
114.2212479964
 40
2.0
100
AcDbArc
 50
22.3316450092
 51
67.9756871619
  0
ELLIPSE
  5
37C
100
AcDbEntity
  8
0
100
AcDbEllipse
 62
7
  6
BYLAYER
 10
101.0660641103
 20
93.1798239421
 30
0.0
 11
0.8006213102
 21
0.0
 31
0.0
 40
0.0261859216
 41
-1.4097934382
 42
-0.3668523932
  0
ELLIPSE
  5
37D
100
AcDbEntity
  8
0
100
AcDbEllipse
 62
7
  6
BYLAYER
 10
79.7605384402
 20
96.4554204774
 30
0.0
 11
127.6920070573
 21
-0.0
 31
0.0
 40
0.0261859216
 41
-1.7474335437
 42
-1.4021419019
  0
ELLIPSE
  5
37E
100
AcDbEntity
  8
0
100
AcDbEllipse
 62
7
  6
BYLAYER
 10
34.8134128378
 20
96.4552580921
 30
0.0
 11
127.6984012271
 21
-0.0
 31
0.0
 40
0.0261859216
 41
-1.7432575119
 42
-1.3936030961
  0
ELLIPSE
  5
37F
100
AcDbEntity
  8
0
100
AcDbEllipse
 62
7
  6
BYLAYER
 10
13.148779823
 20
93.1798239421
 30
0.0
 11
0.7622108888
 21
0.0
 31
0.0
 40
0.0261859216
 41
-2.688694862
 42
-1.9041077425
  0
ELLIPSE
  5
380
100
AcDbEntity
  8
0
100
AcDbEllipse
 62
7
  6
BYLAYER
 10
13.5126150445
 20
93.3821413368
 30
0.0
 11
1.1069733333
 21
-0.0
 31
0.0
 40
0.0261859216
 41
-2.8170969638
 42
-1.7288081443
  0
ELLIPSE
  5
381
100
AcDbEntity
  8
0
100
AcDbEllipse
 62
7
  6
BYLAYER
 10
34.8134128378
 20
96.9835549575
 30
0.0
 11
140.2791416848
 21
0.0
 31
0.0
 40
0.0261859216
 41
-1.7244881952
 42
-1.4098940303
  0
ELLIPSE
  5
382
100
AcDbEntity
  8
0
100
AcDbEllipse
 62
7
  6
BYLAYER
 10
79.6992375328
 20
96.9836845676
 30
0.0
 11
140.2740900522
 21
0.0
 31
0.0
 40
0.0261859216
 41
-1.7312558923
 42
-1.4165578679
  0
ELLIPSE
  5
383
100
AcDbEntity
  8
0
100
AcDbEllipse
 62
7
  6
BYLAYER
 10
100.7626784826
 20
93.3798352086
 30
0.0
 11
1.0971890223
 21
0.0
 31
0.0
 40
0.0261859216
 41
-1.1113639015
 42
-0.2920339262
  0
ENDSEC
  0
SECTION
  2
OBJECTS
  0
DICTIONARY
  5
C
100
AcDbDictionary
280
0
281
1
  3
ACAD_GROUP
350
D
  3
ACAD_MLINESTYLE
350
17
  3
ACAD_LAYOUT
350
1A
  3
ACAD_PLOTSETTINGS
350
19
  3
ACAD_PLOTSTYLENAME
350
E
  0
DICTIONARY
  5
D
102
{ACAD_REACTORS
330
C
102
}
100
AcDbDictionary
280
0
281
1
  0
ACDBDICTIONARYWDFLT
  5
E
102
{ACAD_REACTORS
330
C
102
}
100
AcDbDictionary
281
1
  3
Normal
350
F
100
AcDbDictionaryWithDefault
340
F
  0
DICTIONARY
  5
17
102
{ACAD_REACTORS
330
C
102
}
100
AcDbDictionary
280
0
281
1
  3
Standard
350
18
  0
DICTIONARY
  5
19
102
{ACAD_REACTORS
330
C
102
}
100
AcDbDictionary
281
1
  0
DICTIONARY
  5
1A
102
{ACAD_REACTORS
330
C
102
}
100
AcDbDictionary
281
1
  3
Model
350
384
  3
Layout1
350
385
  0
ACDBPLACEHOLDER
  5
F
102
{ACAD_REACTORS
330
E
102
}
  0
MLINESTYLE
  5
18
102
{ACAD_REACTORS
330
17
102
}
100
AcDbMlineStyle
  2
STANDARD
 70
0
  3

 62
256
 51
90.0
 52
90.0
 71
2
 49
0.5
 62
256
  6
BYLAYER
 49
-0.5
 62
256
  6
BYLAYER
  0
LAYOUT
  5
384
102
{ACAD_REACTORS
330
1A
102
}
100
AcDbPlotSettings
  1

  2
none_device
  4

  6

 40
0.0
 41
0.0
 42
0.0
 43
0.0
 44
210.0
 45
297.0
 46
0.0
 47
0.0
 48
0.0
 49
0.0
140
0.0
141
0.0
142
1.0
143
1.0
 70
1024
 72
1
 73
0
 74
0
  7

 75
0
147
1.0
148
0.0
149
0.0
100
AcDbLayout
  1
Model
 70
0
 71
0
 10
0.0
 20
0.0
 11
210.0
 21
297.0
 12
0.0
 22
0.0
 32
0.0
 14
0.0
 24
0.0
 34
0.0
 15
0.0
 25
0.0
 35
0.0
146
0.0
 13
0.0
 23
0.0
 33
0.0
 16
1.0
 26
0.0
 36
0.0
 17
0.0
 27
1.0
 37
0.0
 76
0
330
210
345
0
346
0
  0
LAYOUT
  5
385
102
{ACAD_REACTORS
330
1A
102
}
100
AcDbPlotSettings
  1

  2
none_device
  4

  6

 40
0.0
 41
0.0
 42
0.0
 43
0.0
 44
210.0
 45
297.0
 46
0.0
 47
0.0
 48
0.0
 49
0.0
140
0.0
141
0.0
142
1.0
143
1.0
 70
0
 72
1
 73
0
 74
0
  7

 75
0
147
1.0
148
0.0
149
0.0
100
AcDbLayout
  1
Layout1
 70
0
 71
1
 10
0.0
 20
0.0
 11
210.0
 21
297.0
 12
0.0
 22
0.0
 32
0.0
 14
0.0
 24
0.0
 34
0.0
 15
0.0
 25
0.0
 35
0.0
146
0.0
 13
0.0
 23
0.0
 33
0.0
 16
1.0
 26
0.0
 36
0.0
 17
0.0
 27
1.0
 37
0.0
 76
0
330
211
345
0
346
0
  0
ENDSEC
  0
EOF
