999
DXF file: C:\Users\sesa63760\Dev\_Creo\CAD\MCADID0005209_3D-CAD\drw0001_3.dxf
999
Pro/ENGINEER 2019471 by Parametric Technology Corporation
  0
SECTION
  2
HEADER
  9
$ACADVER
  1
AC1024
  9
$DWGCODEPAGE
  3
ANSI_1252
  9
$EXTMAX
 10
42.3240636756
 20
59.858318627
 30
0.0
  9
$EXTMIN
 10
0.0
 20
0.0
 30
0.0
  9
$LIMMIN
 10
0.0
 20
0.0
  9
$LIMMAX
 10
42.3240636756
 20
59.858318627
  9
$VIEWCTR
 10
21.1620318378
 20
29.9291593135
  9
$VIEWSIZE
 40
59.858318627
  9
$CLAYER
  8
0
  9
$LTSCALE
 40
3.9018755846
  9
$CELTYPE
  6
BYLAYER
  9
$DIMSCALE
 40
1.0
  9
$DIMASZ
 40
0.5038579009
  9
$DIMEXO
 40
1.0
  9
$DIMDLI
 40
2.695841313
  9
$DIMEXE
 40
1.0
  9
$DIMCEN
 40
0.638488732
  9
$DIMLFAC
 40
1.0
  9
$DIMBLK
  1
_FILLED
  9
$DIMALT
 70
0
  9
$DIMALTF
 40
0.0393700787
  9
$DIMTXT
 40
0.7054010613
  9
$DIMTOL
 70
1
  9
$DIMLIM
 70
0
  9
$DIMTFAC
 40
1.0
  9
$DIMTP
 40
0.01
  9
$DIMTM
 40
0.01
  9
$DIMGAP
 40
0.625
  9
$DIMDSEP
 70
46
  9
$AUNITS
 70
0
  9
$PDMODE
 70
3
  9
$PDSIZE
 40
0.3125
  9
$HANDSEED
  5
305
  9
$TILEMODE
 70
1
  9
$MEASUREMENT
 70
1
  9
$INSUNITS
 70
4
  0
ENDSEC
  0
SECTION
  2
CLASSES
  0
CLASS
  1
ACDBDICTIONARYWDFLT
  2
AcDbDictionaryWithDefault
  3
AutoCAD 2000
 90
0
 91
1
280
0
281
0
  0
CLASS
  1
ACDBPLACEHOLDER
  2
AcDbPlaceHolder
  3
AutoCAD 2000
 90
0
 91
1
280
0
281
0
  0
CLASS
  1
LAYOUT
  2
AcDbLayout
  3
AutoCAD 2000
 90
0
 91
0
280
0
281
0
  0
ENDSEC
  0
SECTION
  2
TABLES
  0
TABLE
  2
VPORT
  5
8
100
AcDbSymbolTable
 70
2
  0
VPORT
  5
1F4
100
AcDbSymbolTableRecord
100
AcDbViewportTableRecord
  2
*ACTIVE
 70
0
 10
0.0
 20
0.0
 11
1.0
 21
1.0
 12
21.1620318378
 22
29.9291593135
 13
0.0
 23
0.0
 14
1.0
 24
1.0
 15
0.0
 25
0.0
 16
0.0
 26
0.0
 36
1.0
 17
0.0
 27
0.0
 37
0.0
 40
59.858318627
 41
0.7070707071
 42
50.0
 43
0.0
 44
0.0
 50
0.0
 51
0.0
 71
0
 72
100
 73
1
 74
1
 75
0
 76
0
 77
0
 78
0
  0
ENDTAB
  0
TABLE
  2
LTYPE
  5
5
100
AcDbSymbolTable
 70
6
  0
LTYPE
  5
14
100
AcDbSymbolTableRecord
100
AcDbLinetypeTableRecord
  2
BYBLOCK
 70
0
  3

 72
65
 73
0
 40
0.0
  0
LTYPE
  5
15
100
AcDbSymbolTableRecord
100
AcDbLinetypeTableRecord
  2
BYLAYER
 70
0
  3

 72
65
 73
0
 40
0.0
  0
LTYPE
  5
16
100
AcDbSymbolTableRecord
100
AcDbLinetypeTableRecord
  2
CONTINUOUS
 70
64
  3
Solid line
 72
65
 73
0
 40
0.0
  0
LTYPE
  5
1F5
100
AcDbSymbolTableRecord
100
AcDbLinetypeTableRecord
  2
CENTER
 70
64
  3
____ _ ____ _ ____ _ ____ _ ____ _ ____ _ ____
 72
65
 73
4
 40
0.6
 49
0.375
 74
0
 49
-0.075
 74
0
 49
0.075
 74
0
 49
-0.075
 74
0
  0
LTYPE
  5
1F6
100
AcDbSymbolTableRecord
100
AcDbLinetypeTableRecord
  2
HIDDEN
 70
64
  3
- - - - - - - - - - - - - - - - - - - -
 72
65
 73
2
 40
0.2
 49
0.1
 74
0
 49
-0.1
 74
0
  0
LTYPE
  5
1F7
100
AcDbSymbolTableRecord
100
AcDbLinetypeTableRecord
  2
PHANTOM
 70
64
  3
_____ _ _ _____ _ _ _____ _ _ _____
 72
65
 73
6
 40
0.8
 49
0.45
 74
0
 49
-0.05
 74
0
 49
0.1
 74
0
 49
-0.05
 74
0
 49
0.1
 74
0
 49
-0.05
 74
0
  0
LTYPE
  5
1F8
100
AcDbSymbolTableRecord
100
AcDbLinetypeTableRecord
  2
DOT
 70
64
  3
. . . . . . . . . . . . . . . . . . . .
 72
65
 73
2
 40
0.2
 49
0.1
 74
0
 49
-0.1
 74
0
  0
LTYPE
  5
1F9
100
AcDbSymbolTableRecord
100
AcDbLinetypeTableRecord
  2
DASHED
 70
64
  3
- - - - - - - - - - - - - - - - - - - -
 72
65
 73
2
 40
0.2
 49
0.1
 74
0
 49
-0.1
 74
0
  0
ENDTAB
  0
TABLE
  2
LAYER
  5
2
100
AcDbSymbolTable
 70
36
  0
LAYER
  5
10
100
AcDbSymbolTableRecord
100
AcDbLayerTableRecord
  2
0
 70
0
 62
7
  6
CONTINUOUS
370
-3
390
F
  0
LAYER
  5
1FA
100
AcDbSymbolTableRecord
100
AcDbLayerTableRecord
  2
DEFAULT_1
 70
0
 62
7
  6
CENTER
370
-3
390
F
  0
LAYER
  5
1FB
100
AcDbSymbolTableRecord
100
AcDbLayerTableRecord
  2
DEFAULT_2
 70
0
 62
7
  6
HIDDEN
370
-3
390
F
  0
LAYER
  5
1FC
100
AcDbSymbolTableRecord
100
AcDbLayerTableRecord
  2
DEFAULT_3
 70
0
 62
7
  6
PHANTOM
370
-3
390
F
  0
LAYER
  5
1FD
100
AcDbSymbolTableRecord
100
AcDbLayerTableRecord
  2
00_COMPONENTS
 70
0
 62
7
  6
CONTINUOUS
370
-3
390
F
  0
LAYER
  5
1FE
100
AcDbSymbolTableRecord
100
AcDbLayerTableRecord
  2
01_1_DEFAULT_DATUMS
 70
0
 62
7
  6
CONTINUOUS
370
-3
390
F
  0
LAYER
  5
1FF
100
AcDbSymbolTableRecord
100
AcDbLayerTableRecord
  2
01_PLANES
 70
0
 62
7
  6
CONTINUOUS
370
-3
390
F
  0
LAYER
  5
200
100
AcDbSymbolTableRecord
100
AcDbLayerTableRecord
  2
02_COORD_SYS
 70
0
 62
7
  6
CONTINUOUS
370
-3
390
F
  0
LAYER
  5
201
100
AcDbSymbolTableRecord
100
AcDbLayerTableRecord
  2
03_AXES
 70
0
 62
7
  6
CONTINUOUS
370
-3
390
F
  0
LAYER
  5
202
100
AcDbSymbolTableRecord
100
AcDbLayerTableRecord
  2
04_POINTS
 70
0
 62
7
  6
CONTINUOUS
370
-3
390
F
  0
LAYER
  5
203
100
AcDbSymbolTableRecord
100
AcDbLayerTableRecord
  2
05_CURVES
 70
0
 62
7
  6
CONTINUOUS
370
-3
390
F
  0
LAYER
  5
204
100
AcDbSymbolTableRecord
100
AcDbLayerTableRecord
  2
06_SURFS
 70
0
 62
7
  6
CONTINUOUS
370
-3
390
F
  0
LAYER
  5
205
100
AcDbSymbolTableRecord
100
AcDbLayerTableRecord
  2
07_COSMETICS
 70
0
 62
7
  6
CONTINUOUS
370
-3
390
F
  0
LAYER
  5
206
100
AcDbSymbolTableRecord
100
AcDbLayerTableRecord
  2
10_NOTES
 70
0
 62
7
  6
CONTINUOUS
370
-3
390
F
  0
LAYER
  5
207
100
AcDbSymbolTableRecord
100
AcDbLayerTableRecord
  2
11_NOTES_PUB
 70
0
 62
7
  6
CONTINUOUS
370
-3
390
F
  0
LAYER
  5
208
100
AcDbSymbolTableRecord
100
AcDbLayerTableRecord
  2
13_REF_GTOL
 70
0
 62
7
  6
CONTINUOUS
370
-3
390
F
  0
LAYER
  5
209
100
AcDbSymbolTableRecord
100
AcDbLayerTableRecord
  2
16_MISC
 70
0
 62
7
  6
CONTINUOUS
370
-3
390
F
  0
LAYER
  5
20A
100
AcDbSymbolTableRecord
100
AcDbLayerTableRecord
  2
17_NO_PRINT
 70
0
 62
7
  6
CONTINUOUS
370
-3
390
F
  0
LAYER
  5
20B
100
AcDbSymbolTableRecord
100
AcDbLayerTableRecord
  2
18_DATUM_CAMS_JOINTS
 70
0
 62
7
  6
CONTINUOUS
370
-3
390
F
  0
LAYER
  5
20C
100
AcDbSymbolTableRecord
100
AcDbLayerTableRecord
  2
19_DATUM_FUNCTIONAL
 70
0
 62
7
  6
CONTINUOUS
370
-3
390
F
  0
LAYER
  5
20D
100
AcDbSymbolTableRecord
100
AcDbLayerTableRecord
  2
20_DATUM_KINEMATIC_SCHEME
 70
0
 62
7
  6
CONTINUOUS
370
-3
390
F
  0
ENDTAB
  0
TABLE
  2
STYLE
  5
3
100
AcDbSymbolTable
 70
1
  0
STYLE
  5
11
100
AcDbSymbolTableRecord
100
AcDbTextStyleTableRecord
  2
STANDARD
 70
0
 40
0.0
 41
1.0
 50
0.0
 71
0
 42
0.2
  3
ARIAL.TTF
  4

  0
STYLE
  5
20E
100
AcDbSymbolTableRecord
100
AcDbTextStyleTableRecord
  2
TEXTSTYLE_1
 70
0
 40
0.0
 41
0.8
 50
0.0
 71
0
 42
0.2
  3
gdt
  4

  0
ENDTAB
  0
TABLE
  2
VIEW
  5
6
100
AcDbSymbolTable
 70
0
  0
ENDTAB
  0
TABLE
  2
UCS
  5
7
100
AcDbSymbolTable
 70
0
  0
ENDTAB
  0
TABLE
  2
APPID
  5
9
100
AcDbSymbolTable
 70
1
  0
APPID
  5
20F
100
AcDbSymbolTableRecord
100
AcDbRegAppTableRecord
  2
ACAD
 70
0
  0
ENDTAB
  0
TABLE
  2
BLOCK_RECORD
  5
1
100
AcDbSymbolTable
 70
0
  0
BLOCK_RECORD
  5
210
100
AcDbSymbolTableRecord
100
AcDbBlockTableRecord
  2
*Model_Space
  0
BLOCK_RECORD
  5
211
100
AcDbSymbolTableRecord
100
AcDbBlockTableRecord
  2
*Paper_Space
  0
BLOCK_RECORD
  5
212
100
AcDbSymbolTableRecord
100
AcDbBlockTableRecord
  2
_FILLED
  0
ENDTAB
  0
TABLE
  2
DIMSTYLE
  5
A
100
AcDbSymbolTable
 70
1
100
AcDbDimStyleTable
 71
0
  0
DIMSTYLE
105
213
100
AcDbSymbolTableRecord
100
AcDbDimStyleTableRecord
  2
STANDARD
 70
0
  3

  4

 40
1.0
 41
0.5038579009
 42
1.0
 43
0.38
 44
1.0
 45
0.0
 46
0.0
 47
0.01
 48
0.01
140
0.7054010613
141
0.09
142
0.0
143
25.4
144
1.0
145
0.0
146
1.0
147
0.625
 71
1
 72
0
 73
0
 74
0
 75
0
 76
0
 77
1
 78
8
 79
2
170
0
171
1
172
0
173
0
174
0
175
0
176
0
177
0
178
0
270
2
179
2
271
2
272
2
273
2
274
2
275
0
280
0
281
0
282
0
283
1
284
8
285
0
286
0
287
3
288
0
340
11
278
46
341
212
342
212
343
212
344
212
  0
ENDTAB
  0
ENDSEC
  0
SECTION
  2
BLOCKS
  0
BLOCK
  5
20
100
AcDbEntity
  8
0
100
AcDbBlockBegin
  2
*Model_Space
 70
0
 10
0.0
 20
0.0
 30
0.0
  3
*Model_Space
  1

  0
ENDBLK
  5
21
100
AcDbEntity
  8
0
100
AcDbBlockEnd
  0
BLOCK
  5
1C
100
AcDbEntity
  8
0
100
AcDbBlockBegin
  2
*Paper_Space
 70
0
 10
0.0
 20
0.0
 30
0.0
  3
*Paper_Space
  1

  0
ENDBLK
  5
1D
100
AcDbEntity
  8
0
100
AcDbBlockEnd
  0
BLOCK
  5
214
100
AcDbEntity
  8
0
100
AcDbBlockBegin
  2
_FILLED
 70
64
 10
0.0
 20
0.0
  3
_FILLED
  1

  0
SOLID
  5
215
100
AcDbEntity
  8
0
  6
BYBLOCK
 62
0
100
AcDbTrace
 10
0.0
 20
0.0
 11
-1.0
 21
0.25
 12
-1.0
 22
-0.25
 13
-1.0
 23
-0.25
  0
ENDBLK
  5
216
100
AcDbEntity
  8
0
  6
BYBLOCK
 62
0
100
AcDbBlockEnd
  0
ENDSEC
  0
SECTION
  2
ENTITIES
  0
LINE
  5
217
100
AcDbEntity
  8
0
100
AcDbLine
 62
7
  6
BYLAYER
 10
9.074022114
 20
54.7751635014
 11
7.4731585451
 21
54.3024598812
  0
LINE
  5
218
100
AcDbEntity
  8
0
100
AcDbLine
 62
7
  6
BYLAYER
 10
9.8273322714
 20
54.9822328937
 11
9.3731585451
 21
54.8524598811
  0
LINE
  5
219
100
AcDbEntity
  8
0
100
AcDbLine
 62
7
  6
BYLAYER
 10
36.6231598048
 20
4.8023911984
 11
26.7431598048
 21
4.8023911984
  0
LINE
  5
21A
100
AcDbEntity
  8
0
100
AcDbLine
 62
7
  6
BYLAYER
 10
36.4732776242
 20
5.4176007294
 11
34.6231598048
 21
5.4176007294
  0
LINE
  5
21B
100
AcDbEntity
  8
0
100
AcDbLine
 62
7
  6
BYLAYER
 10
28.7431598048
 20
5.4176007294
 11
26.8930419854
 21
5.4176007294
  0
LINE
  5
21C
100
AcDbEntity
  8
0
100
AcDbLine
 62
7
  6
BYLAYER
 10
27.1431598048
 20
5.5160910603
 11
28.7431598048
 21
5.5160910603
  0
LINE
  5
21D
100
AcDbEntity
  8
0
100
AcDbLine
 62
7
  6
BYLAYER
 10
34.6231598048
 20
5.5160910603
 11
36.2231598048
 21
5.5160910603
  0
LINE
  5
21E
100
AcDbEntity
  8
0
100
AcDbLine
 62
7
  6
BYLAYER
 10
28.7431598048
 20
5.5244515138
 11
34.6231598048
 21
5.524451514
  0
LINE
  5
21F
100
AcDbEntity
  8
0
100
AcDbLine
 62
7
  6
BYLAYER
 10
27.0336062893
 20
7.3482727037
 11
28.7431598048
 21
7.3482727037
  0
LINE
  5
220
100
AcDbEntity
  8
0
100
AcDbLine
 62
7
  6
BYLAYER
 10
34.6231598048
 20
7.3482727037
 11
36.3327133203
 21
7.3482727037
  0
LINE
  5
221
100
AcDbEntity
  8
0
100
AcDbLine
 62
7
  6
BYLAYER
 10
36.6731598048
 20
7.4023911984
 11
36.6231598048
 21
7.4023911984
  0
LINE
  5
222
100
AcDbEntity
  8
0
100
AcDbLine
 62
7
  6
BYLAYER
 10
26.8548744782
 20
7.4139145506
 11
28.7431598048
 21
7.4139145506
  0
LINE
  5
223
100
AcDbEntity
  8
0
100
AcDbLine
 62
7
  6
BYLAYER
 10
34.6231598048
 20
7.4139145506
 11
36.5114451314
 21
7.4139145506
  0
LINE
  5
224
100
AcDbEntity
  8
0
100
AcDbLine
 62
7
  6
BYLAYER
 10
26.7431598048
 20
8.6523911984
 11
36.6231598048
 21
8.6523911984
  0
LINE
  5
225
100
AcDbEntity
  8
0
100
AcDbLine
 62
7
  6
BYLAYER
 10
26.8231598048
 20
9.1994135046
 11
26.8731598048
 21
9.1994135046
  0
LINE
  5
226
100
AcDbEntity
  8
0
100
AcDbLine
 62
7
  6
BYLAYER
 10
36.6231598048
 20
9.2023911984
 11
36.6731598048
 21
9.2023911984
  0
LINE
  5
227
100
AcDbEntity
  8
0
100
AcDbLine
 62
7
  6
BYLAYER
 10
28.8231598048
 20
9.9523911984
 11
36.6231598048
 21
9.9523911984
  0
LINE
  5
228
100
AcDbEntity
  8
0
100
AcDbLine
 62
7
  6
BYLAYER
 10
28.8231598048
 20
12.8523911984
 11
36.6231598048
 21
12.8523911984
  0
LINE
  5
229
100
AcDbEntity
  8
0
100
AcDbLine
 62
7
  6
BYLAYER
 10
26.8731598048
 20
14.2994135046
 11
28.8231598048
 21
14.2994135046
  0
LINE
  5
22A
100
AcDbEntity
  8
0
100
AcDbLine
 62
7
  6
BYLAYER
 10
7.5118954062
 20
48.5024598812
 11
7.5200424635
 21
47.3024598812
  0
LINE
  5
22B
100
AcDbEntity
  8
0
100
AcDbLine
 62
7
  6
BYLAYER
 10
6.8231598048
 20
33.3823911984
 11
6.8231598048
 21
25.2023911984
  0
LINE
  5
22C
100
AcDbEntity
  8
0
100
AcDbLine
 62
7
  6
BYLAYER
 10
7.4731585451
 20
54.3024598812
 11
7.473158545
 21
48.5024598812
  0
LINE
  5
22D
100
AcDbEntity
  8
0
100
AcDbLine
 62
7
  6
BYLAYER
 10
7.6731598048
 20
25.2023911984
 11
7.6731598048
 21
28.4023911984
  0
LINE
  5
22E
100
AcDbEntity
  8
0
100
AcDbLine
 62
7
  6
BYLAYER
 10
9.123158545
 20
47.3024598811
 11
9.123158545
 21
46.0524598811
  0
LINE
  5
22F
100
AcDbEntity
  8
0
100
AcDbLine
 62
7
  6
BYLAYER
 10
9.1231598048
 20
33.3823911984
 11
9.1231598048
 21
31.0823911984
  0
LINE
  5
230
100
AcDbEntity
  8
0
100
AcDbLine
 62
7
  6
BYLAYER
 10
9.1231598048
 20
31.082226457
 11
9.1231598048
 21
28.4023911984
  0
LINE
  5
231
100
AcDbEntity
  8
0
100
AcDbLine
 62
7
  6
BYLAYER
 10
9.3731585451
 20
54.8524598811
 11
9.3731585451
 21
54.7751635014
  0
LINE
  5
232
100
AcDbEntity
  8
0
100
AcDbLine
 62
7
  6
BYLAYER
 10
36.6231598048
 20
16.9957763806
 11
28.8231598048
 21
16.9957763806
  0
LINE
  5
233
100
AcDbEntity
  8
0
100
AcDbLine
 62
7
  6
BYLAYER
 10
28.8231598048
 20
17.0857092235
 11
26.8731598048
 21
17.0857092235
  0
LINE
  5
234
100
AcDbEntity
  8
0
100
AcDbLine
 62
7
  6
BYLAYER
 10
28.8231598048
 20
17.616268434
 11
36.6231598048
 21
17.616268434
  0
LINE
  5
235
100
AcDbEntity
  8
0
100
AcDbLine
 62
7
  6
BYLAYER
 10
26.8731598048
 20
17.7183320243
 11
28.8231598048
 21
17.7183320242
  0
LINE
  5
236
100
AcDbEntity
  8
0
100
AcDbLine
 62
7
  6
BYLAYER
 10
10.7619770392
 20
43.3024598811
 11
10.7619770391
 21
34.1061012674
  0
LINE
  5
237
100
AcDbEntity
  8
0
100
AcDbLine
 62
7
  6
BYLAYER
 10
10.8088004508
 20
31.0823911984
 11
10.8088004508
 21
33.3823911984
  0
LINE
  5
238
100
AcDbEntity
  8
0
100
AcDbLine
 62
7
  6
BYLAYER
 10
10.848158545
 20
46.0524598811
 11
10.8481585449
 21
43.3024598811
  0
LINE
  5
239
100
AcDbEntity
  8
0
100
AcDbLine
 62
7
  6
BYLAYER
 10
11.3088004509
 20
33.3823911984
 11
11.3088054668
 21
31.0823911984
  0
LINE
  5
23A
100
AcDbEntity
  8
0
100
AcDbLine
 62
7
  6
BYLAYER
 10
11.530631462
 20
34.9823911984
 11
11.530631462
 21
33.4823911984
  0
LINE
  5
23B
100
AcDbEntity
  8
0
100
AcDbLine
 62
7
  6
BYLAYER
 10
11.8269043149
 20
33.4823911984
 11
11.8269043149
 21
33.3823911984
  0
LINE
  5
23C
100
AcDbEntity
  8
0
100
AcDbLine
 62
7
  6
BYLAYER
 10
31.893525623
 20
20.3200510682
 11
34.3831598048
 21
20.5348237067
  0
LINE
  5
23D
100
AcDbEntity
  8
0
100
AcDbLine
 62
7
  6
BYLAYER
 10
28.8231598048
 20
19.0274112965
 11
36.6231598048
 21
19.0274112965
  0
LINE
  5
23E
100
AcDbEntity
  8
0
100
AcDbLine
 62
7
  6
BYLAYER
 10
28.8231598048
 20
19.3200510682
 11
34.5331598048
 21
19.3200510682
  0
LINE
  5
23F
100
AcDbEntity
  8
0
100
AcDbLine
 62
7
  6
BYLAYER
 10
34.5331598048
 20
19.4623911984
 11
36.4231598048
 21
19.4623911984
  0
LINE
  5
240
100
AcDbEntity
  8
0
100
AcDbLine
 62
7
  6
BYLAYER
 10
26.8231598048
 20
19.9053688922
 11
26.8731598048
 21
19.9053688922
  0
LINE
  5
241
100
AcDbEntity
  8
0
100
AcDbLine
 62
7
  6
BYLAYER
 10
34.5331598048
 20
20.3200510682
 11
26.8731598048
 21
20.3200510682
  0
LINE
  5
242
100
AcDbEntity
  8
0
100
AcDbLine
 62
7
  6
BYLAYER
 10
13.3481598048
 20
33.4823911984
 11
13.3481598048
 21
33.3823911984
  0
LINE
  5
243
100
AcDbEntity
  8
0
100
AcDbLine
 62
7
  6
BYLAYER
 10
13.3481598048
 20
34.9823911984
 11
13.3481598048
 21
37.0023911984
  0
LINE
  5
244
100
AcDbEntity
  8
0
100
AcDbLine
 62
7
  6
BYLAYER
 10
13.848157319
 20
35.2158681142
 11
13.848157319
 21
37.0023911984
  0
LINE
  5
245
100
AcDbEntity
  8
0
100
AcDbLine
 62
7
  6
BYLAYER
 10
34.3831598048
 20
23.0013277879
 11
31.0831598048
 21
22.7166475275
  0
LINE
  5
246
100
AcDbEntity
  8
0
100
AcDbLine
 62
7
  6
BYLAYER
 10
36.6731598048
 20
21.6023911984
 11
36.6231598048
 21
21.6023911984
  0
LINE
  5
247
100
AcDbEntity
  8
0
100
AcDbLine
 62
7
  6
BYLAYER
 10
14.280630563
 20
34.9823911984
 11
14.280630563
 21
33.4823911984
  0
LINE
  5
248
100
AcDbEntity
  8
0
100
AcDbLine
 62
7
  6
BYLAYER
 10
15.5231598048
 20
28.4023911984
 11
15.5231598048
 21
31.0822264405
  0
LINE
  5
249
100
AcDbEntity
  8
0
100
AcDbLine
 62
7
  6
BYLAYER
 10
15.7731598048
 20
28.4023911984
 11
15.7731598048
 21
25.2023911984
  0
LINE
  5
24A
100
AcDbEntity
  8
0
100
AcDbLine
 62
7
  6
BYLAYER
 10
29.3231598048
 20
22.8723911984
 11
29.6231598048
 21
22.8723911984
  0
LINE
  5
24B
100
AcDbEntity
  8
0
100
AcDbLine
 62
7
  6
BYLAYER
 10
26.8731598048
 20
22.9108197011
 11
26.8231598048
 21
22.9108197011
  0
LINE
  5
24C
100
AcDbEntity
  8
0
100
AcDbLine
 62
7
  6
BYLAYER
 10
33.8231598048
 20
23.0105113829
 11
29.6231598048
 21
23.0105113829
  0
LINE
  5
24D
100
AcDbEntity
  8
0
100
AcDbLine
 62
7
  6
BYLAYER
 10
26.8731598048
 20
23.1079240978
 11
34.5331598048
 21
23.1079240978
  0
LINE
  5
24E
100
AcDbEntity
  8
0
100
AcDbLine
 62
7
  6
BYLAYER
 10
26.8231598048
 20
23.2953097764
 11
26.8731598048
 21
23.2953097764
  0
LINE
  5
24F
100
AcDbEntity
  8
0
100
AcDbLine
 62
7
  6
BYLAYER
 10
36.6231598048
 20
23.4023911984
 11
36.6731598048
 21
23.4023911984
  0
LINE
  5
250
100
AcDbEntity
  8
0
100
AcDbLine
 62
7
  6
BYLAYER
 10
34.5331598048
 20
23.4400510682
 11
26.8731598048
 21
23.4400510682
  0
LINE
  5
251
100
AcDbEntity
  8
0
100
AcDbLine
 62
7
  6
BYLAYER
 10
26.8731598048
 20
23.6859922771
 11
34.5331598048
 21
23.6859922771
  0
LINE
  5
252
100
AcDbEntity
  8
0
100
AcDbLine
 62
7
  6
BYLAYER
 10
26.8731598048
 20
24.2551576481
 11
34.5331598048
 21
24.2551576481
  0
LINE
  5
253
100
AcDbEntity
  8
0
100
AcDbLine
 62
7
  6
BYLAYER
 10
28.8231598048
 20
24.3060292478
 11
34.5331598048
 21
24.3060292478
  0
LINE
  5
254
100
AcDbEntity
  8
0
100
AcDbLine
 62
7
  6
BYLAYER
 10
36.4231598048
 20
24.3060292478
 11
36.6231598048
 21
24.3060292478
  0
LINE
  5
255
100
AcDbEntity
  8
0
100
AcDbLine
 62
7
  6
BYLAYER
 10
17.2128103905
 20
31.0823911984
 11
17.2128062198
 21
33.3823911984
  0
LINE
  5
256
100
AcDbEntity
  8
0
100
AcDbLine
 62
7
  6
BYLAYER
 10
17.6731598048
 20
28.4023911984
 11
17.6731598048
 21
25.2023911984
  0
LINE
  5
257
100
AcDbEntity
  8
0
100
AcDbLine
 62
7
  6
BYLAYER
 10
17.9231598048
 20
31.0823911984
 11
17.9231598048
 21
27.7023911984
  0
LINE
  5
258
100
AcDbEntity
  8
0
100
AcDbLine
 62
7
  6
BYLAYER
 10
18.0642492731
 20
34.9823911984
 11
18.0642492731
 21
33.4823911984
  0
LINE
  5
259
100
AcDbEntity
  8
0
100
AcDbLine
 62
7
  6
BYLAYER
 10
36.4231598048
 20
24.4923911984
 11
34.5331598048
 21
24.4923911984
  0
LINE
  5
25A
100
AcDbEntity
  8
0
100
AcDbLine
 62
7
  6
BYLAYER
 10
28.8231598048
 20
24.5123911984
 11
36.6231598048
 21
24.5123911984
  0
LINE
  5
25B
100
AcDbEntity
  8
0
100
AcDbLine
 62
7
  6
BYLAYER
 10
36.6231598048
 20
24.8023911984
 11
28.8231598048
 21
24.8023911984
  0
LINE
  5
25C
100
AcDbEntity
  8
0
100
AcDbLine
 62
7
  6
BYLAYER
 10
26.8231598048
 20
25.2023911984
 11
6.8231598048
 21
25.2023911984
  0
LINE
  5
25D
100
AcDbEntity
  8
0
100
AcDbLine
 62
7
  6
BYLAYER
 10
26.8731598048
 20
25.4023911984
 11
27.8231598048
 21
25.4023911984
  0
LINE
  5
25E
100
AcDbEntity
  8
0
100
AcDbLine
 62
7
  6
BYLAYER
 10
27.8231598048
 20
25.6623911984
 11
28.8231598048
 21
25.6623911984
  0
LINE
  5
25F
100
AcDbEntity
  8
0
100
AcDbLine
 62
7
  6
BYLAYER
 10
36.6231598048
 20
25.8523911984
 11
35.6231598048
 21
25.8523911984
  0
LINE
  5
260
100
AcDbEntity
  8
0
100
AcDbLine
 62
7
  6
BYLAYER
 10
28.8231598048
 20
25.9053688922
 11
27.8231598048
 21
25.9053688922
  0
LINE
  5
261
100
AcDbEntity
  8
0
100
AcDbLine
 62
7
  6
BYLAYER
 10
26.8731598048
 20
25.9053688922
 11
26.8231598048
 21
25.9053688922
  0
LINE
  5
262
100
AcDbEntity
  8
0
100
AcDbLine
 62
7
  6
BYLAYER
 10
35.6231598048
 20
26.0023911984
 11
29.3231598048
 21
26.0023911984
  0
LINE
  5
263
100
AcDbEntity
  8
0
100
AcDbLine
 62
7
  6
BYLAYER
 10
27.9481598048
 20
26.1023911984
 11
35.5481598048
 21
26.1023911984
  0
LINE
  5
264
100
AcDbEntity
  8
0
100
AcDbLine
 62
7
  6
BYLAYER
 10
26.8231598048
 20
26.4053688922
 11
26.8731598048
 21
26.4053688922
  0
LINE
  5
265
100
AcDbEntity
  8
0
100
AcDbLine
 62
7
  6
BYLAYER
 10
18.3231598048
 20
37.0023911984
 11
18.3231598048
 21
35.2158681142
  0
LINE
  5
266
100
AcDbEntity
  8
0
100
AcDbLine
 62
7
  6
BYLAYER
 10
18.3730634837
 20
33.3823911984
 11
18.3730634837
 21
31.0823911984
  0
LINE
  5
267
100
AcDbEntity
  8
0
100
AcDbLine
 62
7
  6
BYLAYER
 10
18.8231598048
 20
33.4823911984
 11
18.8231598048
 21
33.3823911984
  0
LINE
  5
268
100
AcDbEntity
  8
0
100
AcDbLine
 62
7
  6
BYLAYER
 10
18.8231598048
 20
34.9823911984
 11
18.8231598048
 21
37.0023911984
  0
LINE
  5
269
100
AcDbEntity
  8
0
100
AcDbLine
 62
7
  6
BYLAYER
 10
19.2231598048
 20
35.0033911984
 11
19.2231598048
 21
34.9823911984
  0
LINE
  5
26A
100
AcDbEntity
  8
0
100
AcDbLine
 62
7
  6
BYLAYER
 10
19.2231598048
 20
33.4823911984
 11
19.2231598048
 21
33.3823911984
  0
LINE
  5
26B
100
AcDbEntity
  8
0
100
AcDbLine
 62
7
  6
BYLAYER
 10
19.5231597721
 20
35.0023911984
 11
19.5231597721
 21
34.9823911984
  0
LINE
  5
26C
100
AcDbEntity
  8
0
100
AcDbLine
 62
7
  6
BYLAYER
 10
19.5231597721
 20
33.4823911984
 11
19.5231597721
 21
33.3823911984
  0
LINE
  5
26D
100
AcDbEntity
  8
0
100
AcDbLine
 62
7
  6
BYLAYER
 10
35.5481598048
 20
26.9023911984
 11
27.9481598048
 21
26.9023911984
  0
LINE
  5
26E
100
AcDbEntity
  8
0
100
AcDbLine
 62
7
  6
BYLAYER
 10
35.6231598048
 20
27.0023911984
 11
31.1231598048
 21
27.0023911984
  0
LINE
  5
26F
100
AcDbEntity
  8
0
100
AcDbLine
 62
7
  6
BYLAYER
 10
27.9231598048
 20
27.1023911984
 11
30.4231598048
 21
27.1023911984
  0
LINE
  5
270
100
AcDbEntity
  8
0
100
AcDbLine
 62
7
  6
BYLAYER
 10
36.6481598048
 20
27.2023911984
 11
35.8481598048
 21
27.2023911984
  0
LINE
  5
271
100
AcDbEntity
  8
0
100
AcDbLine
 62
7
  6
BYLAYER
 10
27.6481598048
 20
27.2023911984
 11
26.8481598048
 21
27.2023911984
  0
LINE
  5
272
100
AcDbEntity
  8
0
100
AcDbLine
 62
7
  6
BYLAYER
 10
30.6231598048
 20
27.3023911984
 11
30.4231598048
 21
27.3023911984
  0
LINE
  5
273
100
AcDbEntity
  8
0
100
AcDbLine
 62
7
  6
BYLAYER
 10
25.5231598048
 20
27.7023911984
 11
17.9231598048
 21
27.7023911984
  0
LINE
  5
274
100
AcDbEntity
  8
0
100
AcDbLine
 62
7
  6
BYLAYER
 10
26.8231598048
 20
27.9053688922
 11
26.8481598048
 21
27.9053688922
  0
LINE
  5
275
100
AcDbEntity
  8
0
100
AcDbLine
 62
7
  6
BYLAYER
 10
21.7231598048
 20
34.9823911984
 11
21.7231598048
 21
33.4823911984
  0
LINE
  5
276
100
AcDbEntity
  8
0
100
AcDbLine
 62
7
  6
BYLAYER
 10
26.8481598048
 20
28.4023911984
 11
25.5231598048
 21
28.4023911984
  0
LINE
  5
277
100
AcDbEntity
  8
0
100
AcDbLine
 62
7
  6
BYLAYER
 10
17.9231598048
 20
28.4023911984
 11
6.8231598048
 21
28.4023911984
  0
LINE
  5
278
100
AcDbEntity
  8
0
100
AcDbLine
 62
7
  6
BYLAYER
 10
27.6481598048
 20
28.4023911984
 11
35.8481598048
 21
28.4023911984
  0
LINE
  5
279
100
AcDbEntity
  8
0
100
AcDbLine
 62
7
  6
BYLAYER
 10
9.1231598048
 20
28.8790926354
 11
6.8231598048
 21
28.8790926354
  0
LINE
  5
27A
100
AcDbEntity
  8
0
100
AcDbLine
 62
7
  6
BYLAYER
 10
35.5231598048
 20
28.8790926354
 11
35.8481598048
 21
28.8790926354
  0
LINE
  5
27B
100
AcDbEntity
  8
0
100
AcDbLine
 62
7
  6
BYLAYER
 10
35.8481598048
 20
29.4023911984
 11
35.5231598048
 21
29.4023911984
  0
LINE
  5
27C
100
AcDbEntity
  8
0
100
AcDbLine
 62
7
  6
BYLAYER
 10
27.9231598048
 20
29.4023911984
 11
27.6481598048
 21
29.4023911984
  0
LINE
  5
27D
100
AcDbEntity
  8
0
100
AcDbLine
 62
7
  6
BYLAYER
 10
26.8481598048
 20
29.4023911984
 11
25.5231598048
 21
29.4023911984
  0
LINE
  5
27E
100
AcDbEntity
  8
0
100
AcDbLine
 62
7
  6
BYLAYER
 10
17.9231598048
 20
29.4023911984
 11
15.5231598048
 21
29.4023911984
  0
LINE
  5
27F
100
AcDbEntity
  8
0
100
AcDbLine
 62
7
  6
BYLAYER
 10
6.8231598048
 20
29.4023911984
 11
9.1231598048
 21
29.4023911984
  0
LINE
  5
280
100
AcDbEntity
  8
0
100
AcDbLine
 62
7
  6
BYLAYER
 10
35.8481598048
 20
29.7550451598
 11
35.5231598048
 21
29.7550451598
  0
LINE
  5
281
100
AcDbEntity
  8
0
100
AcDbLine
 62
7
  6
BYLAYER
 10
6.8231598048
 20
29.7550451598
 11
9.1231598048
 21
29.7550451598
  0
LINE
  5
282
100
AcDbEntity
  8
0
100
AcDbLine
 62
7
  6
BYLAYER
 10
36.6481598048
 20
30.2167505523
 11
35.8481598048
 21
30.2167505523
  0
LINE
  5
283
100
AcDbEntity
  8
0
100
AcDbLine
 62
7
  6
BYLAYER
 10
27.6481598048
 20
30.2167505523
 11
26.8481598048
 21
30.2167505523
  0
LINE
  5
284
100
AcDbEntity
  8
0
100
AcDbLine
 62
7
  6
BYLAYER
 10
26.8481598048
 20
30.3167505523
 11
27.6481598048
 21
30.3167505523
  0
LINE
  5
285
100
AcDbEntity
  8
0
100
AcDbLine
 62
7
  6
BYLAYER
 10
35.8481598048
 20
30.3167505523
 11
36.6481598048
 21
30.3167505523
  0
LINE
  5
286
100
AcDbEntity
  8
0
100
AcDbLine
 62
7
  6
BYLAYER
 10
23.9231597721
 20
33.3823911984
 11
23.9231597721
 21
33.4823911984
  0
LINE
  5
287
100
AcDbEntity
  8
0
100
AcDbLine
 62
7
  6
BYLAYER
 10
23.9231597721
 20
34.9823911984
 11
23.9231597721
 21
35.0023911984
  0
LINE
  5
288
100
AcDbEntity
  8
0
100
AcDbLine
 62
7
  6
BYLAYER
 10
31.9139926617
 20
33.9024598807
 11
32.6843400504
 21
34.106101267
  0
LINE
  5
289
100
AcDbEntity
  8
0
100
AcDbLine
 62
7
  6
BYLAYER
 10
35.4768971043
 20
30.8971935076
 11
27.9231598048
 21
30.8971932995
  0
LINE
  5
28A
100
AcDbEntity
  8
0
100
AcDbLine
 62
7
  6
BYLAYER
 10
25.5231598048
 20
30.8971932995
 11
17.9231598048
 21
30.8971932995
  0
LINE
  5
28B
100
AcDbEntity
  8
0
100
AcDbLine
 62
7
  6
BYLAYER
 10
15.5231598048
 20
30.8971932995
 11
9.1231598048
 21
30.8971932995
  0
LINE
  5
28C
100
AcDbEntity
  8
0
100
AcDbLine
 62
7
  6
BYLAYER
 10
9.1231598048
 20
31.0823911984
 11
35.3509408271
 21
31.0823911984
  0
LINE
  5
28D
100
AcDbEntity
  8
0
100
AcDbLine
 62
7
  6
BYLAYER
 10
36.6481598048
 20
31.9023911984
 11
35.8481598048
 21
31.9023911984
  0
LINE
  5
28E
100
AcDbEntity
  8
0
100
AcDbLine
 62
7
  6
BYLAYER
 10
35.8481598048
 20
32.0023911984
 11
36.6481598048
 21
32.0023911984
  0
LINE
  5
28F
100
AcDbEntity
  8
0
100
AcDbLine
 62
7
  6
BYLAYER
 10
10.7619770391
 20
34.1061012674
 11
11.5323244277
 21
33.9024598811
  0
LINE
  5
290
100
AcDbEntity
  8
0
100
AcDbLine
 62
7
  6
BYLAYER
 10
31.1231598048
 20
27.0023911984
 11
30.6231598048
 21
27.3023911984
  0
LINE
  5
291
100
AcDbEntity
  8
0
100
AcDbLine
 62
7
  6
BYLAYER
 10
24.2231598048
 20
33.3823911984
 11
24.2231598048
 21
33.4823911984
  0
LINE
  5
292
100
AcDbEntity
  8
0
100
AcDbLine
 62
7
  6
BYLAYER
 10
24.2231598048
 20
34.9823911984
 11
24.2231598048
 21
35.0033911984
  0
LINE
  5
293
100
AcDbEntity
  8
0
100
AcDbLine
 62
7
  6
BYLAYER
 10
24.6231598048
 20
33.4823911984
 11
24.6231598048
 21
33.3823911984
  0
LINE
  5
294
100
AcDbEntity
  8
0
100
AcDbLine
 62
7
  6
BYLAYER
 10
24.6231598048
 20
34.9823911984
 11
24.6231598048
 21
37.0023911984
  0
LINE
  5
295
100
AcDbEntity
  8
0
100
AcDbLine
 62
7
  6
BYLAYER
 10
25.0732589518
 20
31.0823911984
 11
25.0732589518
 21
33.3823911984
  0
LINE
  5
296
100
AcDbEntity
  8
0
100
AcDbLine
 62
7
  6
BYLAYER
 10
25.1231598048
 20
35.2158681142
 11
25.1231598048
 21
37.0023911984
  0
LINE
  5
297
100
AcDbEntity
  8
0
100
AcDbLine
 62
7
  6
BYLAYER
 10
25.3820703364
 20
34.9823911984
 11
25.3820703364
 21
33.4823911984
  0
LINE
  5
298
100
AcDbEntity
  8
0
100
AcDbLine
 62
7
  6
BYLAYER
 10
25.5231598048
 20
27.7023911984
 11
25.5231598048
 21
31.0823911984
  0
LINE
  5
299
100
AcDbEntity
  8
0
100
AcDbLine
 62
7
  6
BYLAYER
 10
25.7731598048
 20
28.4023911984
 11
25.7731598048
 21
25.2023911984
  0
LINE
  5
29A
100
AcDbEntity
  8
0
100
AcDbLine
 62
7
  6
BYLAYER
 10
6.8231598048
 20
33.3823911984
 11
36.6231598048
 21
33.3823911984
  0
LINE
  5
29B
100
AcDbEntity
  8
0
100
AcDbLine
 62
7
  6
BYLAYER
 10
11.5306314651
 20
33.4823911984
 11
31.9156881445
 21
33.4823911984
  0
LINE
  5
29C
100
AcDbEntity
  8
0
100
AcDbLine
 62
7
  6
BYLAYER
 10
10.7619770391
 20
34.1061012674
 11
11.530631462
 21
34.1061012673
  0
LINE
  5
29D
100
AcDbEntity
  8
0
100
AcDbLine
 62
7
  6
BYLAYER
 10
31.9156881475
 20
34.106101267
 11
32.6843400504
 21
34.106101267
  0
LINE
  5
29E
100
AcDbEntity
  8
0
100
AcDbLine
 62
7
  6
BYLAYER
 10
26.2335057411
 20
33.3823911984
 11
26.2335099101
 21
31.0823911984
  0
LINE
  5
29F
100
AcDbEntity
  8
0
100
AcDbLine
 62
7
  6
BYLAYER
 10
26.7431598048
 20
8.6523911984
 11
26.7431598048
 21
4.8023911984
  0
LINE
  5
2A0
100
AcDbEntity
  8
0
100
AcDbLine
 62
7
  6
BYLAYER
 10
26.8231598048
 20
8.6523911984
 11
26.8231598048
 21
27.9053688922
  0
LINE
  5
2A1
100
AcDbEntity
  8
0
100
AcDbLine
 62
7
  6
BYLAYER
 10
26.8481598048
 20
27.2023911984
 11
26.8481598048
 21
31.0823911984
  0
LINE
  5
2A2
100
AcDbEntity
  8
0
100
AcDbLine
 62
7
  6
BYLAYER
 10
26.8731598048
 20
27.0607597992
 11
26.8731598048
 21
8.6523911984
  0
LINE
  5
2A3
100
AcDbEntity
  8
0
100
AcDbLine
 62
7
  6
BYLAYER
 10
27.1431598048
 20
7.3482727037
 11
27.1431598048
 21
5.5160910603
  0
LINE
  5
2A4
100
AcDbEntity
  8
0
100
AcDbLine
 62
7
  6
BYLAYER
 10
27.6481598048
 20
27.2023911984
 11
27.6481598048
 21
31.0823911984
  0
LINE
  5
2A5
100
AcDbEntity
  8
0
100
AcDbLine
 62
7
  6
BYLAYER
 10
27.7231598048
 20
26.1023911984
 11
27.7231598048
 21
26.1421060543
  0
LINE
  5
2A6
100
AcDbEntity
  8
0
100
AcDbLine
 62
7
  6
BYLAYER
 10
27.8231598048
 20
24.2523911984
 11
27.8231598048
 21
26.1244550072
  0
LINE
  5
2A7
100
AcDbEntity
  8
0
100
AcDbLine
 62
7
  6
BYLAYER
 10
25.1231598048
 20
35.2158681142
 11
24.6231598048
 21
35.1404976409
  0
LINE
  5
2A8
100
AcDbEntity
  8
0
100
AcDbLine
 62
7
  6
BYLAYER
 10
11.5306314651
 20
34.9823911984
 11
31.9156881445
 21
34.9823911984
  0
LINE
  5
2A9
100
AcDbEntity
  8
0
100
AcDbLine
 62
7
  6
BYLAYER
 10
13.3481598048
 20
35.0023911985
 11
18.8231598048
 21
35.0023911985
  0
LINE
  5
2AA
100
AcDbEntity
  8
0
100
AcDbLine
 62
7
  6
BYLAYER
 10
19.2231598048
 20
35.0023911984
 11
24.2231598048
 21
35.0023911984
  0
LINE
  5
2AB
100
AcDbEntity
  8
0
100
AcDbLine
 62
7
  6
BYLAYER
 10
24.6231598048
 20
35.0023911985
 11
30.0981598048
 21
35.0023911985
  0
LINE
  5
2AC
100
AcDbEntity
  8
0
100
AcDbLine
 62
7
  6
BYLAYER
 10
24.6231598048
 20
35.0033911984
 11
24.2231598048
 21
35.0033911984
  0
LINE
  5
2AD
100
AcDbEntity
  8
0
100
AcDbLine
 62
7
  6
BYLAYER
 10
13.3481598048
 20
35.0033578467
 11
19.2231598048
 21
35.0033911984
  0
LINE
  5
2AE
100
AcDbEntity
  8
0
100
AcDbLine
 62
7
  6
BYLAYER
 10
24.6231598048
 20
35.0035076805
 11
30.0981598048
 21
35.0035076806
  0
LINE
  5
2AF
100
AcDbEntity
  8
0
100
AcDbLine
 62
7
  6
BYLAYER
 10
13.848157319
 20
35.2158681142
 11
18.3231598048
 21
35.2158681142
  0
LINE
  5
2B0
100
AcDbEntity
  8
0
100
AcDbLine
 62
7
  6
BYLAYER
 10
25.1231598048
 20
35.2158681142
 11
29.5981588383
 21
35.2158681142
  0
LINE
  5
2B1
100
AcDbEntity
  8
0
100
AcDbLine
 62
7
  6
BYLAYER
 10
18.8231598048
 20
35.1404976409
 11
18.3231598048
 21
35.2158681142
  0
LINE
  5
2B2
100
AcDbEntity
  8
0
100
AcDbLine
 62
7
  6
BYLAYER
 10
27.9231598048
 20
31.0822264658
 11
27.9231598048
 21
28.4023911984
  0
LINE
  5
2B3
100
AcDbEntity
  8
0
100
AcDbLine
 62
7
  6
BYLAYER
 10
28.0231598048
 20
25.7773212263
 11
28.0231598048
 21
25.6623911984
  0
LINE
  5
2B4
100
AcDbEntity
  8
0
100
AcDbLine
 62
7
  6
BYLAYER
 10
28.6231598048
 20
28.4023911984
 11
28.6231598048
 21
27.1023911984
  0
LINE
  5
2B5
100
AcDbEntity
  8
0
100
AcDbLine
 62
7
  6
BYLAYER
 10
28.7431598048
 20
7.4139145506
 11
28.7431598048
 21
5.4176007294
  0
LINE
  5
2B6
100
AcDbEntity
  8
0
100
AcDbLine
 62
7
  6
BYLAYER
 10
28.8231598048
 20
8.6523911984
 11
28.8231598048
 21
19.3200510682
  0
LINE
  5
2B7
100
AcDbEntity
  8
0
100
AcDbLine
 62
7
  6
BYLAYER
 10
28.8231598048
 20
24.2551576481
 11
28.8231598048
 21
26.1023911984
  0
LINE
  5
2B8
100
AcDbEntity
  8
0
100
AcDbLine
 62
7
  6
BYLAYER
 10
28.8231598048
 20
26.9023911984
 11
28.8231598048
 21
27.1023911984
  0
LINE
  5
2B9
100
AcDbEntity
  8
0
100
AcDbLine
 62
7
  6
BYLAYER
 10
29.0231598048
 20
26.1023911984
 11
29.0231598048
 21
26.9023911984
  0
LINE
  5
2BA
100
AcDbEntity
  8
0
100
AcDbLine
 62
7
  6
BYLAYER
 10
29.1656875488
 20
33.4823911984
 11
29.1656875488
 21
34.9823911984
  0
LINE
  5
2BB
100
AcDbEntity
  8
0
100
AcDbLine
 62
7
  6
BYLAYER
 10
29.3231598048
 20
20.3200510682
 11
29.3231598048
 21
23.1079240978
  0
LINE
  5
2BC
100
AcDbEntity
  8
0
100
AcDbLine
 62
7
  6
BYLAYER
 10
29.5981588383
 20
37.0023911984
 11
29.5981588383
 21
35.2158681142
  0
LINE
  5
2BD
100
AcDbEntity
  8
0
100
AcDbLine
 62
7
  6
BYLAYER
 10
29.6231598048
 20
23.0105113829
 11
29.6231598048
 21
20.3200510682
  0
LINE
  5
2BE
100
AcDbEntity
  8
0
100
AcDbLine
 62
7
  6
BYLAYER
 10
29.3231598048
 20
26.0023911984
 11
28.8231598048
 21
25.7023911984
  0
LINE
  5
2BF
100
AcDbEntity
  8
0
100
AcDbLine
 62
7
  6
BYLAYER
 10
13.848157319
 20
35.2158681142
 11
13.3481598048
 21
35.1404976409
  0
LINE
  5
2C0
100
AcDbEntity
  8
0
100
AcDbLine
 62
7
  6
BYLAYER
 10
13.3481598048
 20
37.0023911984
 11
18.8231598048
 21
37.0023911984
  0
LINE
  5
2C1
100
AcDbEntity
  8
0
100
AcDbLine
 62
7
  6
BYLAYER
 10
24.6231598048
 20
37.0023911984
 11
30.0981598048
 21
37.0023911984
  0
LINE
  5
2C2
100
AcDbEntity
  8
0
100
AcDbLine
 62
7
  6
BYLAYER
 10
30.0981598048
 20
35.1404976409
 11
29.5981588383
 21
35.2158681142
  0
LINE
  5
2C3
100
AcDbEntity
  8
0
100
AcDbLine
 62
7
  6
BYLAYER
 10
30.0981598048
 20
33.4823911984
 11
30.0981598048
 21
33.3823911984
  0
LINE
  5
2C4
100
AcDbEntity
  8
0
100
AcDbLine
 62
7
  6
BYLAYER
 10
30.0981598048
 20
34.9823911984
 11
30.0981598048
 21
37.0023911984
  0
LINE
  5
2C5
100
AcDbEntity
  8
0
100
AcDbLine
 62
7
  6
BYLAYER
 10
30.4231598048
 20
28.4023911984
 11
30.4231598048
 21
27.1023911984
  0
LINE
  5
2C6
100
AcDbEntity
  8
0
100
AcDbLine
 62
7
  6
BYLAYER
 10
30.6231598048
 20
27.3023911984
 11
30.6231598048
 21
28.4023911984
  0
LINE
  5
2C7
100
AcDbEntity
  8
0
100
AcDbLine
 62
7
  6
BYLAYER
 10
31.0831598048
 20
22.7166475275
 11
31.0831598048
 21
20.3200510682
  0
LINE
  5
2C8
100
AcDbEntity
  8
0
100
AcDbLine
 62
7
  6
BYLAYER
 10
31.6194127746
 20
33.3823911984
 11
31.6194127746
 21
33.4823911984
  0
LINE
  5
2C9
100
AcDbEntity
  8
0
100
AcDbLine
 62
7
  6
BYLAYER
 10
31.9156881475
 20
33.4823911984
 11
31.9156881475
 21
34.9823911984
  0
LINE
  5
2CA
100
AcDbEntity
  8
0
100
AcDbLine
 62
7
  6
BYLAYER
 10
32.1375138181
 20
31.0823911984
 11
32.1375088042
 21
33.3823911984
  0
LINE
  5
2CB
100
AcDbEntity
  8
0
100
AcDbLine
 62
7
  6
BYLAYER
 10
32.5981585449
 20
43.3024598807
 11
32.598158545
 21
46.0524598807
  0
LINE
  5
2CC
100
AcDbEntity
  8
0
100
AcDbLine
 62
7
  6
BYLAYER
 10
32.6375191587
 20
33.3823911984
 11
32.6375191587
 21
31.0823911984
  0
LINE
  5
2CD
100
AcDbEntity
  8
0
100
AcDbLine
 62
7
  6
BYLAYER
 10
32.6843400504
 20
34.106101267
 11
32.6843400506
 21
43.3024598807
  0
LINE
  5
2CE
100
AcDbEntity
  8
0
100
AcDbLine
 62
7
  6
BYLAYER
 10
32.7231598048
 20
23.1079240978
 11
32.7231598048
 21
23.0105113829
  0
LINE
  5
2CF
100
AcDbEntity
  8
0
100
AcDbLine
 62
7
  6
BYLAYER
 10
33.8231598048
 20
24.3060292478
 11
33.8231598048
 21
24.2551576481
  0
LINE
  5
2D0
100
AcDbEntity
  8
0
100
AcDbLine
 62
7
  6
BYLAYER
 10
33.8231598048
 20
23.1079240978
 11
33.8231598048
 21
23.0105113829
  0
LINE
  5
2D1
100
AcDbEntity
  8
0
100
AcDbLine
 62
7
  6
BYLAYER
 10
34.0731585451
 20
54.775163501
 11
34.0731585451
 21
54.8524598807
  0
LINE
  5
2D2
100
AcDbEntity
  8
0
100
AcDbLine
 62
7
  6
BYLAYER
 10
34.323158545
 20
46.0524598807
 11
34.323158545
 21
47.3024598807
  0
LINE
  5
2D3
100
AcDbEntity
  8
0
100
AcDbLine
 62
7
  6
BYLAYER
 10
34.3831598048
 20
20.3200510682
 11
34.3831598048
 21
23.0013277879
  0
LINE
  5
2D4
100
AcDbEntity
  8
0
100
AcDbLine
 62
7
  6
BYLAYER
 10
34.4731598048
 20
26.1023911984
 11
34.4731598048
 21
26.9023911984
  0
LINE
  5
2D5
100
AcDbEntity
  8
0
100
AcDbLine
 62
7
  6
BYLAYER
 10
34.5331598048
 20
24.4923911984
 11
34.5331598048
 21
19.3200510682
  0
LINE
  5
2D6
100
AcDbEntity
  8
0
100
AcDbLine
 62
7
  6
BYLAYER
 10
34.6231598048
 20
5.4176007294
 11
34.6231598048
 21
7.4139145506
  0
LINE
  5
2D7
100
AcDbEntity
  8
0
100
AcDbLine
 62
7
  6
BYLAYER
 10
35.0231598048
 20
31.0823911984
 11
35.0231598048
 21
33.3823911984
  0
LINE
  5
2D8
100
AcDbEntity
  8
0
100
AcDbLine
 62
7
  6
BYLAYER
 10
35.5231598048
 20
28.4023911984
 11
35.5231598048
 21
33.3823911984
  0
LINE
  5
2D9
100
AcDbEntity
  8
0
100
AcDbLine
 62
7
  6
BYLAYER
 10
35.6231598048
 20
27.0023911984
 11
35.6231598048
 21
26.9225110854
  0
LINE
  5
2DA
100
AcDbEntity
  8
0
100
AcDbLine
 62
7
  6
BYLAYER
 10
35.6231598048
 20
26.1156297882
 11
35.6231598048
 21
25.8523911984
  0
LINE
  5
2DB
100
AcDbEntity
  8
0
100
AcDbLine
 62
7
  6
BYLAYER
 10
32.6843400506
 20
43.3024598807
 11
10.7619770392
 21
43.3024598811
  0
LINE
  5
2DC
100
AcDbEntity
  8
0
100
AcDbLine
 62
7
  6
BYLAYER
 10
35.8481598048
 20
32.0023911984
 11
35.8481598048
 21
27.2023911984
  0
LINE
  5
2DD
100
AcDbEntity
  8
0
100
AcDbLine
 62
7
  6
BYLAYER
 10
35.973158545
 20
48.5024598806
 11
35.9731585451
 21
54.3024598807
  0
LINE
  5
2DE
100
AcDbEntity
  8
0
100
AcDbLine
 62
7
  6
BYLAYER
 10
36.2231598048
 20
5.5160910603
 11
36.2231598048
 21
7.3482727037
  0
LINE
  5
2DF
100
AcDbEntity
  8
0
100
AcDbLine
 62
7
  6
BYLAYER
 10
36.4231598048
 20
19.146079798
 11
36.4231598048
 21
24.4923911984
  0
LINE
  5
2E0
100
AcDbEntity
  8
0
100
AcDbLine
 62
7
  6
BYLAYER
 10
36.6231598048
 20
33.3823911984
 11
36.6231598048
 21
32.0023911984
  0
LINE
  5
2E1
100
AcDbEntity
  8
0
100
AcDbLine
 62
7
  6
BYLAYER
 10
36.6231598048
 20
4.8023911984
 11
36.6231598048
 21
27.0607565414
  0
LINE
  5
2E2
100
AcDbEntity
  8
0
100
AcDbLine
 62
7
  6
BYLAYER
 10
36.6481598048
 20
27.2023911984
 11
36.6481598048
 21
32.0023911984
  0
LINE
  5
2E3
100
AcDbEntity
  8
0
100
AcDbLine
 62
7
  6
BYLAYER
 10
36.6731598048
 20
7.4023911984
 11
36.6731598048
 21
23.4023911984
  0
LINE
  5
2E4
100
AcDbEntity
  8
0
100
AcDbLine
 62
7
  6
BYLAYER
 10
35.9262746265
 20
47.3024598806
 11
35.9344216838
 21
48.5024598806
  0
LINE
  5
2E5
100
AcDbEntity
  8
0
100
AcDbLine
 62
7
  6
BYLAYER
 10
36.4231598048
 20
19.146079798
 11
36.0479962751
 21
19.0274112965
  0
LINE
  5
2E6
100
AcDbEntity
  8
0
100
AcDbLine
 62
7
  6
BYLAYER
 10
9.123158545
 20
46.0524598809
 11
34.323158545
 21
46.0524598809
  0
LINE
  5
2E7
100
AcDbEntity
  8
0
100
AcDbLine
 62
7
  6
BYLAYER
 10
7.5200424635
 20
47.3024598809
 11
35.9262746265
 21
47.3024598809
  0
LINE
  5
2E8
100
AcDbEntity
  8
0
100
AcDbLine
 62
7
  6
BYLAYER
 10
7.473158545
 20
48.5024598809
 11
35.973158545
 21
48.5024598809
  0
LINE
  5
2E9
100
AcDbEntity
  8
0
100
AcDbLine
 62
7
  6
BYLAYER
 10
35.9731585451
 20
54.3024598807
 11
7.4731585451
 21
54.3024598812
  0
LINE
  5
2EA
100
AcDbEntity
  8
0
100
AcDbLine
 62
7
  6
BYLAYER
 10
9.074022114
 20
54.7751635014
 11
34.3722949762
 21
54.775163501
  0
LINE
  5
2EB
100
AcDbEntity
  8
0
100
AcDbLine
 62
7
  6
BYLAYER
 10
34.0731585451
 20
54.8524598807
 11
9.3731585451
 21
54.8524598811
  0
LINE
  5
2EC
100
AcDbEntity
  8
0
100
AcDbLine
 62
7
  6
BYLAYER
 10
33.6189848188
 20
54.9822328933
 11
9.8273322714
 21
54.9822328937
  0
LINE
  5
2ED
100
AcDbEntity
  8
0
100
AcDbLine
 62
7
  6
BYLAYER
 10
30.9231585448
 20
55.3524598808
 11
12.5231585455
 21
55.3524598811
  0
LINE
  5
2EE
100
AcDbEntity
  8
0
100
AcDbLine
 62
7
  6
BYLAYER
 10
34.0731585451
 20
54.8524598807
 11
33.6189848188
 21
54.9822328933
  0
LINE
  5
2EF
100
AcDbEntity
  8
0
100
AcDbLine
 62
7
  6
BYLAYER
 10
35.9731585451
 20
54.3024598807
 11
34.3722949762
 21
54.775163501
  0
ARC
  5
2F0
100
AcDbEntity
  8
0
100
AcDbCircle
 62
7
  6
BYLAYER
 10
30.9231585448
 20
45.3524598806
 40
10.0
100
AcDbArc
 50
74.3603925527
 51
89.9999999982
  0
ARC
  5
2F1
100
AcDbEntity
  8
0
100
AcDbCircle
 62
7
  6
BYLAYER
 10
12.5231585448
 20
45.3524598812
 40
10.0
100
AcDbArc
 50
89.9999999982
 51
105.6392023132
  0
ARC
  5
2F2
100
AcDbEntity
  8
0
100
AcDbCircle
 62
7
  6
BYLAYER
 10
27.9481598048
 20
27.2023911984
 40
1.1
100
AcDbArc
 50
180.0
 51
270.0
  0
ARC
  5
2F3
100
AcDbEntity
  8
0
100
AcDbCircle
 62
7
  6
BYLAYER
 10
35.5481598048
 20
27.2023911984
 40
1.1
100
AcDbArc
 50
270.0
 51
360.0
  0
ARC
  5
2F4
100
AcDbEntity
  8
0
100
AcDbCircle
 62
7
  6
BYLAYER
 10
27.9481598048
 20
27.2023911984
 40
0.3
100
AcDbArc
 50
180.0
 51
270.0
  0
ARC
  5
2F5
100
AcDbEntity
  8
0
100
AcDbCircle
 62
7
  6
BYLAYER
 10
35.5481598048
 20
27.2023911984
 40
0.3
100
AcDbArc
 50
270.0
 51
360.0
  0
ARC
  5
2F6
100
AcDbEntity
  8
0
100
AcDbCircle
 62
7
  6
BYLAYER
 10
27.9231598048
 20
26.1023911984
 40
0.2
100
AcDbArc
 50
180.0
 51
240.0
  0
ARC
  5
2F7
100
AcDbEntity
  8
0
100
AcDbCircle
 62
7
  6
BYLAYER
 10
27.9231598048
 20
26.9023911984
 40
0.2
100
AcDbArc
 50
90.0
 51
153.9726868384
  0
SPLINE
  5
2F8
100
AcDbEntity
  8
0
100
AcDbSpline
 62
7
  6
BYLAYER
 70
0
 71
3
 72
11
 73
7
 74
0
 42
0.0000001
 43
0.0000001
 44
0.0000000001
 40
0.0
 40
0.0
 40
0.0
 40
0.0
 40
0.2455120118
 40
0.4897868476
 40
0.7390364625
 40
1.0
 40
1.0
 40
1.0
 40
1.0
 10
27.0336070343
 20
7.3482731135
 30
0.0
 10
27.0176243124
 20
7.3482751044
 30
0.0
 10
26.9856870462
 20
7.3503032692
 30
0.0
 10
26.9384877157
 20
7.3608512364
 30
0.0
 10
26.8933345827
 20
7.3811290049
 30
0.0
 10
26.866804606
 20
7.4018197211
 30
0.0
 10
26.8548744782
 20
7.4139145506
 30
0.0
  0
SPLINE
  5
2F9
100
AcDbEntity
  8
0
100
AcDbSpline
 62
7
  6
BYLAYER
 70
0
 71
3
 72
11
 73
7
 74
0
 42
0.0000001
 43
0.0000001
 44
0.0000000001
 40
0.0
 40
0.0
 40
0.0
 40
0.0
 40
0.2532701374
 40
0.5039695833
 40
0.7526108075
 40
1.0
 40
1.0
 40
1.0
 40
1.0
 10
26.8548744782
 20
7.4139145506
 30
0.0
 10
26.8372268545
 20
7.4318058091
 30
0.0
 10
26.8054153492
 20
7.470850545
 30
0.0
 10
26.7699208187
 20
7.5370653564
 30
0.0
 10
26.7481130912
 20
7.6083562461
 30
0.0
 10
26.7431598048
 20
7.6577065475
 30
0.0
 10
26.7431598048
 20
7.6822533941
 30
0.0
  0
SPLINE
  5
2FA
100
AcDbEntity
  8
0
100
AcDbSpline
 62
7
  6
BYLAYER
 70
0
 71
3
 72
11
 73
7
 74
0
 42
0.0000001
 43
0.0000001
 44
0.0000000001
 40
0.0
 40
0.0
 40
0.0
 40
0.0
 40
0.2473891952
 40
0.4960304243
 40
0.746729865
 40
1.0
 40
1.0
 40
1.0
 40
1.0
 10
36.6231598048
 20
7.6822533941
 30
0.0
 10
36.6231598048
 20
7.6577065473
 30
0.0
 10
36.6182065156
 20
7.6083562453
 30
0.0
 10
36.5963987904
 20
7.5370653551
 30
0.0
 10
36.5609042618
 20
7.4708505425
 30
0.0
 10
36.529092755
 20
7.4318058089
 30
0.0
 10
36.5114451314
 20
7.4139145506
 30
0.0
  0
SPLINE
  5
2FB
100
AcDbEntity
  8
0
100
AcDbSpline
 62
7
  6
BYLAYER
 70
0
 71
3
 72
11
 73
7
 74
0
 42
0.0000001
 43
0.0000001
 44
0.0000000001
 40
0.0
 40
0.0
 40
0.0
 40
0.0
 40
0.260963653
 40
0.5102014562
 40
0.7544801107
 40
1.0
 40
1.0
 40
1.0
 40
1.0
 10
36.5114451314
 20
7.4139145506
 30
0.0
 10
36.499514996
 20
7.4018197133
 30
0.0
 10
36.4729854532
 20
7.3811295296
 30
0.0
 10
36.4278326672
 20
7.3608527106
 30
0.0
 10
36.380633844
 20
7.350302306
 30
0.0
 10
36.3486956678
 20
7.3482751136
 30
0.0
 10
36.3327124299
 20
7.3482730584
 30
0.0
  0
SPLINE
  5
2FC
100
AcDbEntity
  8
0
100
AcDbSpline
 62
7
  6
BYLAYER
 70
0
 71
3
 72
9
 73
5
 74
0
 42
0.0000001
 43
0.0000001
 44
0.0000000001
 40
0.0
 40
0.0
 40
0.0
 40
0.0
 40
0.5380666417
 40
1.0
 40
1.0
 40
1.0
 40
1.0
 10
36.4732776242
 20
5.4176007294
 30
0.0
 10
36.5202293842
 20
5.3812156488
 30
0.0
 10
36.5938256755
 20
5.2934981766
 30
0.0
 10
36.6231598048
 20
5.1825264201
 30
0.0
 10
36.6231598048
 20
5.1315313039
 30
0.0
  0
SPLINE
  5
2FD
100
AcDbEntity
  8
0
100
AcDbSpline
 62
7
  6
BYLAYER
 70
0
 71
3
 72
9
 73
5
 74
0
 42
0.0000001
 43
0.0000001
 44
0.0000000001
 40
0.0
 40
0.0
 40
0.0
 40
0.0
 40
0.4619371118
 40
1.0
 40
1.0
 40
1.0
 40
1.0
 10
26.7431598048
 20
5.1315313039
 30
0.0
 10
26.7431598048
 20
5.1825268284
 30
0.0
 10
26.7724943509
 20
5.2934985292
 30
0.0
 10
26.8460905585
 20
5.381215907
 30
0.0
 10
26.8930419854
 20
5.4176007294
 30
0.0
  0
SPLINE
  5
2FE
100
AcDbEntity
  8
0
100
AcDbSpline
 62
7
  6
BYLAYER
 70
0
 71
3
 72
9
 73
5
 74
0
 42
0.0000001
 43
0.0000001
 44
0.0000000001
 40
0.0
 40
0.0
 40
0.0
 40
0.0
 40
0.5143653647
 40
1.0
 40
1.0
 40
1.0
 40
1.0
 10
26.8930419854
 20
5.4176007294
 30
0.0
 10
26.9293689894
 20
5.4467931213
 30
0.0
 10
27.0095857035
 20
5.4924320105
 30
0.0
 10
27.0992952503
 20
5.5126414668
 30
0.0
 10
27.1431598048
 20
5.5160910603
 30
0.0
  0
SPLINE
  5
2FF
100
AcDbEntity
  8
0
100
AcDbSpline
 62
7
  6
BYLAYER
 70
0
 71
3
 72
9
 73
5
 74
0
 42
0.0000001
 43
0.0000001
 44
0.0000000001
 40
0.0
 40
0.0
 40
0.0
 40
0.0
 40
0.4856258487
 40
1.0
 40
1.0
 40
1.0
 40
1.0
 10
36.2231598048
 20
5.5160910603
 30
0.0
 10
36.2670235546
 20
5.5126415301
 30
0.0
 10
36.3567329426
 20
5.492431918
 30
0.0
 10
36.4369500088
 20
5.4467936126
 30
0.0
 10
36.4732776242
 20
5.4176007294
 30
0.0
  0
SPLINE
  5
300
100
AcDbEntity
  8
0
100
AcDbSpline
 62
7
  6
BYLAYER
 70
0
 71
3
 72
9
 73
5
 74
0
 42
0.0000001
 43
0.0000001
 44
0.0000000001
 40
0.0
 40
0.0
 40
0.0
 40
0.0
 40
0.4998535918
 40
1.0
 40
1.0
 40
1.0
 40
1.0
 10
35.5231598048
 20
30.1713598342
 30
0.0
 10
35.5231598048
 20
30.2926052896
 30
0.0
 10
35.5156243629
 20
30.5352250095
 30
0.0
 10
35.4926036333
 20
30.7768980645
 30
0.0
 10
35.4768971043
 20
30.8971935076
 30
0.0
  0
SPLINE
  5
301
100
AcDbEntity
  8
0
100
AcDbSpline
 62
7
  6
BYLAYER
 70
0
 71
3
 72
15
 73
11
 74
0
 42
0.0000001
 43
0.0000001
 44
0.0000000001
 40
0.0
 40
0.0
 40
0.0
 40
0.0
 40
0.1666888348
 40
0.3204994915
 40
0.4591435259
 40
0.5828391137
 40
0.6939616798
 40
0.7971598309
 40
0.8976582379
 40
1.0
 40
1.0
 40
1.0
 40
1.0
 10
35.476897124
 20
30.8971934999
 30
0.0
 10
35.4751428725
 20
30.9106292015
 30
0.0
 10
35.4709954642
 20
30.9363737095
 30
0.0
 10
35.4621241544
 20
30.9726810313
 30
0.0
 10
35.4505417519
 20
31.0045560139
 30
0.0
 10
35.4361039508
 20
31.0314230791
 30
0.0
 10
35.4185800219
 20
31.0528509555
 30
0.0
 10
35.398128305
 20
31.0686406907
 30
0.0
 10
35.3751261228
 20
31.0787122594
 30
0.0
 10
35.3587587776
 20
31.0817114264
 30
0.0
 10
35.3504674773
 20
31.0823911984
 30
0.0
  0
ELLIPSE
  5
302
100
AcDbEntity
  8
0
100
AcDbEllipse
 62
7
  6
BYLAYER
 10
28.4231598048
 20
25.4065737114
 30
0.0
 11
0.6
 21
0.0
 31
0.0
 40
0.8313253012
 41
1.5707963268
 42
2.6030670774
  0
ENDSEC
  0
SECTION
  2
OBJECTS
  0
DICTIONARY
  5
C
100
AcDbDictionary
280
0
281
1
  3
ACAD_GROUP
350
D
  3
ACAD_MLINESTYLE
350
17
  3
ACAD_LAYOUT
350
1A
  3
ACAD_PLOTSETTINGS
350
19
  3
ACAD_PLOTSTYLENAME
350
E
  0
DICTIONARY
  5
D
102
{ACAD_REACTORS
330
C
102
}
100
AcDbDictionary
280
0
281
1
  0
ACDBDICTIONARYWDFLT
  5
E
102
{ACAD_REACTORS
330
C
102
}
100
AcDbDictionary
281
1
  3
Normal
350
F
100
AcDbDictionaryWithDefault
340
F
  0
DICTIONARY
  5
17
102
{ACAD_REACTORS
330
C
102
}
100
AcDbDictionary
280
0
281
1
  3
Standard
350
18
  0
DICTIONARY
  5
19
102
{ACAD_REACTORS
330
C
102
}
100
AcDbDictionary
281
1
  0
DICTIONARY
  5
1A
102
{ACAD_REACTORS
330
C
102
}
100
AcDbDictionary
281
1
  3
Model
350
303
  3
Layout1
350
304
  0
ACDBPLACEHOLDER
  5
F
102
{ACAD_REACTORS
330
E
102
}
  0
MLINESTYLE
  5
18
102
{ACAD_REACTORS
330
17
102
}
100
AcDbMlineStyle
  2
STANDARD
 70
0
  3

 62
256
 51
90.0
 52
90.0
 71
2
 49
0.5
 62
256
  6
BYLAYER
 49
-0.5
 62
256
  6
BYLAYER
  0
LAYOUT
  5
303
102
{ACAD_REACTORS
330
1A
102
}
100
AcDbPlotSettings
  1

  2
none_device
  4

  6

 40
0.0
 41
0.0
 42
0.0
 43
0.0
 44
210.0
 45
297.0
 46
0.0
 47
0.0
 48
0.0
 49
0.0
140
0.0
141
0.0
142
1.0
143
1.0
 70
1024
 72
1
 73
0
 74
0
  7

 75
0
147
1.0
148
0.0
149
0.0
100
AcDbLayout
  1
Model
 70
0
 71
0
 10
0.0
 20
0.0
 11
210.0
 21
297.0
 12
0.0
 22
0.0
 32
0.0
 14
0.0
 24
0.0
 34
0.0
 15
0.0
 25
0.0
 35
0.0
146
0.0
 13
0.0
 23
0.0
 33
0.0
 16
1.0
 26
0.0
 36
0.0
 17
0.0
 27
1.0
 37
0.0
 76
0
330
210
345
0
346
0
  0
LAYOUT
  5
304
102
{ACAD_REACTORS
330
1A
102
}
100
AcDbPlotSettings
  1

  2
none_device
  4

  6

 40
0.0
 41
0.0
 42
0.0
 43
0.0
 44
210.0
 45
297.0
 46
0.0
 47
0.0
 48
0.0
 49
0.0
140
0.0
141
0.0
142
1.0
143
1.0
 70
0
 72
1
 73
0
 74
0
  7

 75
0
147
1.0
148
0.0
149
0.0
100
AcDbLayout
  1
Layout1
 70
0
 71
1
 10
0.0
 20
0.0
 11
210.0
 21
297.0
 12
0.0
 22
0.0
 32
0.0
 14
0.0
 24
0.0
 34
0.0
 15
0.0
 25
0.0
 35
0.0
146
0.0
 13
0.0
 23
0.0
 33
0.0
 16
1.0
 26
0.0
 36
0.0
 17
0.0
 27
1.0
 37
0.0
 76
0
330
211
345
0
346
0
  0
ENDSEC
  0
EOF
