999
DXF file: C:\Users\sesa63760\Dev\_Creo\CAD\MCADPP0003173_3D-CAD\drw0001_5.dxf
999
Pro/ENGINEER 2019471 by Parametric Technology Corporation
  0
SECTION
  2
HEADER
  9
$ACADVER
  1
AC1024
  9
$DWGCODEPAGE
  3
ANSI_1252
  9
$EXTMAX
 10
176.497103822
 20
249.6173325483
 30
0.0
  9
$EXTMIN
 10
0.0
 20
0.0
 30
0.0
  9
$LIMMIN
 10
0.0
 20
0.0
  9
$LIMMAX
 10
176.497103822
 20
249.6173325483
  9
$VIEWCTR
 10
88.248551911
 20
124.8086662742
  9
$VIEWSIZE
 40
249.6173325483
  9
$CLAYER
  8
0
  9
$LTSCALE
 40
16.2713520476
  9
$CELTYPE
  6
BYLAYER
  9
$DIMSCALE
 40
1.0
  9
$DIMASZ
 40
2.1011559979
  9
$DIMEXO
 40
1.0
  9
$DIMDLI
 40
11.2420250511
  9
$DIMEXE
 40
1.0
  9
$DIMCEN
 40
2.6625848805
  9
$DIMLFAC
 40
1.0
  9
$DIMBLK
  1
_FILLED
  9
$DIMALT
 70
0
  9
$DIMALTF
 40
0.0393700787
  9
$DIMTXT
 40
2.941618397
  9
$DIMTOL
 70
1
  9
$DIMLIM
 70
0
  9
$DIMTFAC
 40
1.0
  9
$DIMTP
 40
0.01
  9
$DIMTM
 40
0.01
  9
$DIMGAP
 40
0.625
  9
$DIMDSEP
 70
46
  9
$AUNITS
 70
0
  9
$PDMODE
 70
3
  9
$PDSIZE
 40
0.3125
  9
$HANDSEED
  5
2E4
  9
$TILEMODE
 70
1
  9
$MEASUREMENT
 70
1
  9
$INSUNITS
 70
4
  0
ENDSEC
  0
SECTION
  2
CLASSES
  0
CLASS
  1
ACDBDICTIONARYWDFLT
  2
AcDbDictionaryWithDefault
  3
AutoCAD 2000
 90
0
 91
1
280
0
281
0
  0
CLASS
  1
ACDBPLACEHOLDER
  2
AcDbPlaceHolder
  3
AutoCAD 2000
 90
0
 91
1
280
0
281
0
  0
CLASS
  1
LAYOUT
  2
AcDbLayout
  3
AutoCAD 2000
 90
0
 91
0
280
0
281
0
  0
ENDSEC
  0
SECTION
  2
TABLES
  0
TABLE
  2
VPORT
  5
8
100
AcDbSymbolTable
 70
2
  0
VPORT
  5
1F4
100
AcDbSymbolTableRecord
100
AcDbViewportTableRecord
  2
*ACTIVE
 70
0
 10
0.0
 20
0.0
 11
1.0
 21
1.0
 12
88.248551911
 22
124.8086662742
 13
0.0
 23
0.0
 14
1.0
 24
1.0
 15
0.0
 25
0.0
 16
0.0
 26
0.0
 36
1.0
 17
0.0
 27
0.0
 37
0.0
 40
249.6173325483
 41
0.7070707071
 42
50.0
 43
0.0
 44
0.0
 50
0.0
 51
0.0
 71
0
 72
100
 73
1
 74
1
 75
0
 76
0
 77
0
 78
0
  0
ENDTAB
  0
TABLE
  2
LTYPE
  5
5
100
AcDbSymbolTable
 70
6
  0
LTYPE
  5
14
100
AcDbSymbolTableRecord
100
AcDbLinetypeTableRecord
  2
BYBLOCK
 70
0
  3

 72
65
 73
0
 40
0.0
  0
LTYPE
  5
15
100
AcDbSymbolTableRecord
100
AcDbLinetypeTableRecord
  2
BYLAYER
 70
0
  3

 72
65
 73
0
 40
0.0
  0
LTYPE
  5
16
100
AcDbSymbolTableRecord
100
AcDbLinetypeTableRecord
  2
CONTINUOUS
 70
64
  3
Solid line
 72
65
 73
0
 40
0.0
  0
LTYPE
  5
1F5
100
AcDbSymbolTableRecord
100
AcDbLinetypeTableRecord
  2
CENTER
 70
64
  3
____ _ ____ _ ____ _ ____ _ ____ _ ____ _ ____
 72
65
 73
4
 40
0.6
 49
0.375
 74
0
 49
-0.075
 74
0
 49
0.075
 74
0
 49
-0.075
 74
0
  0
LTYPE
  5
1F6
100
AcDbSymbolTableRecord
100
AcDbLinetypeTableRecord
  2
HIDDEN
 70
64
  3
- - - - - - - - - - - - - - - - - - - -
 72
65
 73
2
 40
0.2
 49
0.1
 74
0
 49
-0.1
 74
0
  0
LTYPE
  5
1F7
100
AcDbSymbolTableRecord
100
AcDbLinetypeTableRecord
  2
PHANTOM
 70
64
  3
_____ _ _ _____ _ _ _____ _ _ _____
 72
65
 73
6
 40
0.8
 49
0.45
 74
0
 49
-0.05
 74
0
 49
0.1
 74
0
 49
-0.05
 74
0
 49
0.1
 74
0
 49
-0.05
 74
0
  0
LTYPE
  5
1F8
100
AcDbSymbolTableRecord
100
AcDbLinetypeTableRecord
  2
DOT
 70
64
  3
. . . . . . . . . . . . . . . . . . . .
 72
65
 73
2
 40
0.2
 49
0.1
 74
0
 49
-0.1
 74
0
  0
LTYPE
  5
1F9
100
AcDbSymbolTableRecord
100
AcDbLinetypeTableRecord
  2
DASHED
 70
64
  3
- - - - - - - - - - - - - - - - - - - -
 72
65
 73
2
 40
0.2
 49
0.1
 74
0
 49
-0.1
 74
0
  0
ENDTAB
  0
TABLE
  2
LAYER
  5
2
100
AcDbSymbolTable
 70
36
  0
LAYER
  5
10
100
AcDbSymbolTableRecord
100
AcDbLayerTableRecord
  2
0
 70
0
 62
7
  6
CONTINUOUS
370
-3
390
F
  0
LAYER
  5
1FA
100
AcDbSymbolTableRecord
100
AcDbLayerTableRecord
  2
DEFAULT_1
 70
0
 62
7
  6
CENTER
370
-3
390
F
  0
LAYER
  5
1FB
100
AcDbSymbolTableRecord
100
AcDbLayerTableRecord
  2
DEFAULT_2
 70
0
 62
8
  6
HIDDEN
370
-3
390
F
  0
LAYER
  5
1FC
100
AcDbSymbolTableRecord
100
AcDbLayerTableRecord
  2
DEFAULT_3
 70
0
 62
7
  6
PHANTOM
370
-3
390
F
  0
LAYER
  5
1FD
100
AcDbSymbolTableRecord
100
AcDbLayerTableRecord
  2
00_COMPONENTS
 70
0
 62
7
  6
CONTINUOUS
370
-3
390
F
  0
LAYER
  5
1FE
100
AcDbSymbolTableRecord
100
AcDbLayerTableRecord
  2
01_1_DEFAULT_DATUMS
 70
0
 62
7
  6
CONTINUOUS
370
-3
390
F
  0
LAYER
  5
1FF
100
AcDbSymbolTableRecord
100
AcDbLayerTableRecord
  2
01_PLANES
 70
0
 62
7
  6
CONTINUOUS
370
-3
390
F
  0
LAYER
  5
200
100
AcDbSymbolTableRecord
100
AcDbLayerTableRecord
  2
02_COORD_SYS
 70
0
 62
7
  6
CONTINUOUS
370
-3
390
F
  0
LAYER
  5
201
100
AcDbSymbolTableRecord
100
AcDbLayerTableRecord
  2
03_AXES
 70
0
 62
7
  6
CONTINUOUS
370
-3
390
F
  0
LAYER
  5
202
100
AcDbSymbolTableRecord
100
AcDbLayerTableRecord
  2
04_POINTS
 70
0
 62
7
  6
CONTINUOUS
370
-3
390
F
  0
LAYER
  5
203
100
AcDbSymbolTableRecord
100
AcDbLayerTableRecord
  2
05_CURVES
 70
0
 62
7
  6
CONTINUOUS
370
-3
390
F
  0
LAYER
  5
204
100
AcDbSymbolTableRecord
100
AcDbLayerTableRecord
  2
06_SURFS
 70
0
 62
7
  6
CONTINUOUS
370
-3
390
F
  0
LAYER
  5
205
100
AcDbSymbolTableRecord
100
AcDbLayerTableRecord
  2
07_COSMETICS
 70
0
 62
7
  6
CONTINUOUS
370
-3
390
F
  0
LAYER
  5
206
100
AcDbSymbolTableRecord
100
AcDbLayerTableRecord
  2
10_NOTES
 70
0
 62
7
  6
CONTINUOUS
370
-3
390
F
  0
LAYER
  5
207
100
AcDbSymbolTableRecord
100
AcDbLayerTableRecord
  2
11_NOTES_PUB
 70
0
 62
7
  6
CONTINUOUS
370
-3
390
F
  0
LAYER
  5
208
100
AcDbSymbolTableRecord
100
AcDbLayerTableRecord
  2
13_REF_GTOL
 70
0
 62
7
  6
CONTINUOUS
370
-3
390
F
  0
LAYER
  5
209
100
AcDbSymbolTableRecord
100
AcDbLayerTableRecord
  2
16_MISC
 70
0
 62
7
  6
CONTINUOUS
370
-3
390
F
  0
LAYER
  5
20A
100
AcDbSymbolTableRecord
100
AcDbLayerTableRecord
  2
17_NO_PRINT
 70
0
 62
7
  6
CONTINUOUS
370
-3
390
F
  0
LAYER
  5
20B
100
AcDbSymbolTableRecord
100
AcDbLayerTableRecord
  2
18_DATUM_CAMS_JOINTS
 70
0
 62
7
  6
CONTINUOUS
370
-3
390
F
  0
LAYER
  5
20C
100
AcDbSymbolTableRecord
100
AcDbLayerTableRecord
  2
19_DATUM_FUNCTIONAL
 70
0
 62
7
  6
CONTINUOUS
370
-3
390
F
  0
LAYER
  5
20D
100
AcDbSymbolTableRecord
100
AcDbLayerTableRecord
  2
20_DATUM_KINEMATIC_SCHEME
 70
0
 62
7
  6
CONTINUOUS
370
-3
390
F
  0
ENDTAB
  0
TABLE
  2
STYLE
  5
3
100
AcDbSymbolTable
 70
1
  0
STYLE
  5
11
100
AcDbSymbolTableRecord
100
AcDbTextStyleTableRecord
  2
STANDARD
 70
0
 40
0.0
 41
0.8
 50
0.0
 71
0
 42
0.2
  3
txt
  4

  0
STYLE
  5
20E
100
AcDbSymbolTableRecord
100
AcDbTextStyleTableRecord
  2
TEXTSTYLE_1
 70
0
 40
0.0
 41
0.8
 50
0.0
 71
0
 42
0.2
  3
gdt
  4

  0
ENDTAB
  0
TABLE
  2
VIEW
  5
6
100
AcDbSymbolTable
 70
0
  0
ENDTAB
  0
TABLE
  2
UCS
  5
7
100
AcDbSymbolTable
 70
0
  0
ENDTAB
  0
TABLE
  2
APPID
  5
9
100
AcDbSymbolTable
 70
1
  0
APPID
  5
20F
100
AcDbSymbolTableRecord
100
AcDbRegAppTableRecord
  2
ACAD
 70
0
  0
ENDTAB
  0
TABLE
  2
BLOCK_RECORD
  5
1
100
AcDbSymbolTable
 70
0
  0
BLOCK_RECORD
  5
210
100
AcDbSymbolTableRecord
100
AcDbBlockTableRecord
  2
*Model_Space
  0
BLOCK_RECORD
  5
211
100
AcDbSymbolTableRecord
100
AcDbBlockTableRecord
  2
*Paper_Space
  0
BLOCK_RECORD
  5
212
100
AcDbSymbolTableRecord
100
AcDbBlockTableRecord
  2
_FILLED
  0
ENDTAB
  0
TABLE
  2
DIMSTYLE
  5
A
100
AcDbSymbolTable
 70
1
100
AcDbDimStyleTable
 71
0
  0
DIMSTYLE
105
213
100
AcDbSymbolTableRecord
100
AcDbDimStyleTableRecord
  2
STANDARD
 70
0
  3

  4

 40
1.0
 41
2.1011559979
 42
1.0
 43
0.38
 44
1.0
 45
0.0
 46
0.0
 47
0.01
 48
0.01
140
2.941618397
141
0.09
142
0.0
143
25.4
144
1.0
145
0.0
146
1.0
147
0.625
 71
1
 72
0
 73
0
 74
0
 75
0
 76
0
 77
1
 78
8
 79
2
170
0
171
1
172
0
173
0
174
0
175
0
176
0
177
0
178
0
270
2
179
2
271
2
272
2
273
2
274
2
275
0
280
0
281
0
282
0
283
1
284
8
285
0
286
0
287
3
288
0
340
11
278
46
341
212
342
212
343
212
344
212
  0
ENDTAB
  0
ENDSEC
  0
SECTION
  2
BLOCKS
  0
BLOCK
  5
20
100
AcDbEntity
  8
0
100
AcDbBlockBegin
  2
*Model_Space
 70
0
 10
0.0
 20
0.0
 30
0.0
  3
*Model_Space
  1

  0
ENDBLK
  5
21
100
AcDbEntity
  8
0
100
AcDbBlockEnd
  0
BLOCK
  5
1C
100
AcDbEntity
  8
0
100
AcDbBlockBegin
  2
*Paper_Space
 70
0
 10
0.0
 20
0.0
 30
0.0
  3
*Paper_Space
  1

  0
ENDBLK
  5
1D
100
AcDbEntity
  8
0
100
AcDbBlockEnd
  0
BLOCK
  5
214
100
AcDbEntity
  8
0
100
AcDbBlockBegin
  2
_FILLED
 70
64
 10
0.0
 20
0.0
  3
_FILLED
  1

  0
SOLID
  5
215
100
AcDbEntity
  8
0
  6
BYBLOCK
 62
0
100
AcDbTrace
 10
0.0
 20
0.0
 11
-1.0
 21
0.25
 12
-1.0
 22
-0.25
 13
-1.0
 23
-0.25
  0
ENDBLK
  5
216
100
AcDbEntity
  8
0
  6
BYBLOCK
 62
0
100
AcDbBlockEnd
  0
ENDSEC
  0
SECTION
  2
ENTITIES
  0
LINE
  5
217
100
AcDbEntity
  8
0
100
AcDbLine
 62
7
  6
CONTINUOUS
 10
127.0826924355
 20
22.0482167042
 11
139.4375352639
 21
25.2571992041
  0
LINE
  5
218
100
AcDbEntity
  8
0
100
AcDbLine
 62
7
  6
CONTINUOUS
 10
138.6516803528
 20
29.9232724875
 11
127.0308707285
 21
26.9048808118
  0
LINE
  5
219
100
AcDbEntity
  8
0
100
AcDbLine
 62
7
  6
CONTINUOUS
 10
126.2905251254
 20
26.71258731
 11
127.0419426806
 21
26.8391402943
  0
LINE
  5
21A
100
AcDbEntity
  8
0
100
AcDbLine
 62
7
  6
CONTINUOUS
 10
110.7016026273
 20
25.2158863167
 11
113.5596326227
 21
25.6972328645
  0
LINE
  5
21B
100
AcDbEntity
  8
0
100
AcDbLine
 62
7
  6
CONTINUOUS
 10
138.6516902908
 20
29.9232120688
 11
141.5097223391
 21
30.4045589623
  0
LINE
  5
21C
100
AcDbEntity
  8
0
100
AcDbLine
 62
7
  6
CONTINUOUS
 10
114.9835465745
 20
20.3176898586
 11
127.1435630421
 21
21.2875139388
  0
LINE
  5
21D
100
AcDbEntity
  8
0
100
AcDbLine
 62
7
  6
CONTINUOUS
 10
115.5697684253
 20
20.746653905
 11
114.9532560425
 21
20.6974838602
  0
LINE
  5
21E
100
AcDbEntity
  8
0
100
AcDbLine
 62
7
  6
CONTINUOUS
 10
116.3860488687
 20
20.8208390292
 11
127.1125526803
 21
21.6763334351
  0
LINE
  5
21F
100
AcDbEntity
  8
0
100
AcDbLine
 62
7
  6
CONTINUOUS
 10
127.082981978
 20
22.0471019421
 11
127.0763703056
 21
22.0465746271
  0
LINE
  5
220
100
AcDbEntity
  8
0
100
AcDbLine
 62
7
  6
CONTINUOUS
 10
114.3454777938
 20
21.0312202356
 11
115.3615197026
 21
21.1123604829
  0
LINE
  5
221
100
AcDbEntity
  8
0
100
AcDbLine
 62
7
  6
CONTINUOUS
 10
116.324793667
 20
21.1974889136
 11
127.0749730149
 21
22.0548715665
  0
LINE
  5
222
100
AcDbEntity
  8
0
100
AcDbLine
 62
7
  6
CONTINUOUS
 10
126.2905251266
 20
26.7125873029
 11
113.5596326148
 21
25.6972329114
  0
LINE
  5
223
100
AcDbEntity
  8
0
100
AcDbLine
 62
7
  6
CONTINUOUS
 10
140.7666881043
 20
34.8163785556
 11
141.2175221739
 21
34.8923077284
  0
LINE
  5
224
100
AcDbEntity
  8
0
100
AcDbLine
 62
7
  6
CONTINUOUS
 10
139.9757319079
 20
39.5127382677
 11
140.4265644522
 21
39.5886671836
  0
LINE
  5
225
100
AcDbEntity
  8
0
100
AcDbLine
 62
7
  6
CONTINUOUS
 10
127.7644073377
 20
22.5494540583
 11
126.9658473598
 21
22.7028126242
  0
LINE
  5
226
100
AcDbEntity
  8
0
100
AcDbLine
 62
7
  6
CONTINUOUS
 10
111.2826152284
 20
39.2171885875
 11
123.643782437
 21
42.4278137491
  0
LINE
  5
227
100
AcDbEntity
  8
0
100
AcDbLine
 62
7
  6
CONTINUOUS
 10
139.2327049442
 20
43.9245146883
 11
136.3746728959
 21
43.4431677948
  0
LINE
  5
228
100
AcDbEntity
  8
0
100
AcDbLine
 62
7
  6
CONTINUOUS
 10
111.2826152283
 20
39.2171885881
 11
108.4245852328
 21
38.7358420403
  0
LINE
  5
229
100
AcDbEntity
  8
0
100
AcDbLine
 62
7
  6
CONTINUOUS
 10
124.3951999909
 20
42.5543667405
 11
123.6437824381
 21
42.4278137424
  0
LINE
  5
22A
100
AcDbEntity
  8
0
100
AcDbLine
 62
7
  6
CONTINUOUS
 10
124.406271943
 20
42.488626223
 11
136.3746854031
 21
43.4430921212
  0
LINE
  5
22B
100
AcDbEntity
  8
0
100
AcDbLine
 62
7
  6
CONTINUOUS
 10
122.857937258
 20
47.0938264249
 11
110.4967700494
 21
43.8832012633
  0
LINE
  5
22C
100
AcDbEntity
  8
0
100
AcDbLine
 62
7
  6
CONTINUOUS
 10
135.5888279212
 20
48.1091806689
 11
123.620426764
 21
47.1546388988
  0
LINE
  5
22D
100
AcDbEntity
  8
0
100
AcDbLine
 62
7
  6
CONTINUOUS
 10
76.7993811818
 20
177.1519163152
 11
75.4219612945
 21
174.7413717115
  0
LINE
  5
22E
100
AcDbEntity
  8
0
100
AcDbLine
 62
7
  6
CONTINUOUS
 10
100.2284375788
 20
86.266361595
 11
76.7993811818
 21
85.4482009172
  0
LINE
  5
22F
100
AcDbEntity
  8
0
100
AcDbLine
 62
7
  6
CONTINUOUS
 10
39.6189979959
 20
183.8199156739
 11
41.8801310539
 21
171.3228249207
  0
LINE
  5
230
100
AcDbEntity
  8
0
100
AcDbLine
 62
7
  6
CONTINUOUS
 10
52.3330842173
 20
134.3434753289
 11
67.1695051672
 21
145.9349577658
  0
LINE
  5
231
100
AcDbEntity
  8
0
100
AcDbLine
 62
7
  6
CONTINUOUS
 10
94.7283872668
 20
90.8396985628
 11
95.4810057823
 21
90.9589016251
  0
LINE
  5
232
100
AcDbEntity
  8
0
100
AcDbLine
 62
7
  6
CONTINUOUS
 10
99.9009892783
 20
87.8433945
 11
95.9960514807
 21
87.7070310673
  0
LINE
  5
233
100
AcDbEntity
  8
0
100
AcDbLine
 62
7
  6
CONTINUOUS
 10
94.7283872671
 20
90.8396985606
 11
76.7993811818
 21
90.2136038719
  0
LINE
  5
234
100
AcDbEntity
  8
0
100
AcDbLine
 62
7
  6
CONTINUOUS
 10
76.7993811818
 20
94.985903926
 11
87.9118811818
 21
94.985903926
  0
LINE
  5
235
100
AcDbEntity
  8
0
100
AcDbLine
 62
7
  6
CONTINUOUS
 10
53.3534583327
 20
131.2030867121
 11
52.3330842173
 21
134.3434753289
  0
LINE
  5
236
100
AcDbEntity
  8
0
100
AcDbLine
 62
7
  6
CONTINUOUS
 10
62.4591110089
 20
113.864265837
 11
56.4938469495
 21
132.2234608275
  0
LINE
  5
237
100
AcDbEntity
  8
0
100
AcDbLine
 62
7
  6
CONTINUOUS
 10
49.4764849575
 20
167.8574277396
 11
49.6008472756
 21
167.1700877482
  0
LINE
  5
238
100
AcDbEntity
  8
0
100
AcDbLine
 62
7
  6
CONTINUOUS
 10
95.9943397915
 20
221.1887938131
 11
81.9472943735
 21
180.3932117109
  0
LINE
  5
239
100
AcDbEntity
  8
0
100
AcDbLine
 62
7
  6
CONTINUOUS
 10
96.4667420124
 20
220.2202257248
 11
82.6678042407
 21
180.1452005477
  0
LINE
  5
23A
100
AcDbEntity
  8
0
100
AcDbLine
 62
7
  6
CONTINUOUS
 10
96.4967622272
 20
220.2098889359
 11
97.9419378206
 21
224.4069836145
  0
LINE
  5
23B
100
AcDbEntity
  8
0
100
AcDbLine
 62
7
  6
CONTINUOUS
 10
85.1428363085
 20
184.9926918448
 11
93.8140384396
 21
210.1756913963
  0
LINE
  5
23C
100
AcDbEntity
  8
0
100
AcDbLine
 62
7
  6
CONTINUOUS
 10
97.4653303155
 20
220.6822911568
 11
100.0243689387
 21
228.1142789628
  0
LINE
  5
23D
100
AcDbEntity
  8
0
100
AcDbLine
 62
7
  6
CONTINUOUS
 10
76.7993811818
 20
101.335903926
 11
87.9118811818
 21
101.335903926
  0
LINE
  5
23E
100
AcDbEntity
  8
0
100
AcDbLine
 62
7
  6
CONTINUOUS
 10
58.598752618
 20
168.79810355
 11
58.4743902998
 21
169.4854435414
  0
LINE
  5
23F
100
AcDbEntity
  8
0
100
AcDbLine
 62
7
  6
CONTINUOUS
 10
70.4371889387
 20
120.0940619128
 11
70.6094458034
 21
125.0268531182
  0
LINE
  5
240
100
AcDbEntity
  8
0
100
AcDbLine
 62
7
  6
CONTINUOUS
 10
99.3304772006
 20
229.1238977067
 11
97.9419378207
 21
224.4069836156
  0
LINE
  5
241
100
AcDbEntity
  8
0
100
AcDbLine
 62
7
  6
CONTINUOUS
 10
100.7842358714
 20
213.2547737135
 11
105.6257644861
 21
227.315593779
  0
LINE
  5
242
100
AcDbEntity
  8
0
100
AcDbLine
 62
7
  6
CONTINUOUS
 10
75.5292917084
 20
132.9002523976
 11
70.6094458034
 21
125.0268531182
  0
LINE
  5
243
100
AcDbEntity
  8
0
100
AcDbLine
 62
7
  6
CONTINUOUS
 10
56.4938469495
 20
132.2234608275
 11
53.3534583327
 21
131.2030867121
  0
LINE
  5
244
100
AcDbEntity
  8
0
100
AcDbLine
 62
7
  6
CONTINUOUS
 10
91.3719739083
 20
106.9572487444
 11
92.9085700442
 21
107.2006216634
  0
LINE
  5
245
100
AcDbEntity
  8
0
100
AcDbLine
 62
7
  6
CONTINUOUS
 10
92.0053893615
 20
107.8290703223
 11
92.0367484663
 21
107.8340371166
  0
LINE
  5
246
100
AcDbEntity
  8
0
100
AcDbLine
 62
7
  6
CONTINUOUS
 10
76.7993811818
 20
85.4482009172
 11
76.7993811818
 21
229.9107009172
  0
LINE
  5
247
100
AcDbEntity
  8
0
100
AcDbLine
 62
7
  6
CONTINUOUS
 10
112.4229542826
 20
44.3834983195
 11
106.0276418755
 21
58.3366518176
  0
LINE
  5
248
100
AcDbEntity
  8
0
100
AcDbLine
 62
7
  6
CONTINUOUS
 10
87.9118811818
 20
219.699903926
 11
87.9118811818
 21
214.721503926
  0
LINE
  5
249
100
AcDbEntity
  8
0
100
AcDbLine
 62
7
  6
CONTINUOUS
 10
87.9118811818
 20
100.650103926
 11
87.9118811818
 21
95.671703926
  0
LINE
  5
24A
100
AcDbEntity
  8
0
100
AcDbLine
 62
7
  6
CONTINUOUS
 10
87.9118811818
 20
94.985903926
 11
87.9118811818
 21
95.671703926
  0
LINE
  5
24B
100
AcDbEntity
  8
0
100
AcDbLine
 62
7
  6
CONTINUOUS
 10
87.9118811818
 20
100.650103926
 11
87.9118811818
 21
101.335903926
  0
LINE
  5
24C
100
AcDbEntity
  8
0
100
AcDbLine
 62
7
  6
CONTINUOUS
 10
87.9118811818
 20
214.035703926
 11
87.9118811818
 21
214.721503926
  0
LINE
  5
24D
100
AcDbEntity
  8
0
100
AcDbLine
 62
7
  6
CONTINUOUS
 10
87.9118811818
 20
219.699903926
 11
87.9118811818
 21
220.385703926
  0
LINE
  5
24E
100
AcDbEntity
  8
0
100
AcDbLine
 62
7
  6
CONTINUOUS
 10
124.0242394304
 20
125.7872767527
 11
93.1811997316
 21
120.2067606109
  0
LINE
  5
24F
100
AcDbEntity
  8
0
100
AcDbLine
 62
7
  6
CONTINUOUS
 10
93.0156910232
 20
120.9246769921
 11
123.9277011016
 21
126.5176721347
  0
LINE
  5
250
100
AcDbEntity
  8
0
100
AcDbLine
 62
7
  6
CONTINUOUS
 10
123.7802850254
 20
127.6330168974
 11
92.7629502763
 21
122.0209650719
  0
LINE
  5
251
100
AcDbEntity
  8
0
100
AcDbLine
 62
7
  6
CONTINUOUS
 10
92.0732112555
 20
125.0127775799
 11
123.3779807244
 21
130.6768357611
  0
LINE
  5
252
100
AcDbEntity
  8
0
100
AcDbLine
 62
7
  6
CONTINUOUS
 10
89.9719051291
 20
125.5390338294
 11
89.2192866135
 21
125.4198307671
  0
LINE
  5
253
100
AcDbEntity
  8
0
100
AcDbLine
 62
7
  6
CONTINUOUS
 10
89.9719051291
 20
125.5390338294
 11
92.3494015612
 21
125.6220578343
  0
LINE
  5
254
100
AcDbEntity
  8
0
100
AcDbLine
 62
7
  6
CONTINUOUS
 10
89.0645911646
 20
131.8612203339
 11
88.7709225636
 21
133.1217393216
  0
LINE
  5
255
100
AcDbEntity
  8
0
100
AcDbLine
 62
7
  6
CONTINUOUS
 10
83.0896824406
 20
168.2785469703
 11
82.3437256002
 21
172.4013871981
  0
LINE
  5
256
100
AcDbEntity
  8
0
100
AcDbLine
 62
7
  6
CONTINUOUS
 10
81.1621820931
 20
171.4193372823
 11
91.3719739083
 21
106.9572487444
  0
LINE
  5
257
100
AcDbEntity
  8
0
100
AcDbLine
 62
7
  6
CONTINUOUS
 10
81.914812483
 20
171.5384653727
 11
92.0053893615
 21
107.8290703223
  0
LINE
  5
258
100
AcDbEntity
  8
0
100
AcDbLine
 62
7
  6
CONTINUOUS
 10
94.7283872671
 20
90.8396985606
 11
92.0367484663
 21
107.8340371166
  0
LINE
  5
259
100
AcDbEntity
  8
0
100
AcDbLine
 62
7
  6
CONTINUOUS
 10
92.8431603134
 20
107.4106420603
 11
89.9719051291
 21
125.5390338294
  0
LINE
  5
25A
100
AcDbEntity
  8
0
100
AcDbLine
 62
7
  6
CONTINUOUS
 10
88.7709225636
 20
133.1217393216
 11
83.5658571928
 21
165.9852286906
  0
LINE
  5
25B
100
AcDbEntity
  8
0
100
AcDbLine
 62
7
  6
CONTINUOUS
 10
96.1115216296
 20
86.9779812396
 11
92.9085700442
 21
107.2006216634
  0
LINE
  5
25C
100
AcDbEntity
  8
0
100
AcDbLine
 62
7
  6
CONTINUOUS
 10
89.0645911646
 20
131.8612203339
 11
89.9719051291
 21
125.5390338294
  0
LINE
  5
25D
100
AcDbEntity
  8
0
100
AcDbLine
 62
7
  6
CONTINUOUS
 10
95.3854965305
 20
86.097242367
 11
94.7283872672
 21
90.8396985606
  0
LINE
  5
25E
100
AcDbEntity
  8
0
100
AcDbLine
 62
7
  6
CONTINUOUS
 10
100.7842358713
 20
213.2547737133
 11
100.5183017064
 21
205.6394156112
  0
LINE
  5
25F
100
AcDbEntity
  8
0
100
AcDbLine
 62
7
  6
CONTINUOUS
 10
66.8073414016
 20
115.2770915353
 11
62.4591110089
 21
113.864265837
  0
LINE
  5
260
100
AcDbEntity
  8
0
100
AcDbLine
 62
7
  6
CONTINUOUS
 10
88.0183040492
 20
133.0025362519
 11
88.7709225647
 21
133.1217393143
  0
LINE
  5
261
100
AcDbEntity
  8
0
100
AcDbLine
 62
7
  6
CONTINUOUS
 10
109.9032973504
 20
132.5889239891
 11
103.2799663339
 21
132.3576321734
  0
LINE
  5
262
100
AcDbEntity
  8
0
100
AcDbLine
 62
7
  6
CONTINUOUS
 10
90.6397981328
 20
131.9162277734
 11
89.0645911646
 21
131.8612203339
  0
LINE
  5
263
100
AcDbEntity
  8
0
100
AcDbLine
 62
7
  6
CONTINUOUS
 10
110.3250725392
 20
133.8744268245
 11
102.6980113176
 21
133.6080839777
  0
LINE
  5
264
100
AcDbEntity
  8
0
100
AcDbLine
 62
7
  6
CONTINUOUS
 10
90.3778394649
 20
133.1778540963
 11
88.7709225636
 21
133.1217393216
  0
LINE
  5
265
100
AcDbEntity
  8
0
100
AcDbLine
 62
7
  6
CONTINUOUS
 10
93.1812010292
 20
120.20676091
 11
92.1171164949
 21
124.8223332128
  0
LINE
  5
266
100
AcDbEntity
  8
0
100
AcDbLine
 62
7
  6
CONTINUOUS
 10
90.9093187075
 20
130.6181823439
 11
83.0896824406
 21
168.2785469703
  0
LINE
  5
267
100
AcDbEntity
  8
0
100
AcDbLine
 62
7
  6
CONTINUOUS
 10
106.0276418755
 20
58.3366518176
 11
93.1811997316
 21
120.2067606109
  0
LINE
  5
268
100
AcDbEntity
  8
0
100
AcDbLine
 62
7
  6
CONTINUOUS
 10
110.9621502188
 20
23.6688661182
 11
108.1640376335
 21
40.2828622852
  0
LINE
  5
269
100
AcDbEntity
  8
0
100
AcDbLine
 62
7
  6
CONTINUOUS
 10
111.2826152284
 20
39.2171885875
 11
113.5596326148
 21
25.6972329114
  0
LINE
  5
26A
100
AcDbEntity
  8
0
100
AcDbLine
 62
7
  6
CONTINUOUS
 10
114.9835465745
 20
20.3176898586
 11
114.9532560425
 21
20.6974838602
  0
LINE
  5
26B
100
AcDbEntity
  8
0
100
AcDbLine
 62
7
  6
CONTINUOUS
 10
105.6811674854
 20
228.9021267152
 11
105.6257645344
 21
227.3155937773
  0
LINE
  5
26C
100
AcDbEntity
  8
0
100
AcDbLine
 62
7
  6
CONTINUOUS
 10
91.3719739083
 20
106.9572487444
 11
92.0053893615
 21
107.8290703223
  0
LINE
  5
26D
100
AcDbEntity
  8
0
100
AcDbLine
 62
7
  6
CONTINUOUS
 10
128.4177058379
 20
127.8233054405
 11
126.8543235519
 21
128.0989720467
  0
LINE
  5
26E
100
AcDbEntity
  8
0
100
AcDbLine
 62
7
  6
CONTINUOUS
 10
108.1369060292
 20
96.610943985
 11
105.0301092074
 21
113.7819466799
  0
LINE
  5
26F
100
AcDbEntity
  8
0
100
AcDbLine
 62
7
  6
CONTINUOUS
 10
116.3860488687
 20
20.8208390292
 11
116.4170592018
 21
20.43201989
  0
LINE
  5
270
100
AcDbEntity
  8
0
100
AcDbLine
 62
7
  6
CONTINUOUS
 10
117.8130535115
 20
226.8900042682
 11
117.8684564626
 21
228.4765372061
  0
LINE
  5
271
100
AcDbEntity
  8
0
100
AcDbLine
 62
7
  6
CONTINUOUS
 10
129.901429401
 20
144.4460977685
 11
131.171429401
 21
144.4460977685
  0
LINE
  5
272
100
AcDbEntity
  8
0
100
AcDbLine
 62
7
  6
CONTINUOUS
 10
76.7993811818
 20
145.5986750853
 11
67.1695051672
 21
145.9349577658
  0
LINE
  5
273
100
AcDbEntity
  8
0
100
AcDbLine
 62
7
  6
CONTINUOUS
 10
115.177746899
 20
115.6179867231
 11
118.2845437208
 21
98.4469840282
  0
LINE
  5
274
100
AcDbEntity
  8
0
100
AcDbLine
 62
7
  6
CONTINUOUS
 10
127.0763703056
 20
22.0465746271
 11
122.857937258
 21
47.0938264249
  0
LINE
  5
275
100
AcDbEntity
  8
0
100
AcDbLine
 62
7
  6
CONTINUOUS
 10
123.620426764
 20
47.1546388988
 11
127.8167159075
 21
22.2388681361
  0
LINE
  5
276
100
AcDbEntity
  8
0
100
AcDbLine
 62
7
  6
CONTINUOUS
 10
113.861976537
 20
97.4025792019
 11
111.726090537
 21
114.7979425781
  0
LINE
  5
277
100
AcDbEntity
  8
0
100
AcDbLine
 62
7
  6
CONTINUOUS
 10
127.1435630421
 20
21.2875139388
 11
127.082981978
 21
22.0471019421
  0
LINE
  5
278
100
AcDbEntity
  8
0
100
AcDbLine
 62
7
  6
CONTINUOUS
 10
120.019403435
 20
204.9584221329
 11
120.2853375988
 21
212.573780235
  0
LINE
  5
279
100
AcDbEntity
  8
0
100
AcDbLine
 62
7
  6
CONTINUOUS
 10
138.6516803528
 20
29.9232724875
 11
136.3746854031
 21
43.4430921212
  0
LINE
  5
27A
100
AcDbEntity
  8
0
100
AcDbLine
 62
7
  6
CONTINUOUS
 10
129.901429401
 20
144.4461064208
 11
129.901429401
 21
194.7252760308
  0
LINE
  5
27B
100
AcDbEntity
  8
0
100
AcDbLine
 62
7
  6
CONTINUOUS
 10
126.8543234254
 20
128.0989713293
 11
125.155471955
 21
118.4643103435
  0
LINE
  5
27C
100
AcDbEntity
  8
0
100
AcDbLine
 62
7
  6
CONTINUOUS
 10
125.9082307079
 20
113.5913713657
 11
130.9963565518
 21
142.4475535641
  0
LINE
  5
27D
100
AcDbEntity
  8
0
100
AcDbLine
 62
7
  6
CONTINUOUS
 10
116.6318740222
 20
174.3474280981
 11
115.8859171818
 21
178.470268326
  0
LINE
  5
27E
100
AcDbEntity
  8
0
100
AcDbLine
 62
7
  6
CONTINUOUS
 10
141.7702699301
 20
28.8575387667
 11
138.9721573448
 21
45.4715349338
  0
LINE
  5
27F
100
AcDbEntity
  8
0
100
AcDbLine
 62
7
  6
CONTINUOUS
 10
141.2175238517
 20
34.8922977663
 11
140.4265627744
 21
39.5886771456
  0
LINE
  5
280
100
AcDbEntity
  8
0
100
AcDbLine
 62
7
  6
CONTINUOUS
 10
124.0242394304
 20
125.7872767527
 11
133.6711962151
 21
63.3382762592
  0
LINE
  5
281
100
AcDbEntity
  8
0
100
AcDbLine
 62
7
  6
CONTINUOUS
 10
116.6318740222
 20
174.3474280982
 11
122.5039804258
 21
136.3346915284
  0
LINE
  5
282
100
AcDbEntity
  8
0
100
AcDbLine
 62
7
  6
CONTINUOUS
 10
124.0242381102
 20
125.7872765782
 11
123.403589605
 21
130.4830809833
  0
LINE
  5
283
100
AcDbEntity
  8
0
100
AcDbLine
 62
7
  6
CONTINUOUS
 10
131.171429401
 20
194.7252846818
 11
131.171429401
 21
144.446097769
  0
LINE
  5
284
100
AcDbEntity
  8
0
100
AcDbLine
 62
7
  6
CONTINUOUS
 10
133.6711962151
 20
63.3382762592
 11
132.558846314
 21
47.8675239958
  0
LINE
  5
285
100
AcDbEntity
  8
0
100
AcDbLine
 62
7
  6
CONTINUOUS
 10
82.4835579232
 20
171.6285458015
 11
81.1621939675
 21
171.4192623103
  0
LINE
  5
286
100
AcDbEntity
  8
0
100
AcDbLine
 62
7
  6
CONTINUOUS
 10
72.2321878935
 20
192.3709789263
 11
75.4789206876
 21
189.6712491087
  0
LINE
  5
287
100
AcDbEntity
  8
0
100
AcDbLine
 62
7
  6
CONTINUOUS
 10
96.3817973637
 20
220.3944002502
 11
96.4667420124
 21
220.2202257248
  0
LINE
  5
288
100
AcDbEntity
  8
0
100
AcDbLine
 62
7
  6
CONTINUOUS
 10
95.9943397915
 20
221.1887938131
 11
96.3817973637
 21
220.3944002502
  0
LINE
  5
289
100
AcDbEntity
  8
0
100
AcDbLine
 62
7
  6
CONTINUOUS
 10
45.5696870068
 20
168.7638354969
 11
47.631706981
 21
169.1369224515
  0
LINE
  5
28A
100
AcDbEntity
  8
0
100
AcDbLine
 62
7
  6
CONTINUOUS
 10
59.7538850116
 20
171.3302215178
 11
74.3262585217
 21
173.9668412023
  0
LINE
  5
28B
100
AcDbEntity
  8
0
100
AcDbLine
 62
7
  6
CONTINUOUS
 10
81.9473190861
 20
180.3932834815
 11
82.6678042407
 21
180.1452005478
  0
LINE
  5
28C
100
AcDbEntity
  8
0
100
AcDbLine
 62
7
  6
CONTINUOUS
 10
122.2470660425
 20
223.3630325142
 11
125.3877155666
 21
211.6419651994
  0
LINE
  5
28D
100
AcDbEntity
  8
0
100
AcDbLine
 62
7
  6
CONTINUOUS
 10
123.7804737872
 20
223.773905899
 11
130.6254587223
 21
198.2280662321
  0
LINE
  5
28E
100
AcDbEntity
  8
0
100
AcDbLine
 62
7
  6
CONTINUOUS
 10
70.9345589346
 20
192.712477332
 11
42.1779874197
 21
187.5094716267
  0
LINE
  5
28F
100
AcDbEntity
  8
0
100
AcDbLine
 62
7
  6
CONTINUOUS
 10
131.171429401
 20
194.7252846924
 11
129.901429401
 21
194.7252846924
  0
LINE
  5
290
100
AcDbEntity
  8
0
100
AcDbLine
 62
7
  6
CONTINUOUS
 10
125.3877155672
 20
211.6419651972
 11
126.9211228491
 21
212.0528403096
  0
LINE
  5
291
100
AcDbEntity
  8
0
100
AcDbLine
 62
7
  6
CONTINUOUS
 10
122.9684602039
 20
46.4375884278
 11
123.6727353338
 21
46.8440529765
  0
LINE
  5
292
100
AcDbEntity
  8
0
100
AcDbLine
 62
7
  6
CONTINUOUS
 10
100.5183017066
 20
205.6394156112
 11
120.0193947881
 21
204.9584224348
  0
LINE
  5
293
100
AcDbEntity
  8
0
100
AcDbLine
 62
7
  6
CONTINUOUS
 10
120.0637257955
 20
206.2276484832
 11
100.5626240673
 21
206.9086419615
  0
LINE
  5
294
100
AcDbEntity
  8
0
100
AcDbLine
 62
7
  6
CONTINUOUS
 10
93.8140384443
 20
210.17569141
 11
93.0935532896
 21
210.4237743437
  0
LINE
  5
295
100
AcDbEntity
  8
0
100
AcDbLine
 62
7
  6
CONTINUOUS
 10
123.7804737818
 20
223.7739059193
 11
122.2470665
 21
223.3630308069
  0
LINE
  5
296
100
AcDbEntity
  8
0
100
AcDbLine
 62
7
  6
CONTINUOUS
 10
76.7993811818
 20
214.035703926
 11
87.9118811818
 21
214.035703926
  0
LINE
  5
297
100
AcDbEntity
  8
0
100
AcDbLine
 62
7
  6
CONTINUOUS
 10
120.2853375997
 20
212.5737802347
 11
100.7842358714
 21
213.2547737135
  0
LINE
  5
298
100
AcDbEntity
  8
0
100
AcDbLine
 62
7
  6
CONTINUOUS
 10
94.7801929162
 20
215.3221314939
 11
100.7842358715
 21
213.2547737129
  0
LINE
  5
299
100
AcDbEntity
  8
0
100
AcDbLine
 62
7
  6
CONTINUOUS
 10
96.4967622272
 20
220.2098889359
 11
96.4667420124
 21
220.2202257248
  0
LINE
  5
29A
100
AcDbEntity
  8
0
100
AcDbLine
 62
7
  6
CONTINUOUS
 10
95.9943397915
 20
221.1887938131
 11
97.4653303155
 21
220.6822911568
  0
LINE
  5
29B
100
AcDbEntity
  8
0
100
AcDbLine
 62
7
  6
CONTINUOUS
 10
99.6809170682
 20
227.1168223045
 11
105.6257644858
 21
227.315593779
  0
LINE
  5
29C
100
AcDbEntity
  8
0
100
AcDbLine
 62
7
  6
CONTINUOUS
 10
76.7993811818
 20
220.385703926
 11
87.9118811818
 21
220.385703926
  0
LINE
  5
29D
100
AcDbEntity
  8
0
100
AcDbLine
 62
7
  6
CONTINUOUS
 10
76.7993811818
 20
225.1452979625
 11
97.9419378206
 21
224.4069836145
  0
LINE
  5
29E
100
AcDbEntity
  8
0
100
AcDbLine
 62
7
  6
CONTINUOUS
 10
98.662422989
 20
224.1589007207
 11
97.9419378344
 21
224.4069836544
  0
LINE
  5
29F
100
AcDbEntity
  8
0
100
AcDbLine
 62
7
  6
CONTINUOUS
 10
105.6257644861
 20
227.315593779
 11
117.8130552939
 21
226.8900042059
  0
LINE
  5
2A0
100
AcDbEntity
  8
0
100
AcDbLine
 62
7
  6
CONTINUOUS
 10
76.7993811818
 20
229.9107009172
 11
117.8684564609
 21
228.4765372061
  0
ARC
  5
2A1
100
AcDbEntity
  8
0
100
AcDbCircle
 62
7
  6
CONTINUOUS
 10
65.1825918484
 20
120.2775564866
 40
5.2578
100
AcDbArc
 50
288.0000000021
 51
358.0
  0
CIRCLE
  5
2A2
100
AcDbEntity
  8
0
100
AcDbCircle
 62
7
  6
CONTINUOUS
 10
65.9072969138
 20
120.5130274363
 40
2.1717
  0
ARC
  5
2A3
100
AcDbEntity
  8
0
100
AcDbCircle
 62
7
  6
CONTINUOUS
 10
88.004858374
 20
126.9891503226
 40
4.6482
100
AcDbArc
 50
332.2145089292
 51
51.3283071856
  0
ARC
  5
2A4
100
AcDbEntity
  8
0
100
AcDbCircle
 62
7
  6
CONTINUOUS
 10
54.0997999468
 20
167.9840956491
 40
4.572
100
AcDbArc
 50
190.255731
 51
10.255731
  0
ARC
  5
2A5
100
AcDbEntity
  8
0
100
AcDbCircle
 62
7
  6
CONTINUOUS
 10
45.0044037422
 20
171.8881081852
 40
3.175
100
AcDbArc
 50
190.255731
 51
280.255731
  0
ARC
  5
2A6
100
AcDbEntity
  8
0
100
AcDbCircle
 62
7
  6
CONTINUOUS
 10
42.7432706842
 20
184.3851989384
 40
3.175
100
AcDbArc
 50
100.255731
 51
190.255731
  0
ARC
  5
2A7
100
AcDbEntity
  8
0
100
AcDbCircle
 62
7
  6
CONTINUOUS
 10
78.2218444137
 20
131.2177587336
 40
3.175
100
AcDbArc
 50
116.9297101581
 51
147.9999999998
  0
CIRCLE
  5
2A8
100
AcDbEntity
  8
0
100
AcDbCircle
 62
7
  6
CONTINUOUS
 10
47.7479353467
 20
178.8376048098
 40
2.4892
  0
CIRCLE
  5
2A9
100
AcDbEntity
  8
0
100
AcDbCircle
 62
7
  6
CONTINUOUS
 10
60.2450260999
 20
181.0987378679
 40
2.4892
  0
CIRCLE
  5
2AA
100
AcDbEntity
  8
0
100
AcDbCircle
 62
7
  6
CONTINUOUS
 10
63.1993809921
 20
128.8471356886
 40
2.1717
  0
CIRCLE
  5
2AB
100
AcDbEntity
  8
0
100
AcDbCircle
 62
7
  6
CONTINUOUS
 10
54.0997999468
 20
167.9840956491
 40
1.9304
  0
ARC
  5
2AC
100
AcDbEntity
  8
0
100
AcDbCircle
 62
7
  6
CONTINUOUS
 10
76.4939080142
 20
190.8918870472
 40
1.5875
100
AcDbArc
 50
230.2557309994
 51
280.255731
  0
ARC
  5
2AD
100
AcDbEntity
  8
0
100
AcDbCircle
 62
7
  6
CONTINUOUS
 10
74.0436168894
 20
175.5289775464
 40
1.5875
100
AcDbArc
 50
280.255731
 51
330.2557310006
  0
ARC
  5
2AE
100
AcDbEntity
  8
0
100
AcDbCircle
 62
7
  6
CONTINUOUS
 10
60.0365266439
 20
169.7680851737
 40
1.5875
100
AcDbArc
 50
100.255731
 51
190.255731
  0
ARC
  5
2AF
100
AcDbEntity
  8
0
100
AcDbCircle
 62
7
  6
CONTINUOUS
 10
47.9143486133
 20
167.5747861073
 40
1.5875
100
AcDbArc
 50
10.255731
 51
100.255731
  0
ARC
  5
2B0
100
AcDbEntity
  8
0
100
AcDbCircle
 62
7
  6
CONTINUOUS
 10
71.2172005669
 20
191.1503409879
 40
1.5875
100
AcDbArc
 50
50.2557309996
 51
100.255731
  0
ARC
  5
2B1
100
AcDbEntity
  8
0
100
AcDbCircle
 62
7
  6
CONTINUOUS
 10
89.091184581
 20
131.0996845237
 40
0.762
100
AcDbArc
 50
92.0000000001
 51
189.0
  0
ARC
  5
2B2
100
AcDbEntity
  8
0
100
AcDbCircle
 62
7
  6
CONTINUOUS
 10
106.6083242103
 20
114.169558726
 40
5.1562
100
AcDbArc
 50
7.0000128042
 51
73.3210709548
  0
ARC
  5
2B3
100
AcDbEntity
  8
0
100
AcDbCircle
 62
7
  6
CONTINUOUS
 10
108.7442102103
 20
96.7741953496
 40
5.1562
100
AcDbArc
 50
311.0993102046
 51
7.0000128048
  0
ARC
  5
2B4
100
AcDbEntity
  8
0
100
AcDbCircle
 62
7
  6
CONTINUOUS
 10
110.1039280532
 20
114.6999667015
 40
5.1562
100
AcDbArc
 50
10.255731
 51
190.2557309997
  0
ARC
  5
2B5
100
AcDbEntity
  8
0
100
AcDbCircle
 62
7
  6
CONTINUOUS
 10
113.210724875
 20
97.5289640066
 40
5.1562
100
AcDbArc
 50
190.2557310002
 51
10.255731
  0
ARC
  5
2B6
100
AcDbEntity
  8
0
100
AcDbCircle
 62
7
  6
CONTINUOUS
 10
111.2949441082
 20
40.8101664162
 40
3.175
100
AcDbArc
 50
104.559982
 51
189.559982
  0
ARC
  5
2B7
100
AcDbEntity
  8
0
100
AcDbCircle
 62
7
  6
CONTINUOUS
 10
114.0930566936
 20
24.1961702491
 40
3.175
100
AcDbArc
 50
189.559982
 51
274.559982
  0
ARC
  5
2B8
100
AcDbEntity
  8
0
100
AcDbCircle
 62
7
  6
CONTINUOUS
 10
138.6393634554
 20
28.3302346358
 40
3.175
100
AcDbArc
 50
284.5599442885
 51
9.559982
  0
ARC
  5
2B9
100
AcDbEntity
  8
0
100
AcDbCircle
 62
7
  6
CONTINUOUS
 10
135.8412508701
 20
44.9442308029
 40
3.175
100
AcDbArc
 50
9.559982
 51
94.5600197115
  0
ARC
  5
2BA
100
AcDbEntity
  8
0
100
AcDbCircle
 62
7
  6
CONTINUOUS
 10
124.9671537818
 20
34.570200526
 40
1.778
100
AcDbArc
 50
99.559982
 51
279.559982
  0
ARC
  5
2BB
100
AcDbEntity
  8
0
100
AcDbCircle
 62
7
  6
CONTINUOUS
 10
95.3589031141
 20
86.8587781772
 40
0.762
100
AcDbArc
 50
272.0000000001
 51
9.0
  0
ARC
  5
2BC
100
AcDbEntity
  8
0
100
AcDbCircle
 62
7
  6
CONTINUOUS
 10
92.1559515286
 20
107.081418601
 40
0.762
100
AcDbArc
 50
9.0000000015
 51
99.0
  0
ARC
  5
2BD
100
AcDbEntity
  8
0
100
AcDbCircle
 62
7
  6
CONTINUOUS
 10
114.5734620408
 20
20.6671933282
 40
0.381
100
AcDbArc
 50
4.5599820002
 51
94.5599819998
  0
ARC
  5
2BE
100
AcDbEntity
  8
0
100
AcDbCircle
 62
7
  6
CONTINUOUS
 10
99.114821391
 20
175.435827762
 40
17.0434
100
AcDbArc
 50
10.255731
 51
190.255731
  0
CIRCLE
  5
2BF
100
AcDbEntity
  8
0
100
AcDbCircle
 62
7
  6
CONTINUOUS
 10
92.0010110654
 20
174.6649546135
 40
4.064
  0
CIRCLE
  5
2C0
100
AcDbEntity
  8
0
100
AcDbCircle
 62
7
  6
CONTINUOUS
 10
92.0010271818
 20
174.664941926
 40
3.9497
  0
CIRCLE
  5
2C1
100
AcDbEntity
  8
0
100
AcDbCircle
 62
7
  6
CONTINUOUS
 10
106.5313378215
 20
134.4453700916
 40
3.9624
  0
ARC
  5
2C2
100
AcDbEntity
  8
0
100
AcDbCircle
 62
7
  6
CONTINUOUS
 10
99.5511730302
 20
174.3317904679
 40
18.6182061962
100
AcDbArc
 50
161.0002335931
 51
188.9997664066
  0
ARC
  5
2C3
100
AcDbEntity
  8
0
100
AcDbCircle
 62
7
  6
CONTINUOUS
 10
99.5511730302
 20
174.3317904679
 40
17.8562
100
AcDbArc
 50
161.0
 51
189.0000000012
  0
CIRCLE
  5
2C4
100
AcDbEntity
  8
0
100
AcDbCircle
 62
7
  6
CONTINUOUS
 10
106.047741072
 20
177.2064681708
 40
4.064
  0
CIRCLE
  5
2C5
100
AcDbEntity
  8
0
100
AcDbCircle
 62
7
  6
CONTINUOUS
 10
100.2951328473
 20
168.9123463889
 40
4.064
  0
CIRCLE
  5
2C6
100
AcDbEntity
  8
0
100
AcDbCircle
 62
7
  6
CONTINUOUS
 10
100.2951431818
 20
168.912349926
 40
3.9497
  0
CIRCLE
  5
2C7
100
AcDbEntity
  8
0
100
AcDbCircle
 62
7
  6
CONTINUOUS
 10
106.047741072
 20
177.2064681708
 40
3.2639
  0
ARC
  5
2C8
100
AcDbEntity
  8
0
100
AcDbCircle
 62
7
  6
CONTINUOUS
 10
100.7842358713
 20
213.254773713
 40
7.62
100
AcDbArc
 50
203.8334281459
 51
268.0000000012
  0
ARC
  5
2C9
100
AcDbEntity
  8
0
100
AcDbCircle
 62
7
  6
CONTINUOUS
 10
100.7842358713
 20
213.254773713
 40
6.35
100
AcDbArc
 50
161.0
 51
268.0000000003
  0
ARC
  5
2CA
100
AcDbEntity
  8
0
100
AcDbCircle
 62
7
  6
CONTINUOUS
 10
96.7448451609
 20
220.9303740905
 40
0.762
100
AcDbArc
 50
250.9999999994
 51
341.0
  0
ARC
  5
2CB
100
AcDbEntity
  8
0
100
AcDbCircle
 62
7
  6
CONTINUOUS
 10
99.3038837841
 20
228.3623618965
 40
0.762
100
AcDbArc
 50
341.0000000013
 51
88.0
  0
ARC
  5
2CC
100
AcDbEntity
  8
0
100
AcDbCircle
 62
7
  6
CONTINUOUS
 10
119.662054401
 20
144.4460977685
 40
17.859375
100
AcDbArc
 50
283.5824137697
 51
293.7481243057
  0
ARC
  5
2CD
100
AcDbEntity
  8
0
100
AcDbCircle
 62
7
  6
CONTINUOUS
 10
119.662054401
 20
144.4460977685
 40
11.509375
100
AcDbArc
 50
281.9329976776
 51
360.0
  0
ARC
  5
2CE
100
AcDbEntity
  8
0
100
AcDbCircle
 62
7
  6
CONTINUOUS
 10
119.662054401
 20
144.4460977685
 40
10.2393741653
100
AcDbArc
 50
283.1990983858
 51
0.0000484151
  0
ARC
  5
2CF
100
AcDbEntity
  8
0
100
AcDbCircle
 62
7
  6
CONTINUOUS
 10
117.2615811818
 20
144.185703926
 40
4.826
100
AcDbArc
 50
337.3343865339
 51
37.8170371372
  0
ARC
  5
2D0
100
AcDbEntity
  8
0
100
AcDbCircle
 62
7
  6
CONTINUOUS
 10
126.4958978939
 20
133.9534401414
 40
4.6482
100
AcDbArc
 50
149.1831548144
 51
228.2969530708
  0
ARC
  5
2D1
100
AcDbEntity
  8
0
100
AcDbCircle
 62
7
  6
CONTINUOUS
 10
119.662054401
 20
194.7252846834
 40
17.859375
100
AcDbArc
 50
71.3009702384
 51
88.0000000007
  0
ARC
  5
2D2
100
AcDbEntity
  8
0
100
AcDbCircle
 62
7
  6
CONTINUOUS
 10
119.662054401
 20
194.7252846834
 40
11.509375
100
AcDbArc
 50
0.0
 51
88.0
  0
ARC
  5
2D3
100
AcDbEntity
  8
0
100
AcDbCircle
 62
7
  6
CONTINUOUS
 10
119.662054401
 20
194.7252846834
 40
10.2393741653
100
AcDbArc
 50
359.9999515832
 51
88.0000484144
  0
ARC
  5
2D4
100
AcDbEntity
  8
0
100
AcDbCircle
 62
7
  6
CONTINUOUS
 10
117.6468446585
 20
222.1304054545
 40
6.35
100
AcDbArc
 50
14.9999954166
 51
88.0
  0
ARC
  5
2D5
100
AcDbEntity
  8
0
100
AcDbCircle
 62
7
  6
CONTINUOUS
 10
117.6468446585
 20
222.1304054545
 40
4.7625002289
100
AcDbArc
 50
15.0000169068
 51
87.9999785445
  0
SPLINE
  5
2D6
100
AcDbEntity
  8
0
100
AcDbSpline
 62
7
  6
CONTINUOUS
 70
0
 71
3
 72
9
 73
5
 74
0
 42
0.0000001
 43
0.0000001
 44
0.0000000001
 40
0.0
 40
0.0
 40
0.0
 40
0.0
 40
0.4734310182
 40
1.0
 40
1.0
 40
1.0
 40
1.0
 10
115.5697777951
 20
20.7466509015
 30
0.0
 10
115.6987160273
 20
20.7569292976
 30
0.0
 10
115.9705424069
 20
20.784655593
 30
0.0
 10
116.2426418588
 20
20.8093741962
 30
0.0
 10
116.3860500525
 20
20.8208323489
 30
0.0
  0
SPLINE
  5
2D7
100
AcDbEntity
  8
0
100
AcDbSpline
 62
7
  6
CONTINUOUS
 70
0
 71
3
 72
15
 73
11
 74
0
 42
0.0000001
 43
0.0000001
 44
0.0000000001
 40
0.0
 40
0.0
 40
0.0
 40
0.0
 40
0.0118315778
 40
0.0307833815
 40
0.093546216
 40
0.1916506938
 40
0.3216896375
 40
0.4776744106
 40
0.6495962484
 40
1.0
 40
1.0
 40
1.0
 40
1.0
 10
116.3247943405
 20
21.1974808686
 30
0.0
 10
116.3261065215
 20
21.1967280184
 30
0.0
 10
116.3286796681
 20
21.1935425778
 30
0.0
 10
116.3340217978
 20
21.1829035375
 30
0.0
 10
116.3406761418
 20
21.1606998887
 30
0.0
 10
116.3487900008
 20
21.1244670582
 30
0.0
 10
116.357316089
 20
21.0760506855
 30
0.0
 10
116.3656912567
 20
21.0181045626
 30
0.0
 10
116.376210341
 20
20.9320051178
 30
0.0
 10
116.3824873796
 20
20.8655006803
 30
0.0
 10
116.3860494004
 20
20.8208390717
 30
0.0
  0
SPLINE
  5
2D8
100
AcDbEntity
  8
0
100
AcDbSpline
 62
7
  6
CONTINUOUS
 70
0
 71
3
 72
25
 73
21
 74
0
 42
0.0000001
 43
0.0000001
 44
0.0000000001
 40
0.0
 40
0.0
 40
0.0
 40
0.0
 40
0.0031057801
 40
0.0051894956
 40
0.0077400239
 40
0.0143893668
 40
0.0232280217
 40
0.0343063722
 40
0.0476290896
 40
0.0631851109
 40
0.0809538013
 40
0.1229734002
 40
0.1733326635
 40
0.231571493
 40
0.2971545541
 40
0.3694588338
 40
0.4478071474
 40
0.6196051894
 40
0.8060198386
 40
1.0
 40
1.0
 40
1.0
 40
1.0
 10
114.3454773059
 20
21.0312201967
 30
0.0
 10
114.3405724213
 20
21.0308312447
 30
0.0
 10
114.3322520561
 20
21.0343822144
 30
0.0
 10
114.3232957335
 20
21.0426413869
 30
0.0
 10
114.311939345
 20
21.0565698861
 30
0.0
 10
114.2977063607
 20
21.0814719089
 30
0.0
 10
114.2805098953
 20
21.1199149215
 30
0.0
 10
114.2621924033
 20
21.1693180082
 30
0.0
 10
114.242757719
 20
21.2295737455
 30
0.0
 10
114.2222970772
 20
21.3005956868
 30
0.0
 10
114.1920062484
 20
21.4160596359
 30
0.0
 10
114.1526035184
 20
21.586084998
 30
0.0
 10
114.10432267
 20
21.8197760828
 30
0.0
 10
114.0533095831
 20
22.0909758821
 30
0.0
 10
114.0000822743
 20
22.3970999762
 30
0.0
 10
113.9451651383
 20
22.7352435018
 30
0.0
 10
113.8680304922
 20
23.2402295981
 30
0.0
 10
113.7720869738
 20
23.9251855443
 30
0.0
 10
113.6620010178
 20
24.793052479
 30
0.0
 10
113.5930371986
 20
25.391743917
 30
0.0
 10
113.559631784
 20
25.6972328451
 30
0.0
  0
SPLINE
  5
2D9
100
AcDbEntity
  8
0
100
AcDbSpline
 62
7
  6
CONTINUOUS
 70
0
 71
3
 72
9
 73
5
 74
0
 42
0.0000001
 43
0.0000001
 44
0.0000000001
 40
0.0
 40
0.0
 40
0.0
 40
0.0
 40
0.4782757898
 40
1.0
 40
1.0
 40
1.0
 40
1.0
 10
115.3615387951
 20
21.1123593772
 30
0.0
 10
115.5151745324
 20
21.1251958638
 30
0.0
 10
115.8360532914
 20
21.1560187661
 30
0.0
 10
116.1571819674
 20
21.1841073792
 30
0.0
 10
116.3248250817
 20
21.1974916643
 30
0.0
  0
SPLINE
  5
2DA
100
AcDbEntity
  8
0
100
AcDbSpline
 62
7
  6
CONTINUOUS
 70
0
 71
3
 72
25
 73
21
 74
0
 42
0.0000001
 43
0.0000001
 44
0.0000000001
 40
0.0
 40
0.0
 40
0.0
 40
0.0
 40
0.1939801482
 40
0.380394785
 40
0.5521928137
 40
0.6305411212
 40
0.7028453951
 40
0.7684284503
 40
0.8266672739
 40
0.8770265333
 40
0.9190461283
 40
0.9368148152
 40
0.9523708324
 40
0.9656935471
 40
0.9767718954
 40
0.9856105427
 40
0.9922598664
 40
0.9948103858
 40
0.9968941034
 40
1.0
 40
1.0
 40
1.0
 40
1.0
 10
111.282614765
 20
39.2171884672
 30
0.0
 10
111.2141169462
 20
39.5167672651
 30
0.0
 10
111.0831740558
 20
40.1050200949
 30
0.0
 10
110.9029210001
 20
40.9610696244
 30
0.0
 10
110.7692159598
 20
41.6396657901
 30
0.0
 10
110.6766887183
 20
42.1420594783
 30
0.0
 10
110.617818346
 20
42.4795371986
 30
0.0
 10
110.5678392415
 20
42.7862083461
 30
0.0
 10
110.5272074492
 20
43.0591565473
 30
0.0
 10
110.4962799592
 20
43.2957702637
 30
0.0
 10
110.4778175966
 20
43.4693223838
 30
0.0
 10
110.4686175814
 20
43.588338414
 30
0.0
 10
110.464686592
 20
43.6621442388
 30
0.0
 10
110.4633126427
 20
43.7254417241
 30
0.0
 10
110.4644377547
 20
43.7781193079
 30
0.0
 10
110.4680933227
 20
43.820074227
 30
0.0
 10
110.4733840746
 20
43.8482645452
 30
0.0
 10
110.4795515623
 20
43.8651444448
 30
0.0
 10
110.485308618
 20
43.8758818156
 30
0.0
 10
110.4920073357
 20
43.8819620488
 30
0.0
 10
110.4967692531
 20
43.8832010565
 30
0.0
  0
SPLINE
  5
2DB
100
AcDbEntity
  8
0
100
AcDbSpline
 62
7
  6
CONTINUOUS
 70
0
 71
3
 72
14
 73
10
 74
0
 42
0.0000001
 43
0.0000001
 44
0.0000000001
 40
0.0
 40
0.0
 40
0.0
 40
0.0
 40
0.2898425781
 40
0.4367153687
 40
0.5761463799
 40
0.7028107973
 40
0.8147811379
 40
0.912495556
 40
1.0
 40
1.0
 40
1.0
 40
1.0
 10
115.5697750533
 20
20.7466544338
 30
0.0
 10
115.5660338412
 20
20.7935666156
 30
0.0
 10
115.552599178
 20
20.8640979345
 30
0.0
 10
115.517596003
 20
20.9510875578
 30
0.0
 10
115.4836770903
 20
21.0093094287
 30
0.0
 10
115.4431762403
 20
21.0559564343
 30
0.0
 10
115.3990552834
 20
21.0890583845
 30
0.0
 10
115.3535151106
 20
21.1068535542
 30
0.0
 10
115.3230045497
 20
21.1091768414
 30
0.0
 10
115.3088417027
 20
21.1080461338
 30
0.0
  0
SPLINE
  5
2DC
100
AcDbEntity
  8
0
100
AcDbSpline
 62
7
  6
CONTINUOUS
 70
0
 71
3
 72
25
 73
21
 74
0
 42
0.0000001
 43
0.0000001
 44
0.0000000001
 40
0.0
 40
0.0
 40
0.0
 40
0.0
 40
0.0031051283
 40
0.005188643
 40
0.0077389864
 40
0.0143879527
 40
0.0232262513
 40
0.0343043395
 40
0.0476268703
 40
0.0631827368
 40
0.0809512813
 40
0.1229706532
 40
0.1733297644
 40
0.2315685695
 40
0.2971516756
 40
0.369456083
 40
0.4478045992
 40
0.6196032662
 40
0.8060187882
 40
1.0
 40
1.0
 40
1.0
 40
1.0
 10
139.4375380892
 20
25.2571999381
 30
0.0
 10
139.4422987524
 20
25.2584389241
 30
0.0
 10
139.4489952747
 20
25.2645189704
 30
0.0
 10
139.4547516604
 20
25.2752544799
 30
0.0
 10
139.4609195948
 20
25.2921329958
 30
0.0
 10
139.4662120559
 20
25.3203215178
 30
0.0
 10
139.4698689821
 20
25.3622748362
 30
0.0
 10
139.4709943836
 20
25.41495114
 30
0.0
 10
139.4696203094
 20
25.4782476594
 30
0.0
 10
139.4656890886
 20
25.5520526822
 30
0.0
 10
139.4564891773
 20
25.6710678479
 30
0.0
 10
139.4380274655
 20
25.8446191435
 30
0.0
 10
139.40710061
 20
26.0812322246
 30
0.0
 10
139.3664691464
 20
26.354180175
 30
0.0
 10
139.3164902499
 20
26.6608514933
 30
0.0
 10
139.2576198339
 20
26.9983296971
 30
0.0
 10
139.1650918964
 20
27.5007246182
 30
0.0
 10
139.0313876636
 20
28.1793234689
 30
0.0
 10
138.8511299174
 20
29.0353757879
 30
0.0
 10
138.7201957417
 20
29.623633474
 30
0.0
 10
138.6516964707
 20
29.9232135386
 30
0.0
  0
SPLINE
  5
2DD
100
AcDbEntity
  8
0
100
AcDbSpline
 62
7
  6
CONTINUOUS
 70
0
 71
3
 72
25
 73
21
 74
0
 42
0.0000001
 43
0.0000001
 44
0.0000000001
 40
0.0
 40
0.0
 40
0.0
 40
0.0
 40
0.1939801254
 40
0.3803948339
 40
0.552192944
 40
0.6305412966
 40
0.7028456276
 40
0.7684287489
 40
0.8266676425
 40
0.8770269744
 40
0.9190466302
 40
0.9368153557
 40
0.9523714177
 40
0.9656941648
 40
0.9767725097
 40
0.9856110821
 40
0.9922602471
 40
0.9948106642
 40
0.9968942738
 40
1.0
 40
1.0
 40
1.0
 40
1.0
 10
136.3746819269
 20
43.4431302705
 30
0.0
 10
136.3412681731
 20
43.748620559
 30
0.0
 10
136.2723123799
 20
44.347317466
 30
0.0
 10
136.1622211055
 20
45.215190577
 30
0.0
 10
136.0662786354
 20
45.9001521712
 30
0.0
 10
135.9891436352
 20
46.4051423669
 30
0.0
 10
135.9342262881
 20
46.7432887141
 30
0.0
 10
135.880998594
 20
47.0494154017
 30
0.0
 10
135.8299848565
 20
47.3206175065
 30
0.0
 10
135.7817036223
 20
47.5543106498
 30
0.0
 10
135.7423008842
 20
47.7243376231
 30
0.0
 10
135.7120096857
 20
47.8398026259
 30
0.0
 10
135.6915485252
 20
47.9108251727
 30
0.0
 10
135.6721135072
 20
47.9710814075
 30
0.0
 10
135.6537962289
 20
48.0204848865
 30
0.0
 10
135.6366010424
 20
48.0589283075
 30
0.0
 10
135.6223698813
 20
48.0838309204
 30
0.0
 10
135.6110147571
 20
48.097759798
 30
0.0
 10
135.6020591768
 20
48.1060193402
 30
0.0
 10
135.5937388619
 20
48.1095701493
 30
0.0
 10
135.588834029
 20
48.1091811561
 30
0.0
  0
SPLINE
  5
2DE
100
AcDbEntity
  8
0
100
AcDbSpline
 62
7
  6
CONTINUOUS
 70
0
 71
3
 72
11
 73
7
 74
0
 42
0.0000001
 43
0.0000001
 44
0.0000000001
 40
0.0
 40
0.0
 40
0.0
 40
0.0
 40
0.2590760841
 40
0.5124513128
 40
0.7597238944
 40
1.0
 40
1.0
 40
1.0
 40
1.0
 10
125.3877178343
 20
211.641966063
 30
0.0
 10
125.8259261589
 20
210.507324815
 30
0.0
 10
126.7253923023
 20
208.275488871
 30
0.0
 10
128.1332505482
 20
204.9983833107
 30
0.0
 10
129.4706817689
 20
201.7867518752
 30
0.0
 10
130.2174865776
 20
199.6198996485
 30
0.0
 10
130.5347499222
 20
198.5373750631
 30
0.0
  0
SPLINE
  5
2DF
100
AcDbEntity
  8
0
100
AcDbSpline
 62
7
  6
CONTINUOUS
 70
0
 71
3
 72
9
 73
5
 74
0
 42
0.0000001
 43
0.0000001
 44
0.0000000001
 40
0.0
 40
0.0
 40
0.0
 40
0.0
 40
0.3487918952
 40
1.0
 40
1.0
 40
1.0
 40
1.0
 10
130.5347499222
 20
198.5373750631
 30
0.0
 10
130.5439122244
 20
198.5061126511
 30
0.0
 10
130.5699877647
 20
198.4164262476
 30
0.0
 10
130.5961541954
 20
198.3267628599
 30
0.0
 10
130.612560036
 20
198.2681939524
 30
0.0
  0
SPLINE
  5
2E0
100
AcDbEntity
  8
0
100
AcDbSpline
 62
7
  6
CONTINUOUS
 70
0
 71
3
 72
13
 73
9
 74
0
 42
0.0000001
 43
0.0000001
 44
0.0000000001
 40
0.0
 40
0.0
 40
0.0
 40
0.0
 40
0.1171688496
 40
0.2349104449
 40
0.4756392743
 40
0.6005240365
 40
0.7296231417
 40
1.0
 40
1.0
 40
1.0
 40
1.0
 10
130.9965759746
 20
142.4475148739
 30
0.0
 10
130.8952220786
 20
141.8727086331
 30
0.0
 10
130.6642484463
 20
140.7250185508
 30
0.0
 10
130.0935699222
 20
138.4246913135
 30
0.0
 10
129.3845874843
 20
136.1223129698
 30
0.0
 10
128.620135493
 20
133.7796456599
 30
0.0
 10
127.8126556956
 20
131.2954744714
 30
0.0
 10
127.2282525824
 20
129.3928995015
 30
0.0
 10
126.8543234737
 20
128.0989713857
 30
0.0
  0
SPLINE
  5
2E1
100
AcDbEntity
  8
0
100
AcDbSpline
 62
7
  6
CONTINUOUS
 70
0
 71
3
 72
10
 73
6
 74
0
 42
0.0000001
 43
0.0000001
 44
0.0000000001
 40
0.0
 40
0.0
 40
0.0
 40
0.0
 40
0.4915655643
 40
0.7447323316
 40
1.0
 40
1.0
 40
1.0
 40
1.0
 10
93.8140133948
 20
210.1756942217
 30
0.0
 10
93.907706199
 20
211.0304200691
 30
0.0
 10
94.0444590986
 20
212.3273116954
 30
0.0
 10
94.3857440361
 20
214.0445803692
 30
0.0
 10
94.634732952
 20
214.8999782071
 30
0.0
 10
94.7801938527
 20
215.3221342147
 30
0.0
  0
ENDSEC
  0
SECTION
  2
OBJECTS
  0
DICTIONARY
  5
C
100
AcDbDictionary
280
0
281
1
  3
ACAD_GROUP
350
D
  3
ACAD_MLINESTYLE
350
17
  3
ACAD_LAYOUT
350
1A
  3
ACAD_PLOTSETTINGS
350
19
  3
ACAD_PLOTSTYLENAME
350
E
  0
DICTIONARY
  5
D
102
{ACAD_REACTORS
330
C
102
}
100
AcDbDictionary
280
0
281
1
  0
ACDBDICTIONARYWDFLT
  5
E
102
{ACAD_REACTORS
330
C
102
}
100
AcDbDictionary
281
1
  3
Normal
350
F
100
AcDbDictionaryWithDefault
340
F
  0
DICTIONARY
  5
17
102
{ACAD_REACTORS
330
C
102
}
100
AcDbDictionary
280
0
281
1
  3
Standard
350
18
  0
DICTIONARY
  5
19
102
{ACAD_REACTORS
330
C
102
}
100
AcDbDictionary
281
1
  0
DICTIONARY
  5
1A
102
{ACAD_REACTORS
330
C
102
}
100
AcDbDictionary
281
1
  3
Model
350
2E2
  3
Layout1
350
2E3
  0
ACDBPLACEHOLDER
  5
F
102
{ACAD_REACTORS
330
E
102
}
  0
MLINESTYLE
  5
18
102
{ACAD_REACTORS
330
17
102
}
100
AcDbMlineStyle
  2
STANDARD
 70
0
  3

 62
256
 51
90.0
 52
90.0
 71
2
 49
0.5
 62
256
  6
BYLAYER
 49
-0.5
 62
256
  6
BYLAYER
  0
LAYOUT
  5
2E2
102
{ACAD_REACTORS
330
1A
102
}
100
AcDbPlotSettings
  1

  2
none_device
  4

  6

 40
0.0
 41
0.0
 42
0.0
 43
0.0
 44
210.0
 45
297.0
 46
0.0
 47
0.0
 48
0.0
 49
0.0
140
0.0
141
0.0
142
1.0
143
1.0
 70
1024
 72
1
 73
0
 74
0
  7

 75
0
147
1.0
148
0.0
149
0.0
100
AcDbLayout
  1
Model
 70
0
 71
0
 10
0.0
 20
0.0
 11
210.0
 21
297.0
 12
0.0
 22
0.0
 32
0.0
 14
0.0
 24
0.0
 34
0.0
 15
0.0
 25
0.0
 35
0.0
146
0.0
 13
0.0
 23
0.0
 33
0.0
 16
1.0
 26
0.0
 36
0.0
 17
0.0
 27
1.0
 37
0.0
 76
0
330
210
345
0
346
0
  0
LAYOUT
  5
2E3
102
{ACAD_REACTORS
330
1A
102
}
100
AcDbPlotSettings
  1

  2
none_device
  4

  6

 40
0.0
 41
0.0
 42
0.0
 43
0.0
 44
210.0
 45
297.0
 46
0.0
 47
0.0
 48
0.0
 49
0.0
140
0.0
141
0.0
142
1.0
143
1.0
 70
0
 72
1
 73
0
 74
0
  7

 75
0
147
1.0
148
0.0
149
0.0
100
AcDbLayout
  1
Layout1
 70
0
 71
1
 10
0.0
 20
0.0
 11
210.0
 21
297.0
 12
0.0
 22
0.0
 32
0.0
 14
0.0
 24
0.0
 34
0.0
 15
0.0
 25
0.0
 35
0.0
146
0.0
 13
0.0
 23
0.0
 33
0.0
 16
1.0
 26
0.0
 36
0.0
 17
0.0
 27
1.0
 37
0.0
 76
0
330
211
345
0
346
0
  0
ENDSEC
  0
EOF
