999
DXF file: C:\2D\Gen2D\CAD\GVAD0110_3D-CAD\drw0001_4.dxf
999
Pro/ENGINEER 2019471 by Parametric Technology Corporation
  0
SECTION
  2
HEADER
  9
$ACADVER
  1
AC1024
  9
$DWGCODEPAGE
  3
ANSI_1252
  9
$EXTMAX
 10
74.011383705
 20
104.6732426685
 30
0.0
  9
$EXTMIN
 10
0.0
 20
0.0
 30
0.0
  9
$LIMMIN
 10
0.0
 20
0.0
  9
$LIMMAX
 10
74.011383705
 20
104.6732426685
  9
$VIEWCTR
 10
37.0056918525
 20
52.3366213342
  9
$VIEWSIZE
 40
104.6732426685
  9
$CLAYER
  8
0
  9
$LTSCALE
 40
6.8231447073
  9
$CELTYPE
  6
BYLAYER
  9
$DIMSCALE
 40
1.0
  9
$DIMASZ
 40
0.8810879012
  9
$DIMEXO
 40
1.0
  9
$DIMDLI
 40
4.7141727068
  9
$DIMEXE
 40
1.0
  9
$DIMCEN
 40
1.1165145885
  9
$DIMLFAC
 40
1.0
  9
$DIMBLK
  1
_FILLED
  9
$DIMALT
 70
0
  9
$DIMALTF
 40
0.0393700787
  9
$DIMTXT
 40
1.2335230617
  9
$DIMTOL
 70
1
  9
$DIMLIM
 70
0
  9
$DIMTFAC
 40
1.0
  9
$DIMTP
 40
0.01
  9
$DIMTM
 40
0.01
  9
$DIMGAP
 40
0.625
  9
$DIMDSEP
 70
46
  9
$AUNITS
 70
0
  9
$PDMODE
 70
3
  9
$PDSIZE
 40
0.3125
  9
$HANDSEED
  5
2A6
  9
$TILEMODE
 70
1
  9
$MEASUREMENT
 70
1
  9
$INSUNITS
 70
4
  0
ENDSEC
  0
SECTION
  2
CLASSES
  0
CLASS
  1
ACDBDICTIONARYWDFLT
  2
AcDbDictionaryWithDefault
  3
AutoCAD 2000
 90
0
 91
1
280
0
281
0
  0
CLASS
  1
ACDBPLACEHOLDER
  2
AcDbPlaceHolder
  3
AutoCAD 2000
 90
0
 91
1
280
0
281
0
  0
CLASS
  1
LAYOUT
  2
AcDbLayout
  3
AutoCAD 2000
 90
0
 91
0
280
0
281
0
  0
ENDSEC
  0
SECTION
  2
TABLES
  0
TABLE
  2
VPORT
  5
8
100
AcDbSymbolTable
 70
2
  0
VPORT
  5
1F4
100
AcDbSymbolTableRecord
100
AcDbViewportTableRecord
  2
*ACTIVE
 70
0
 10
0.0
 20
0.0
 11
1.0
 21
1.0
 12
37.0056918525
 22
52.3366213342
 13
0.0
 23
0.0
 14
1.0
 24
1.0
 15
0.0
 25
0.0
 16
0.0
 26
0.0
 36
1.0
 17
0.0
 27
0.0
 37
0.0
 40
104.6732426685
 41
0.7070707071
 42
50.0
 43
0.0
 44
0.0
 50
0.0
 51
0.0
 71
0
 72
100
 73
1
 74
1
 75
0
 76
0
 77
0
 78
0
  0
ENDTAB
  0
TABLE
  2
LTYPE
  5
5
100
AcDbSymbolTable
 70
6
  0
LTYPE
  5
14
100
AcDbSymbolTableRecord
100
AcDbLinetypeTableRecord
  2
BYBLOCK
 70
0
  3

 72
65
 73
0
 40
0.0
  0
LTYPE
  5
15
100
AcDbSymbolTableRecord
100
AcDbLinetypeTableRecord
  2
BYLAYER
 70
0
  3

 72
65
 73
0
 40
0.0
  0
LTYPE
  5
16
100
AcDbSymbolTableRecord
100
AcDbLinetypeTableRecord
  2
CONTINUOUS
 70
64
  3
Solid line
 72
65
 73
0
 40
0.0
  0
LTYPE
  5
1F5
100
AcDbSymbolTableRecord
100
AcDbLinetypeTableRecord
  2
CENTER
 70
64
  3
____ _ ____ _ ____ _ ____ _ ____ _ ____ _ ____
 72
65
 73
4
 40
0.6
 49
0.375
 74
0
 49
-0.075
 74
0
 49
0.075
 74
0
 49
-0.075
 74
0
  0
LTYPE
  5
1F6
100
AcDbSymbolTableRecord
100
AcDbLinetypeTableRecord
  2
HIDDEN
 70
64
  3
- - - - - - - - - - - - - - - - - - - -
 72
65
 73
2
 40
0.2
 49
0.1
 74
0
 49
-0.1
 74
0
  0
LTYPE
  5
1F7
100
AcDbSymbolTableRecord
100
AcDbLinetypeTableRecord
  2
PHANTOM
 70
64
  3
_____ _ _ _____ _ _ _____ _ _ _____
 72
65
 73
6
 40
0.8
 49
0.45
 74
0
 49
-0.05
 74
0
 49
0.1
 74
0
 49
-0.05
 74
0
 49
0.1
 74
0
 49
-0.05
 74
0
  0
LTYPE
  5
1F8
100
AcDbSymbolTableRecord
100
AcDbLinetypeTableRecord
  2
DOT
 70
64
  3
. . . . . . . . . . . . . . . . . . . .
 72
65
 73
2
 40
0.2
 49
0.1
 74
0
 49
-0.1
 74
0
  0
LTYPE
  5
1F9
100
AcDbSymbolTableRecord
100
AcDbLinetypeTableRecord
  2
DASHED
 70
64
  3
- - - - - - - - - - - - - - - - - - - -
 72
65
 73
2
 40
0.2
 49
0.1
 74
0
 49
-0.1
 74
0
  0
ENDTAB
  0
TABLE
  2
LAYER
  5
2
100
AcDbSymbolTable
 70
36
  0
LAYER
  5
10
100
AcDbSymbolTableRecord
100
AcDbLayerTableRecord
  2
0
 70
0
 62
7
  6
CONTINUOUS
370
-3
390
F
  0
LAYER
  5
1FA
100
AcDbSymbolTableRecord
100
AcDbLayerTableRecord
  2
DEFAULT_1
 70
0
 62
7
  6
CENTER
370
-3
390
F
  0
LAYER
  5
1FB
100
AcDbSymbolTableRecord
100
AcDbLayerTableRecord
  2
DEFAULT_2
 70
0
 62
8
  6
HIDDEN
370
-3
390
F
  0
LAYER
  5
1FC
100
AcDbSymbolTableRecord
100
AcDbLayerTableRecord
  2
DEFAULT_3
 70
0
 62
7
  6
PHANTOM
370
-3
390
F
  0
LAYER
  5
1FD
100
AcDbSymbolTableRecord
100
AcDbLayerTableRecord
  2
00_COMPONENTS
 70
0
 62
7
  6
CONTINUOUS
370
-3
390
F
  0
LAYER
  5
1FE
100
AcDbSymbolTableRecord
100
AcDbLayerTableRecord
  2
00_COMPONENTS_1
 70
0
 62
7
  6
CONTINUOUS
370
-3
390
F
  0
LAYER
  5
1FF
100
AcDbSymbolTableRecord
100
AcDbLayerTableRecord
  2
01_1_DEFAULT_DATUMS
 70
0
 62
7
  6
CONTINUOUS
370
-3
390
F
  0
LAYER
  5
200
100
AcDbSymbolTableRecord
100
AcDbLayerTableRecord
  2
01_PLANES
 70
0
 62
7
  6
CONTINUOUS
370
-3
390
F
  0
LAYER
  5
201
100
AcDbSymbolTableRecord
100
AcDbLayerTableRecord
  2
02_COORD_SYS
 70
0
 62
7
  6
CONTINUOUS
370
-3
390
F
  0
LAYER
  5
202
100
AcDbSymbolTableRecord
100
AcDbLayerTableRecord
  2
03_AXES
 70
0
 62
7
  6
CONTINUOUS
370
-3
390
F
  0
LAYER
  5
203
100
AcDbSymbolTableRecord
100
AcDbLayerTableRecord
  2
04_POINTS
 70
0
 62
7
  6
CONTINUOUS
370
-3
390
F
  0
LAYER
  5
204
100
AcDbSymbolTableRecord
100
AcDbLayerTableRecord
  2
05_CURVES
 70
0
 62
7
  6
CONTINUOUS
370
-3
390
F
  0
LAYER
  5
205
100
AcDbSymbolTableRecord
100
AcDbLayerTableRecord
  2
06_SURFS
 70
0
 62
7
  6
CONTINUOUS
370
-3
390
F
  0
LAYER
  5
206
100
AcDbSymbolTableRecord
100
AcDbLayerTableRecord
  2
07_COSMETICS
 70
0
 62
7
  6
CONTINUOUS
370
-3
390
F
  0
LAYER
  5
207
100
AcDbSymbolTableRecord
100
AcDbLayerTableRecord
  2
10_NOTES
 70
0
 62
7
  6
CONTINUOUS
370
-3
390
F
  0
LAYER
  5
208
100
AcDbSymbolTableRecord
100
AcDbLayerTableRecord
  2
11_NOTES_PUB
 70
0
 62
7
  6
CONTINUOUS
370
-3
390
F
  0
LAYER
  5
209
100
AcDbSymbolTableRecord
100
AcDbLayerTableRecord
  2
13_REF_GTOL
 70
0
 62
7
  6
CONTINUOUS
370
-3
390
F
  0
LAYER
  5
20A
100
AcDbSymbolTableRecord
100
AcDbLayerTableRecord
  2
16_MISC
 70
0
 62
7
  6
CONTINUOUS
370
-3
390
F
  0
LAYER
  5
20B
100
AcDbSymbolTableRecord
100
AcDbLayerTableRecord
  2
17_NO_PRINT
 70
0
 62
7
  6
CONTINUOUS
370
-3
390
F
  0
LAYER
  5
20C
100
AcDbSymbolTableRecord
100
AcDbLayerTableRecord
  2
18_DATUM_CAMS_JOINTS
 70
0
 62
7
  6
CONTINUOUS
370
-3
390
F
  0
LAYER
  5
20D
100
AcDbSymbolTableRecord
100
AcDbLayerTableRecord
  2
19_DATUM_FUNCTIONAL
 70
0
 62
7
  6
CONTINUOUS
370
-3
390
F
  0
LAYER
  5
20E
100
AcDbSymbolTableRecord
100
AcDbLayerTableRecord
  2
20_DATUM_KINEMATIC_SCHEME
 70
0
 62
7
  6
CONTINUOUS
370
-3
390
F
  0
ENDTAB
  0
TABLE
  2
STYLE
  5
3
100
AcDbSymbolTable
 70
1
  0
STYLE
  5
11
100
AcDbSymbolTableRecord
100
AcDbTextStyleTableRecord
  2
STANDARD
 70
0
 40
0.0
 41
0.8
 50
0.0
 71
0
 42
0.2
  3
txt
  4

  0
STYLE
  5
20F
100
AcDbSymbolTableRecord
100
AcDbTextStyleTableRecord
  2
TEXTSTYLE_1
 70
0
 40
0.0
 41
0.8
 50
0.0
 71
0
 42
0.2
  3
gdt
  4

  0
ENDTAB
  0
TABLE
  2
VIEW
  5
6
100
AcDbSymbolTable
 70
0
  0
ENDTAB
  0
TABLE
  2
UCS
  5
7
100
AcDbSymbolTable
 70
0
  0
ENDTAB
  0
TABLE
  2
APPID
  5
9
100
AcDbSymbolTable
 70
1
  0
APPID
  5
210
100
AcDbSymbolTableRecord
100
AcDbRegAppTableRecord
  2
ACAD
 70
0
  0
ENDTAB
  0
TABLE
  2
BLOCK_RECORD
  5
1
100
AcDbSymbolTable
 70
0
  0
BLOCK_RECORD
  5
211
100
AcDbSymbolTableRecord
100
AcDbBlockTableRecord
  2
*Model_Space
  0
BLOCK_RECORD
  5
212
100
AcDbSymbolTableRecord
100
AcDbBlockTableRecord
  2
*Paper_Space
  0
BLOCK_RECORD
  5
213
100
AcDbSymbolTableRecord
100
AcDbBlockTableRecord
  2
_FILLED
  0
ENDTAB
  0
TABLE
  2
DIMSTYLE
  5
A
100
AcDbSymbolTable
 70
1
100
AcDbDimStyleTable
 71
0
  0
DIMSTYLE
105
214
100
AcDbSymbolTableRecord
100
AcDbDimStyleTableRecord
  2
STANDARD
 70
0
  3

  4

 40
1.0
 41
0.8810879012
 42
1.0
 43
0.38
 44
1.0
 45
0.0
 46
0.0
 47
0.01
 48
0.01
140
1.2335230617
141
0.09
142
0.0
143
25.4
144
1.0
145
0.0
146
1.0
147
0.625
 71
1
 72
0
 73
0
 74
0
 75
0
 76
0
 77
1
 78
8
 79
2
170
0
171
1
172
0
173
0
174
0
175
0
176
0
177
0
178
0
270
2
179
2
271
2
272
2
273
2
274
2
275
0
280
0
281
0
282
0
283
1
284
8
285
0
286
0
287
3
288
0
340
11
278
46
341
213
342
213
343
213
344
213
  0
ENDTAB
  0
ENDSEC
  0
SECTION
  2
BLOCKS
  0
BLOCK
  5
20
100
AcDbEntity
  8
0
100
AcDbBlockBegin
  2
*Model_Space
 70
0
 10
0.0
 20
0.0
 30
0.0
  3
*Model_Space
  1

  0
ENDBLK
  5
21
100
AcDbEntity
  8
0
100
AcDbBlockEnd
  0
BLOCK
  5
1C
100
AcDbEntity
  8
0
100
AcDbBlockBegin
  2
*Paper_Space
 70
0
 10
0.0
 20
0.0
 30
0.0
  3
*Paper_Space
  1

  0
ENDBLK
  5
1D
100
AcDbEntity
  8
0
100
AcDbBlockEnd
  0
BLOCK
  5
215
100
AcDbEntity
  8
0
100
AcDbBlockBegin
  2
_FILLED
 70
64
 10
0.0
 20
0.0
  3
_FILLED
  1

  0
SOLID
  5
216
100
AcDbEntity
  8
0
  6
BYBLOCK
 62
0
100
AcDbTrace
 10
0.0
 20
0.0
 11
-1.0
 21
0.25
 12
-1.0
 22
-0.25
 13
-1.0
 23
-0.25
  0
ENDBLK
  5
217
100
AcDbEntity
  8
0
  6
BYBLOCK
 62
0
100
AcDbBlockEnd
  0
ENDSEC
  0
SECTION
  2
ENTITIES
  0
LINE
  5
218
100
AcDbEntity
  8
00_COMPONENTS_1
100
AcDbLine
 62
7
  6
CONTINUOUS
 10
36.7498469776
 20
7.494256944
 11
30.1498469776
 21
7.494256944
  0
LINE
  5
219
100
AcDbEntity
  8
00_COMPONENTS_1
100
AcDbLine
 62
7
  6
CONTINUOUS
 10
30.1498469776
 20
7.5239149262
 11
36.7498469776
 21
7.5239149262
  0
LINE
  5
21A
100
AcDbEntity
  8
00_COMPONENTS_1
100
AcDbLine
 62
7
  6
CONTINUOUS
 10
36.7498469776
 20
8.4312497787
 11
30.1498469776
 21
8.4312497787
  0
LINE
  5
21B
100
AcDbEntity
  8
00_COMPONENTS_1
100
AcDbLine
 62
7
  6
CONTINUOUS
 10
30.1498469776
 20
9.4876846398
 11
41.0498469776
 21
9.4876846398
  0
LINE
  5
21C
100
AcDbEntity
  8
00_COMPONENTS_1
100
AcDbLine
 62
7
  6
CONTINUOUS
 10
38.1486636148
 20
9.5476846398
 11
28.7498469776
 21
9.5476846398
  0
LINE
  5
21D
100
AcDbEntity
  8
00_COMPONENTS_1
100
AcDbLine
 62
7
  6
CONTINUOUS
 10
38.1486636148
 20
10.8590510033
 11
39.4498469776
 21
10.8590510033
  0
LINE
  5
21E
100
AcDbEntity
  8
00_COMPONENTS_1
100
AcDbLine
 62
7
  6
CONTINUOUS
 10
39.5839914629
 20
12.4328375522
 11
41.0498469776
 21
12.4328375522
  0
LINE
  5
21F
100
AcDbEntity
  8
00_COMPONENTS_1
100
AcDbLine
 62
7
  6
CONTINUOUS
 10
40.5699567188
 20
93.723331569
 11
40.0031701424
 21
93.517038126
  0
LINE
  5
220
100
AcDbEntity
  8
00_COMPONENTS_1
100
AcDbLine
 62
7
  6
CONTINUOUS
 10
33.909515425
 20
17.2689075365
 11
35.7486286764
 21
17.2926752687
  0
LINE
  5
221
100
AcDbEntity
  8
00_COMPONENTS_1
100
AcDbLine
 62
7
  6
CONTINUOUS
 10
32.809588402
 20
18.626714366
 11
30.9509976529
 21
18.6026949168
  0
LINE
  5
222
100
AcDbEntity
  8
00_COMPONENTS_1
100
AcDbLine
 62
7
  6
CONTINUOUS
 10
38.1486636148
 20
18.4476846398
 11
37.2498469776
 21
18.4476846398
  0
LINE
  5
223
100
AcDbEntity
  8
00_COMPONENTS_1
100
AcDbLine
 62
7
  6
CONTINUOUS
 10
29.4498469776
 20
18.4476846398
 11
28.7498469776
 21
18.4476846398
  0
LINE
  5
224
100
AcDbEntity
  8
00_COMPONENTS_1
100
AcDbLine
 62
7
  6
CONTINUOUS
 10
30.9276332528
 20
17.3852045464
 11
32.809588402
 21
17.361984988
  0
LINE
  5
225
100
AcDbEntity
  8
00_COMPONENTS_1
100
AcDbLine
 62
7
  6
CONTINUOUS
 10
35.7719930299
 20
18.5101638687
 11
33.909515425
 21
18.5331431132
  0
LINE
  5
226
100
AcDbEntity
  8
00_COMPONENTS_1
100
AcDbLine
 62
7
  6
CONTINUOUS
 10
35.4283079467
 20
20.2476846398
 11
35.3095938065
 21
20.2476846398
  0
LINE
  5
227
100
AcDbEntity
  8
00_COMPONENTS_1
100
AcDbLine
 62
7
  6
CONTINUOUS
 10
31.39750374
 20
20.2476846398
 11
31.2713860085
 21
20.2476846398
  0
LINE
  5
228
100
AcDbEntity
  8
00_COMPONENTS_1
100
AcDbLine
 62
7
  6
CONTINUOUS
 10
38.1486636148
 20
21.6376846398
 11
28.7498469776
 21
21.6376846398
  0
LINE
  5
229
100
AcDbEntity
  8
00_COMPONENTS_1
100
AcDbLine
 62
7
  6
CONTINUOUS
 10
33.892665391
 20
26.1687209468
 11
35.7484640007
 21
26.1928027576
  0
LINE
  5
22A
100
AcDbEntity
  8
00_COMPONENTS_1
100
AcDbLine
 62
7
  6
CONTINUOUS
 10
32.7926292887
 20
27.5264689623
 11
30.9506037962
 21
27.5025658787
  0
LINE
  5
22B
100
AcDbEntity
  8
00_COMPONENTS_1
100
AcDbLine
 62
7
  6
CONTINUOUS
 10
30.9273037531
 20
26.2850757719
 11
32.7926968834
 21
26.2621610718
  0
LINE
  5
22C
100
AcDbEntity
  8
00_COMPONENTS_1
100
AcDbLine
 62
7
  6
CONTINUOUS
 10
35.7717640781
 20
27.4102941162
 11
33.8925977776
 21
27.4333780075
  0
LINE
  5
22D
100
AcDbEntity
  8
00_COMPONENTS_1
100
AcDbLine
 62
7
  6
CONTINUOUS
 10
38.1486636148
 20
30.5376847108
 11
28.7498469776
 21
30.5376847108
  0
LINE
  5
22E
100
AcDbEntity
  8
00_COMPONENTS_1
100
AcDbLine
 62
7
  6
CONTINUOUS
 10
38.1486636148
 20
30.6319090842
 11
28.7498469776
 21
30.6319090842
  0
LINE
  5
22F
100
AcDbEntity
  8
00_COMPONENTS_1
100
AcDbLine
 62
7
  6
CONTINUOUS
 10
38.1486636148
 20
34.2747953756
 11
28.7498469776
 21
34.2747953756
  0
LINE
  5
230
100
AcDbEntity
  8
00_COMPONENTS_1
100
AcDbLine
 62
7
  6
CONTINUOUS
 10
38.1486636148
 20
34.8876846398
 11
28.7498469776
 21
34.8876846398
  0
LINE
  5
231
100
AcDbEntity
  8
00_COMPONENTS_1
100
AcDbLine
 62
7
  6
CONTINUOUS
 10
37.2498469776
 20
34.9876846398
 11
29.6498469776
 21
34.9876846398
  0
LINE
  5
232
100
AcDbEntity
  8
00_COMPONENTS_1
100
AcDbLine
 62
7
  6
CONTINUOUS
 10
37.2498469776
 20
36.755609853
 11
29.6498469776
 21
36.755609853
  0
LINE
  5
233
100
AcDbEntity
  8
00_COMPONENTS_1
100
AcDbLine
 62
7
  6
CONTINUOUS
 10
29.6498469776
 20
35.9342989171
 11
37.2498469776
 21
35.9155145814
  0
LINE
  5
234
100
AcDbEntity
  8
00_COMPONENTS_1
100
AcDbLine
 62
7
  6
CONTINUOUS
 10
37.2498469776
 20
38.4598546981
 11
29.6498469776
 21
38.4410703624
  0
LINE
  5
235
100
AcDbEntity
  8
00_COMPONENTS_1
100
AcDbLine
 62
7
  6
CONTINUOUS
 10
37.2498469776
 20
37.6197594265
 11
29.6498469776
 21
37.6197594265
  0
LINE
  5
236
100
AcDbEntity
  8
00_COMPONENTS_1
100
AcDbLine
 62
7
  6
CONTINUOUS
 10
29.6498469776
 20
39.3876846398
 11
37.2498469776
 21
39.3876846398
  0
LINE
  5
237
100
AcDbEntity
  8
00_COMPONENTS_1
100
AcDbLine
 62
7
  6
CONTINUOUS
 10
38.1486636148
 20
39.4876846398
 11
28.7498469776
 21
39.4876846398
  0
LINE
  5
238
100
AcDbEntity
  8
00_COMPONENTS_1
100
AcDbLine
 62
7
  6
CONTINUOUS
 10
38.1486636148
 20
40.1022349791
 11
28.7498469776
 21
40.1022349791
  0
LINE
  5
239
100
AcDbEntity
  8
00_COMPONENTS_1
100
AcDbLine
 62
7
  6
CONTINUOUS
 10
28.7498469776
 20
9.5476846398
 11
28.7498469776
 21
96.5376846398
  0
LINE
  5
23A
100
AcDbEntity
  8
00_COMPONENTS_1
100
AcDbLine
 62
7
  6
CONTINUOUS
 10
29.4498469776
 20
18.4476846398
 11
29.4498469776
 21
21.6408295745
  0
LINE
  5
23B
100
AcDbEntity
  8
00_COMPONENTS_1
100
AcDbLine
 62
7
  6
CONTINUOUS
 10
29.4498469776
 20
84.4376846398
 11
29.4498469776
 21
87.6476846398
  0
LINE
  5
23C
100
AcDbEntity
  8
00_COMPONENTS_1
100
AcDbLine
 62
7
  6
CONTINUOUS
 10
29.6498469776
 20
39.3876846398
 11
29.6498469776
 21
37.6197594265
  0
LINE
  5
23D
100
AcDbEntity
  8
00_COMPONENTS_1
100
AcDbLine
 62
7
  6
CONTINUOUS
 10
29.6498469776
 20
36.755609853
 11
29.6498469776
 21
34.9876846398
  0
LINE
  5
23E
100
AcDbEntity
  8
00_COMPONENTS_1
100
AcDbLine
 62
7
  6
CONTINUOUS
 10
30.1498469776
 20
7.4943027966
 11
30.1498469776
 21
9.5476846398
  0
LINE
  5
23F
100
AcDbEntity
  8
00_COMPONENTS_1
100
AcDbLine
 62
7
  6
CONTINUOUS
 10
31.4498469776
 20
9.4876846398
 11
31.4498469776
 21
9.5476846398
  0
LINE
  5
240
100
AcDbEntity
  8
00_COMPONENTS_1
100
AcDbLine
 62
7
  6
CONTINUOUS
 10
32.7925064676
 20
29.8237465779
 11
32.7926292887
 21
27.5264689623
  0
LINE
  5
241
100
AcDbEntity
  8
00_COMPONENTS_1
100
AcDbLine
 62
7
  6
CONTINUOUS
 10
32.7926968834
 20
26.2621610718
 11
32.7928246938
 21
23.8715647702
  0
LINE
  5
242
100
AcDbEntity
  8
00_COMPONENTS_1
100
AcDbLine
 62
7
  6
CONTINUOUS
 10
32.809588402
 20
20.9200871447
 11
32.809588402
 21
18.626714366
  0
LINE
  5
243
100
AcDbEntity
  8
00_COMPONENTS_1
100
AcDbLine
 62
7
  6
CONTINUOUS
 10
32.809588402
 20
17.361984988
 11
32.809588402
 21
14.9752821349
  0
LINE
  5
244
100
AcDbEntity
  8
00_COMPONENTS_1
100
AcDbLine
 62
7
  6
CONTINUOUS
 10
32.809588402
 20
85.1652821349
 11
32.809588402
 21
87.4586549135
  0
LINE
  5
245
100
AcDbEntity
  8
00_COMPONENTS_1
100
AcDbLine
 62
7
  6
CONTINUOUS
 10
32.809588402
 20
88.7233842915
 11
32.809588402
 21
91.1100871447
  0
LINE
  5
246
100
AcDbEntity
  8
00_COMPONENTS_1
100
AcDbLine
 62
7
  6
CONTINUOUS
 10
33.8927880397
 20
23.8746693792
 11
33.892665391
 21
26.1687209468
  0
LINE
  5
247
100
AcDbEntity
  8
00_COMPONENTS_1
100
AcDbLine
 62
7
  6
CONTINUOUS
 10
33.8925977776
 20
27.4333780075
 11
33.8924701391
 21
29.8207595932
  0
LINE
  5
248
100
AcDbEntity
  8
00_COMPONENTS_1
100
AcDbLine
 62
7
  6
CONTINUOUS
 10
33.909515425
 20
91.1143945689
 11
33.909515425
 21
88.8164617431
  0
LINE
  5
249
100
AcDbEntity
  8
00_COMPONENTS_1
100
AcDbLine
 62
7
  6
CONTINUOUS
 10
33.909515425
 20
87.5522261663
 11
33.909515425
 21
85.1609747106
  0
LINE
  5
24A
100
AcDbEntity
  8
00_COMPONENTS_1
100
AcDbLine
 62
7
  6
CONTINUOUS
 10
33.909515425
 20
14.9709747106
 11
33.909515425
 21
17.2689075365
  0
LINE
  5
24B
100
AcDbEntity
  8
00_COMPONENTS_1
100
AcDbLine
 62
7
  6
CONTINUOUS
 10
33.909515425
 20
18.5331431132
 11
33.909515425
 21
20.9243945689
  0
LINE
  5
24C
100
AcDbEntity
  8
00_COMPONENTS_1
100
AcDbLine
 62
7
  6
CONTINUOUS
 10
32.7925064676
 20
76.2616227017
 11
32.7926292887
 21
78.5589003172
  0
LINE
  5
24D
100
AcDbEntity
  8
00_COMPONENTS_1
100
AcDbLine
 62
7
  6
CONTINUOUS
 10
32.7926968834
 20
79.8232082077
 11
32.7928246938
 21
82.2138045093
  0
LINE
  5
24E
100
AcDbEntity
  8
00_COMPONENTS_1
100
AcDbLine
 62
7
  6
CONTINUOUS
 10
33.8927880397
 20
82.2106999004
 11
33.892665391
 21
79.9166483328
  0
LINE
  5
24F
100
AcDbEntity
  8
00_COMPONENTS_1
100
AcDbLine
 62
7
  6
CONTINUOUS
 10
33.8925977776
 20
78.6519912721
 11
33.8924701391
 21
76.2646096863
  0
LINE
  5
250
100
AcDbEntity
  8
00_COMPONENTS_1
100
AcDbLine
 62
7
  6
CONTINUOUS
 10
44.9486636148
 20
49.1580568846
 11
38.1486636148
 21
49.0393624431
  0
LINE
  5
251
100
AcDbEntity
  8
00_COMPONENTS_1
100
AcDbLine
 62
7
  6
CONTINUOUS
 10
36.7498469776
 20
7.4943024154
 11
36.7498469776
 21
9.4876846398
  0
LINE
  5
252
100
AcDbEntity
  8
00_COMPONENTS_1
100
AcDbLine
 62
7
  6
CONTINUOUS
 10
37.2498469776
 20
87.6476846398
 11
37.2498469776
 21
84.4376846398
  0
LINE
  5
253
100
AcDbEntity
  8
00_COMPONENTS_1
100
AcDbLine
 62
7
  6
CONTINUOUS
 10
37.2498469776
 20
21.6408295745
 11
37.2498469776
 21
18.4476846398
  0
LINE
  5
254
100
AcDbEntity
  8
00_COMPONENTS_1
100
AcDbLine
 62
7
  6
CONTINUOUS
 10
37.2498469776
 20
34.9876846398
 11
37.2498469776
 21
36.755609853
  0
LINE
  5
255
100
AcDbEntity
  8
00_COMPONENTS_1
100
AcDbLine
 62
7
  6
CONTINUOUS
 10
37.2498469776
 20
37.6197594265
 11
37.2498469776
 21
39.3876846398
  0
LINE
  5
256
100
AcDbEntity
  8
00_COMPONENTS_1
100
AcDbLine
 62
7
  6
CONTINUOUS
 10
38.1486636148
 20
9.5476846398
 11
38.1486636148
 21
96.5376846398
  0
LINE
  5
257
100
AcDbEntity
  8
00_COMPONENTS_1
100
AcDbLine
 62
7
  6
CONTINUOUS
 10
38.1486636148
 20
52.0376846398
 11
38.6481133673
 21
52.0376846398
  0
LINE
  5
258
100
AcDbEntity
  8
00_COMPONENTS_1
100
AcDbLine
 62
7
  6
CONTINUOUS
 10
39.2486636148
 20
52.1376846398
 11
38.6481133673
 21
52.1376846398
  0
LINE
  5
259
100
AcDbEntity
  8
00_COMPONENTS_1
100
AcDbLine
 62
7
  6
CONTINUOUS
 10
44.9486636148
 20
51.297312395
 11
38.1486636148
 21
51.4160068365
  0
LINE
  5
25A
100
AcDbEntity
  8
00_COMPONENTS_1
100
AcDbLine
 62
7
  6
CONTINUOUS
 10
38.6481133673
 20
53.0376846398
 11
38.6481133673
 21
52.0376846398
  0
LINE
  5
25B
100
AcDbEntity
  8
00_COMPONENTS_1
100
AcDbLine
 62
7
  6
CONTINUOUS
 10
39.2486636148
 20
51.3968062651
 11
39.2486636148
 21
53.0376846398
  0
LINE
  5
25C
100
AcDbEntity
  8
00_COMPONENTS_1
100
AcDbLine
 62
7
  6
CONTINUOUS
 10
39.9986636148
 20
55.4376846398
 11
39.9986636148
 21
55.5684856398
  0
LINE
  5
25D
100
AcDbEntity
  8
00_COMPONENTS_1
100
AcDbLine
 62
7
  6
CONTINUOUS
 10
40.6986636148
 20
55.4376846398
 11
40.6986636148
 21
55.5684856398
  0
LINE
  5
25E
100
AcDbEntity
  8
00_COMPONENTS_1
100
AcDbLine
 62
7
  6
CONTINUOUS
 10
41.0498469776
 20
12.4328375522
 11
41.0498469776
 21
9.4876846398
  0
LINE
  5
25F
100
AcDbEntity
  8
00_COMPONENTS_1
100
AcDbLine
 62
7
  6
CONTINUOUS
 10
44.1036636148
 20
53.0376846398
 11
38.1486636148
 21
53.0376846398
  0
LINE
  5
260
100
AcDbEntity
  8
00_COMPONENTS_1
100
AcDbLine
 62
7
  6
CONTINUOUS
 10
44.1036636148
 20
55.4376846398
 11
40.6986636148
 21
55.4376846398
  0
LINE
  5
261
100
AcDbEntity
  8
00_COMPONENTS_1
100
AcDbLine
 62
7
  6
CONTINUOUS
 10
39.9986636148
 20
55.4376846398
 11
38.1486636148
 21
55.4376846398
  0
LINE
  5
262
100
AcDbEntity
  8
00_COMPONENTS_1
100
AcDbLine
 62
7
  6
CONTINUOUS
 10
44.1036636148
 20
53.0376846398
 11
44.1036636148
 21
55.4376846398
  0
LINE
  5
263
100
AcDbEntity
  8
00_COMPONENTS_1
100
AcDbLine
 62
7
  6
CONTINUOUS
 10
39.4498469776
 20
10.8590510033
 11
39.5839914629
 21
12.4328375522
  0
LINE
  5
264
100
AcDbEntity
  8
00_COMPONENTS_1
100
AcDbLine
 62
7
  6
CONTINUOUS
 10
38.1486636148
 20
55.5684856398
 11
47.1836067525
 21
55.5684856398
  0
LINE
  5
265
100
AcDbEntity
  8
00_COMPONENTS_1
100
AcDbLine
 62
7
  6
CONTINUOUS
 10
47.1836017105
 20
56.9684856398
 11
38.7417361119
 21
56.9684856398
  0
LINE
  5
266
100
AcDbEntity
  8
00_COMPONENTS_1
100
AcDbLine
 62
7
  6
CONTINUOUS
 10
38.1486636148
 20
57.3109022008
 11
38.7417361119
 21
56.9684856398
  0
LINE
  5
267
100
AcDbEntity
  8
00_COMPONENTS_1
100
AcDbLine
 62
7
  6
CONTINUOUS
 10
44.9486636148
 20
51.297312395
 11
44.9486636148
 21
49.1580568846
  0
LINE
  5
268
100
AcDbEntity
  8
00_COMPONENTS_1
100
AcDbLine
 62
7
  6
CONTINUOUS
 10
45.4654232024
 20
55.5684856398
 11
45.4654232024
 21
56.9684856398
  0
LINE
  5
269
100
AcDbEntity
  8
00_COMPONENTS_1
100
AcDbLine
 62
7
  6
CONTINUOUS
 10
47.1836747244
 20
55.5684856398
 11
47.1836747244
 21
56.9684856398
  0
LINE
  5
26A
100
AcDbEntity
  8
00_COMPONENTS_1
100
AcDbLine
 62
7
  6
CONTINUOUS
 10
40.0031701424
 20
93.517038126
 11
39.6098470267
 21
94.5976854511
  0
LINE
  5
26B
100
AcDbEntity
  8
00_COMPONENTS_1
100
AcDbLine
 62
7
  6
CONTINUOUS
 10
38.1486636148
 20
75.4432817489
 11
28.7498469776
 21
75.4432817489
  0
LINE
  5
26C
100
AcDbEntity
  8
00_COMPONENTS_1
100
AcDbLine
 62
7
  6
CONTINUOUS
 10
38.1486636148
 20
75.5376846398
 11
28.7498469776
 21
75.5376846398
  0
LINE
  5
26D
100
AcDbEntity
  8
00_COMPONENTS_1
100
AcDbLine
 62
7
  6
CONTINUOUS
 10
33.8925977776
 20
78.6519912721
 11
35.7717640781
 21
78.6750751633
  0
LINE
  5
26E
100
AcDbEntity
  8
00_COMPONENTS_1
100
AcDbLine
 62
7
  6
CONTINUOUS
 10
30.9506037962
 20
78.5828034009
 11
32.7926292887
 21
78.5589003172
  0
LINE
  5
26F
100
AcDbEntity
  8
00_COMPONENTS_1
100
AcDbLine
 62
7
  6
CONTINUOUS
 10
32.7926968834
 20
79.8232082077
 11
30.9273037531
 21
79.8002935076
  0
LINE
  5
270
100
AcDbEntity
  8
00_COMPONENTS_1
100
AcDbLine
 62
7
  6
CONTINUOUS
 10
35.7484640007
 20
79.892566522
 11
33.892665391
 21
79.9166483328
  0
LINE
  5
271
100
AcDbEntity
  8
00_COMPONENTS_1
100
AcDbLine
 62
7
  6
CONTINUOUS
 10
38.1486636148
 20
84.4376846398
 11
28.7498469776
 21
84.4376846398
  0
LINE
  5
272
100
AcDbEntity
  8
00_COMPONENTS_1
100
AcDbLine
 62
7
  6
CONTINUOUS
 10
40.4041439018
 20
96.5195169928
 11
41.0859762549
 21
95.8376846398
  0
LINE
  5
273
100
AcDbEntity
  8
00_COMPONENTS_1
100
AcDbLine
 62
7
  6
CONTINUOUS
 10
33.909515425
 20
87.5522261663
 11
35.7719930299
 21
87.5752054108
  0
LINE
  5
274
100
AcDbEntity
  8
00_COMPONENTS_1
100
AcDbLine
 62
7
  6
CONTINUOUS
 10
32.809588402
 20
88.7233842915
 11
30.9276332528
 21
88.7001647331
  0
LINE
  5
275
100
AcDbEntity
  8
00_COMPONENTS_1
100
AcDbLine
 62
7
  6
CONTINUOUS
 10
31.2713860085
 20
85.8376846398
 11
31.39750374
 21
85.8376846398
  0
LINE
  5
276
100
AcDbEntity
  8
00_COMPONENTS_1
100
AcDbLine
 62
7
  6
CONTINUOUS
 10
35.3095938065
 20
85.8376846398
 11
35.4283079467
 21
85.8376846398
  0
LINE
  5
277
100
AcDbEntity
  8
00_COMPONENTS_1
100
AcDbLine
 62
7
  6
CONTINUOUS
 10
38.1486636148
 20
87.6476846398
 11
37.2498469776
 21
87.6476846398
  0
LINE
  5
278
100
AcDbEntity
  8
00_COMPONENTS_1
100
AcDbLine
 62
7
  6
CONTINUOUS
 10
29.4498469776
 20
87.6476846398
 11
28.7498469776
 21
87.6476846398
  0
LINE
  5
279
100
AcDbEntity
  8
00_COMPONENTS_1
100
AcDbLine
 62
7
  6
CONTINUOUS
 10
30.9509976529
 20
87.4826743627
 11
32.809588402
 21
87.4586549135
  0
LINE
  5
27A
100
AcDbEntity
  8
00_COMPONENTS_1
100
AcDbLine
 62
7
  6
CONTINUOUS
 10
35.7486286764
 20
88.7926940108
 11
33.909515425
 21
88.8164617431
  0
LINE
  5
27B
100
AcDbEntity
  8
00_COMPONENTS_1
100
AcDbLine
 62
7
  6
CONTINUOUS
 10
28.7498469776
 20
96.5376846398
 11
38.1486636148
 21
96.5376846398
  0
LINE
  5
27C
100
AcDbEntity
  8
00_COMPONENTS_1
100
AcDbLine
 62
7
  6
CONTINUOUS
 10
39.6098470267
 20
94.5976854511
 11
38.148663616
 21
94.6061014741
  0
LINE
  5
27D
100
AcDbEntity
  8
00_COMPONENTS_1
100
AcDbLine
 62
7
  6
CONTINUOUS
 10
38.1486636148
 20
96.535096205
 11
40.4041439018
 21
96.5195169928
  0
CIRCLE
  5
27E
100
AcDbEntity
  8
00_COMPONENTS_1
100
AcDbCircle
 62
7
  6
CONTINUOUS
 10
33.3498469776
 20
88.1376846398
 40
3.1
  0
CIRCLE
  5
27F
100
AcDbEntity
  8
00_COMPONENTS_1
100
AcDbCircle
 62
7
  6
CONTINUOUS
 10
33.3498469776
 20
17.9476846398
 40
3.1
  0
CIRCLE
  5
280
100
AcDbEntity
  8
00_COMPONENTS_1
100
AcDbCircle
 62
7
  6
CONTINUOUS
 10
33.3498469776
 20
79.2376846398
 40
3.0965641137
  0
CIRCLE
  5
281
100
AcDbEntity
  8
00_COMPONENTS_1
100
AcDbCircle
 62
7
  6
CONTINUOUS
 10
33.3498469776
 20
26.8476846398
 40
3.0965641137
  0
ARC
  5
282
100
AcDbEntity
  8
00_COMPONENTS_1
100
AcDbCircle
 62
7
  6
CONTINUOUS
 10
33.3538895171
 20
17.8945218812
 40
3.0792288161
100
AcDbArc
 50
79.7276690413
 51
83.0846258479
  0
ARC
  5
283
100
AcDbEntity
  8
00_COMPONENTS_1
100
AcDbCircle
 62
7
  6
CONTINUOUS
 10
33.3757339234
 20
17.9996395267
 40
3.0780966437
100
AcDbArc
 50
259.2779903781
 51
262.7831829964
  0
ARC
  5
284
100
AcDbEntity
  8
00_COMPONENTS_1
100
AcDbCircle
 62
7
  6
CONTINUOUS
 10
33.359248475
 20
17.9711964416
 40
3.0490974794
100
AcDbArc
 50
273.4923471796
 51
280.2726035676
  0
ARC
  5
285
100
AcDbEntity
  8
00_COMPONENTS_1
100
AcDbCircle
 62
7
  6
CONTINUOUS
 10
33.3675834124
 20
17.9417170055
 40
3.0313959593
100
AcDbArc
 50
90.0548258533
 51
100.7323566851
  0
ARC
  5
286
100
AcDbEntity
  8
00_COMPONENTS_1
100
AcDbCircle
 62
7
  6
CONTINUOUS
 10
33.3655876765
 20
17.9325135875
 40
3.0102283115
100
AcDbArc
 50
262.8142690158
 51
266.3985537285
  0
ARC
  5
287
100
AcDbEntity
  8
00_COMPONENTS_1
100
AcDbCircle
 62
7
  6
CONTINUOUS
 10
33.3635620783
 20
17.9736208139
 40
2.9994909725
100
AcDbArc
 50
83.1098072409
 51
89.978588874
  0
ARC
  5
288
100
AcDbEntity
  8
00_COMPONENTS_1
100
AcDbCircle
 62
7
  6
CONTINUOUS
 10
33.3653815812
 20
17.91205327
 40
2.989795649
100
AcDbArc
 50
266.3778656413
 51
269.9866120075
  0
ARC
  5
289
100
AcDbEntity
  8
00_COMPONENTS_1
100
AcDbCircle
 62
7
  6
CONTINUOUS
 10
33.3638583249
 20
17.9054341847
 40
2.9831765961
100
AcDbArc
 50
270.0158435987
 51
273.480912389
  0
ARC
  5
28A
100
AcDbEntity
  8
00_COMPONENTS_1
100
AcDbCircle
 62
7
  6
CONTINUOUS
 10
38.7498469776
 20
95.2876846398
 40
2.4
100
AcDbArc
 50
319.3215069287
 51
13.2480149059
  0
ELLIPSE
  5
28B
100
AcDbEntity
  8
00_COMPONENTS_1
100
AcDbEllipse
 62
7
  6
CONTINUOUS
 10
33.349813041
 20
88.1376846398
 30
0.0
 11
0.0
 21
2.4867885554
 31
0.0
 40
0.9999336573
 41
1.3426345307
 42
1.8373372061
  0
ELLIPSE
  5
28C
100
AcDbEntity
  8
00_COMPONENTS_1
100
AcDbEllipse
 62
7
  6
CONTINUOUS
 10
33.3711990276
 20
88.1376846398
 30
0.0
 11
-0.0
 21
3.025
 31
0.0
 40
0.9999336573
 41
-1.0782232062
 42
-0.1789207344
  0
ELLIPSE
  5
28D
100
AcDbEntity
  8
00_COMPONENTS_1
100
AcDbEllipse
 62
7
  6
CONTINUOUS
 10
33.3711990276
 20
88.1376846398
 30
0.0
 11
-0.0
 21
3.025
 31
0.0
 40
0.9999336573
 41
3.320513388
 42
5.1448626648
  0
ELLIPSE
  5
28E
100
AcDbEntity
  8
00_COMPONENTS_1
100
AcDbEllipse
 62
7
  6
CONTINUOUS
 10
33.3646829434
 20
88.1376846398
 30
0.0
 11
0.0
 21
3.025
 31
0.0
 40
0.9999336573
 41
2.9548402788
 42
3.320513388
  0
ELLIPSE
  5
28F
100
AcDbEntity
  8
00_COMPONENTS_1
100
AcDbEllipse
 62
7
  6
CONTINUOUS
 10
33.3646829434
 20
88.1376846398
 30
0.0
 11
0.0
 21
3.025
 31
0.0
 40
0.9999336573
 41
6.1042645728
 42
6.469937682
  0
ELLIPSE
  5
290
100
AcDbEntity
  8
00_COMPONENTS_1
100
AcDbEllipse
 62
7
  6
CONTINUOUS
 10
33.3307178545
 20
88.1376846398
 30
0.0
 11
-0.0
 21
3.025
 31
0.0
 40
0.9999336573
 41
2.4432254336
 42
2.7445481969
  0
ELLIPSE
  5
291
100
AcDbEntity
  8
00_COMPONENTS_1
100
AcDbEllipse
 62
7
  6
CONTINUOUS
 10
33.3516899725
 20
79.2376846398
 30
0.0
 11
-0.0
 21
3.025
 31
0.0
 40
0.9999668275
 41
4.0094893422
 42
5.8181375825
  0
ELLIPSE
  5
292
100
AcDbEntity
  8
00_COMPONENTS_1
100
AcDbEllipse
 62
7
  6
CONTINUOUS
 10
33.3495339863
 20
79.2376846398
 30
0.0
 11
-0.0
 21
2.4867885554
 31
0.0
 40
0.9999668275
 41
-1.7990115356
 42
-1.3043089678
  0
ELLIPSE
  5
293
100
AcDbEntity
  8
00_COMPONENTS_1
100
AcDbEllipse
 62
7
  6
CONTINUOUS
 10
33.3344113085
 20
79.2376846398
 30
0.0
 11
-0.0
 21
3.025
 31
0.0
 40
0.9999668275
 41
6.0975270967
 42
7.3642186194
  0
ELLIPSE
  5
294
100
AcDbEntity
  8
00_COMPONENTS_1
100
AcDbEllipse
 62
7
  6
CONTINUOUS
 10
33.3344113085
 20
79.2376846398
 30
0.0
 11
0.0
 21
3.025
 31
0.0
 40
0.9999668275
 41
7.4189903666
 42
8.2802056738
  0
ELLIPSE
  5
295
100
AcDbEntity
  8
00_COMPONENTS_1
100
AcDbEllipse
 62
7
  6
CONTINUOUS
 10
33.3344113085
 20
26.8476846398
 30
0.0
 11
0.0
 21
3.025
 31
0.0
 40
0.9999668275
 41
1.1445918067
 42
2.0058097019
  0
ELLIPSE
  5
296
100
AcDbEntity
  8
00_COMPONENTS_1
100
AcDbEllipse
 62
7
  6
CONTINUOUS
 10
33.3495339863
 20
26.8476846398
 30
0.0
 11
0.0
 21
2.4867885554
 31
0.0
 40
0.9999668275
 41
-1.8372836858
 42
-1.342581118
  0
ELLIPSE
  5
297
100
AcDbEntity
  8
00_COMPONENTS_1
100
AcDbEllipse
 62
7
  6
CONTINUOUS
 10
33.349813041
 20
17.9476846398
 30
0.0
 11
0.0
 21
2.4867885554
 31
0.0
 40
0.9999336573
 41
1.3042554474
 42
1.7989581228
  0
ELLIPSE
  5
298
100
AcDbEntity
  8
00_COMPONENTS_1
100
AcDbEllipse
 62
7
  6
CONTINUOUS
 10
33.3711990276
 20
17.9476846398
 30
0.0
 11
0.0
 21
3.025
 31
0.0
 40
0.9999336573
 41
-2.0032479561
 42
-0.1789207344
  0
ELLIPSE
  5
299
100
AcDbEntity
  8
00_COMPONENTS_1
100
AcDbEllipse
 62
7
  6
CONTINUOUS
 10
33.3711990276
 20
17.9476846398
 30
0.0
 11
0.0
 21
3.025
 31
0.0
 40
0.9999336573
 41
-2.9626719192
 42
-2.063351173
  0
ELLIPSE
  5
29A
100
AcDbEntity
  8
00_COMPONENTS_1
100
AcDbEllipse
 62
7
  6
CONTINUOUS
 10
33.3307178545
 20
17.9476846398
 30
0.0
 11
0.0
 21
3.025
 31
0.0
 40
0.9999336573
 41
6.6802297639
 42
6.9815525272
  0
ELLIPSE
  5
29B
100
AcDbEntity
  8
00_COMPONENTS_1
100
AcDbEllipse
 62
7
  6
CONTINUOUS
 10
33.3516899725
 20
26.8476846398
 30
0.0
 11
-0.0
 21
3.025
 31
0.0
 40
0.9999668275
 41
3.6066399387
 42
5.4153246298
  0
ELLIPSE
  5
29C
100
AcDbEntity
  8
00_COMPONENTS_1
100
AcDbEllipse
 62
7
  6
CONTINUOUS
 10
33.349813041
 20
88.1376846398
 30
0.0
 11
0.0
 21
2.4867885554
 31
0.0
 40
0.9999336573
 41
-1.798957766
 42
-1.3042558251
  0
ELLIPSE
  5
29D
100
AcDbEntity
  8
00_COMPONENTS_1
100
AcDbEllipse
 62
7
  6
CONTINUOUS
 10
33.3495339863
 20
26.8476846398
 30
0.0
 11
0.0
 21
2.4867885554
 31
0.0
 40
0.9999668275
 41
1.3043092359
 42
1.7990112844
  0
ELLIPSE
  5
29E
100
AcDbEntity
  8
00_COMPONENTS_1
100
AcDbEllipse
 62
7
  6
CONTINUOUS
 10
33.3344113085
 20
79.2376846398
 30
0.0
 11
-0.0
 21
3.025
 31
0.0
 40
0.9999668275
 41
2.0759272615
 42
6.0975270967
  0
ELLIPSE
  5
29F
100
AcDbEntity
  8
00_COMPONENTS_1
100
AcDbEllipse
 62
7
  6
CONTINUOUS
 10
33.3711990276
 20
17.9476846398
 30
0.0
 11
0.0
 21
3.025
 31
0.0
 40
0.9999336573
 41
0.1867523748
 42
2.9548402788
  0
ELLIPSE
  5
2A0
100
AcDbEntity
  8
00_COMPONENTS_1
100
AcDbEllipse
 62
7
  6
CONTINUOUS
 10
33.349813041
 20
17.9476846398
 30
0.0
 11
-0.0
 21
2.4867885554
 31
0.0
 40
0.9999336573
 41
4.4458484787
 42
4.9405504196
  0
ELLIPSE
  5
2A1
100
AcDbEntity
  8
00_COMPONENTS_1
100
AcDbEllipse
 62
7
  6
CONTINUOUS
 10
33.3495339863
 20
79.2376846398
 30
0.0
 11
-0.0
 21
2.4867885554
 31
0.0
 40
0.9999668275
 41
1.3425813692
 42
1.8372834177
  0
ELLIPSE
  5
2A2
100
AcDbEntity
  8
00_COMPONENTS_1
100
AcDbEllipse
 62
7
  6
CONTINUOUS
 10
33.3344113085
 20
26.8476846398
 30
0.0
 11
-0.0
 21
3.025
 31
0.0
 40
0.9999668275
 41
2.0605778121
 42
7.3488696563
  0
ELLIPSE
  5
2A3
100
AcDbEntity
  8
00_COMPONENTS_1
100
AcDbEllipse
 62
7
  6
CONTINUOUS
 10
33.3711990276
 20
88.1376846398
 30
0.0
 11
0.0
 21
3.025
 31
0.0
 40
0.9999336573
 41
0.1867523748
 42
2.9548402788
  0
ENDSEC
  0
SECTION
  2
OBJECTS
  0
DICTIONARY
  5
C
100
AcDbDictionary
280
0
281
1
  3
ACAD_GROUP
350
D
  3
ACAD_MLINESTYLE
350
17
  3
ACAD_LAYOUT
350
1A
  3
ACAD_PLOTSETTINGS
350
19
  3
ACAD_PLOTSTYLENAME
350
E
  0
DICTIONARY
  5
D
102
{ACAD_REACTORS
330
C
102
}
100
AcDbDictionary
280
0
281
1
  0
ACDBDICTIONARYWDFLT
  5
E
102
{ACAD_REACTORS
330
C
102
}
100
AcDbDictionary
281
1
  3
Normal
350
F
100
AcDbDictionaryWithDefault
340
F
  0
DICTIONARY
  5
17
102
{ACAD_REACTORS
330
C
102
}
100
AcDbDictionary
280
0
281
1
  3
Standard
350
18
  0
DICTIONARY
  5
19
102
{ACAD_REACTORS
330
C
102
}
100
AcDbDictionary
281
1
  0
DICTIONARY
  5
1A
102
{ACAD_REACTORS
330
C
102
}
100
AcDbDictionary
281
1
  3
Model
350
2A4
  3
Layout1
350
2A5
  0
ACDBPLACEHOLDER
  5
F
102
{ACAD_REACTORS
330
E
102
}
  0
MLINESTYLE
  5
18
102
{ACAD_REACTORS
330
17
102
}
100
AcDbMlineStyle
  2
STANDARD
 70
0
  3

 62
256
 51
90.0
 52
90.0
 71
2
 49
0.5
 62
256
  6
BYLAYER
 49
-0.5
 62
256
  6
BYLAYER
  0
LAYOUT
  5
2A4
102
{ACAD_REACTORS
330
1A
102
}
100
AcDbPlotSettings
  1

  2
none_device
  4

  6

 40
0.0
 41
0.0
 42
0.0
 43
0.0
 44
210.0
 45
297.0
 46
0.0
 47
0.0
 48
0.0
 49
0.0
140
0.0
141
0.0
142
1.0
143
1.0
 70
1024
 72
1
 73
0
 74
0
  7

 75
0
147
1.0
148
0.0
149
0.0
100
AcDbLayout
  1
Model
 70
0
 71
0
 10
0.0
 20
0.0
 11
210.0
 21
297.0
 12
0.0
 22
0.0
 32
0.0
 14
0.0
 24
0.0
 34
0.0
 15
0.0
 25
0.0
 35
0.0
146
0.0
 13
0.0
 23
0.0
 33
0.0
 16
1.0
 26
0.0
 36
0.0
 17
0.0
 27
1.0
 37
0.0
 76
0
330
211
345
0
346
0
  0
LAYOUT
  5
2A5
102
{ACAD_REACTORS
330
1A
102
}
100
AcDbPlotSettings
  1

  2
none_device
  4

  6

 40
0.0
 41
0.0
 42
0.0
 43
0.0
 44
210.0
 45
297.0
 46
0.0
 47
0.0
 48
0.0
 49
0.0
140
0.0
141
0.0
142
1.0
143
1.0
 70
0
 72
1
 73
0
 74
0
  7

 75
0
147
1.0
148
0.0
149
0.0
100
AcDbLayout
  1
Layout1
 70
0
 71
1
 10
0.0
 20
0.0
 11
210.0
 21
297.0
 12
0.0
 22
0.0
 32
0.0
 14
0.0
 24
0.0
 34
0.0
 15
0.0
 25
0.0
 35
0.0
146
0.0
 13
0.0
 23
0.0
 33
0.0
 16
1.0
 26
0.0
 36
0.0
 17
0.0
 27
1.0
 37
0.0
 76
0
330
212
345
0
346
0
  0
ENDSEC
  0
EOF
