999
DXF file: Y:\001_SCHNEIDER_PARIS\maxime fuentes - génération CAD 2D\TRAVAIL\XACA2013_2D-Views\xaca2013_2d-views_5.dxf
999
Pro/ENGINEER 2018260 by Parametric Technology Corporation
  0
SECTION
  2
HEADER
  9
$ACADVER
  1
AC1027
  9
$DWGCODEPAGE
  3
ANSI_1252
  9
$EXTMAX
 10
558.8
 20
431.8
 30
0.0
  9
$EXTMIN
 10
0.0
 20
0.0
 30
0.0
  9
$LIMMIN
 10
0.0
 20
0.0
  9
$LIMMAX
 10
558.8
 20
431.8
  9
$VIEWCTR
 10
279.4
 20
215.9
  9
$VIEWSIZE
 40
431.8
  9
$CLAYER
  8
0
  9
$LTSCALE
 40
30.734
  9
$CELTYPE
  6
BYLAYER
  9
$DIMSCALE
 40
1.0
  9
$DIMASZ
 40
3.5
  9
$DIMEXO
 40
1.0
  9
$DIMDLI
 40
21.2344
  9
$DIMEXE
 40
3.0
  9
$DIMCEN
 40
5.0292
  9
$DIMLFAC
 40
1.0
  9
$DIMBLK
  1
_FILLED
  9
$DIMALT
 70
0
  9
$DIMALTF
 40
0.0393700787
  9
$DIMTXT
 40
4.0
  9
$DIMTOL
 70
1
  9
$DIMLIM
 70
0
  9
$DIMTFAC
 40
1.0
  9
$DIMTP
 40
0.0001
  9
$DIMTM
 40
0.0001
  9
$DIMGAP
 40
0.625
  9
$DIMDSEP
 70
46
  9
$AUNITS
 70
0
  9
$PDMODE
 70
0
  9
$PDSIZE
 40
0.01
  9
$HANDSEED
  5
389
  9
$TILEMODE
 70
1
  9
$MEASUREMENT
 70
1
  9
$INSUNITS
 70
4
  0
ENDSEC
  0
SECTION
  2
CLASSES
  0
CLASS
  1
ACDBDICTIONARYWDFLT
  2
AcDbDictionaryWithDefault
  3
AutoCAD 2000
 90
0
 91
1
280
0
281
0
  0
CLASS
  1
ACDBPLACEHOLDER
  2
AcDbPlaceHolder
  3
AutoCAD 2000
 90
0
 91
1
280
0
281
0
  0
CLASS
  1
LAYOUT
  2
AcDbLayout
  3
AutoCAD 2000
 90
0
 91
0
280
0
281
0
  0
ENDSEC
  0
SECTION
  2
TABLES
  0
TABLE
  2
VPORT
  5
8
100
AcDbSymbolTable
 70
2
  0
VPORT
  5
1F4
100
AcDbSymbolTableRecord
100
AcDbViewportTableRecord
  2
*ACTIVE
 70
0
 10
0.0
 20
0.0
 11
1.0
 21
1.0
 12
279.4
 22
215.9
 13
0.0
 23
0.0
 14
1.0
 24
1.0
 15
0.0
 25
0.0
 16
0.0
 26
0.0
 36
1.0
 17
0.0
 27
0.0
 37
0.0
 40
431.8
 41
1.2941176471
 42
50.0
 43
0.0
 44
0.0
 50
0.0
 51
0.0
 71
0
 72
100
 73
1
 74
1
 75
0
 76
0
 77
0
 78
0
  0
ENDTAB
  0
TABLE
  2
LTYPE
  5
5
100
AcDbSymbolTable
 70
6
  0
LTYPE
  5
14
100
AcDbSymbolTableRecord
100
AcDbLinetypeTableRecord
  2
BYBLOCK
 70
0
  3

 72
65
 73
0
 40
0.0
  0
LTYPE
  5
15
100
AcDbSymbolTableRecord
100
AcDbLinetypeTableRecord
  2
BYLAYER
 70
0
  3

 72
65
 73
0
 40
0.0
  0
LTYPE
  5
16
100
AcDbSymbolTableRecord
100
AcDbLinetypeTableRecord
  2
CONTINUOUS
 70
64
  3
Solid line
 72
65
 73
0
 40
0.0
  0
LTYPE
  5
1F5
100
AcDbSymbolTableRecord
100
AcDbLinetypeTableRecord
  2
CENTER
 70
64
  3
____ _ ____ _ ____ _ ____ _ ____ _ ____ _ ____
 72
65
 73
4
 40
0.6
 49
0.375
 74
0
 49
-0.075
 74
0
 49
0.075
 74
0
 49
-0.075
 74
0
  0
LTYPE
  5
1F6
100
AcDbSymbolTableRecord
100
AcDbLinetypeTableRecord
  2
HIDDEN
 70
64
  3
- - - - - - - - - - - - - - - - - - - -
 72
65
 73
2
 40
0.2
 49
0.1
 74
0
 49
-0.1
 74
0
  0
LTYPE
  5
1F7
100
AcDbSymbolTableRecord
100
AcDbLinetypeTableRecord
  2
PHANTOM
 70
64
  3
_____ _ _ _____ _ _ _____ _ _ _____
 72
65
 73
6
 40
0.8
 49
0.45
 74
0
 49
-0.05
 74
0
 49
0.1
 74
0
 49
-0.05
 74
0
 49
0.1
 74
0
 49
-0.05
 74
0
  0
LTYPE
  5
1F8
100
AcDbSymbolTableRecord
100
AcDbLinetypeTableRecord
  2
DOT
 70
64
  3
. . . . . . . . . . . . . . . . . . . .
 72
65
 73
2
 40
0.2
 49
0.1
 74
0
 49
-0.1
 74
0
  0
LTYPE
  5
1F9
100
AcDbSymbolTableRecord
100
AcDbLinetypeTableRecord
  2
DASHED
 70
64
  3
- - - - - - - - - - - - - - - - - - - -
 72
65
 73
2
 40
0.2
 49
0.1
 74
0
 49
-0.1
 74
0
  0
ENDTAB
  0
TABLE
  2
LAYER
  5
2
100
AcDbSymbolTable
 70
36
  0
LAYER
  5
10
100
AcDbSymbolTableRecord
100
AcDbLayerTableRecord
  2
0
 70
0
 62
7
  6
CONTINUOUS
370
-3
390
F
  0
LAYER
  5
1FA
100
AcDbSymbolTableRecord
100
AcDbLayerTableRecord
  2
DEFAULT_1
 70
0
 62
7
  6
CENTER
370
-3
390
F
  0
LAYER
  5
1FB
100
AcDbSymbolTableRecord
100
AcDbLayerTableRecord
  2
DEFAULT_2
 70
0
 62
8
  6
HIDDEN
370
-3
390
F
  0
LAYER
  5
1FC
100
AcDbSymbolTableRecord
100
AcDbLayerTableRecord
  2
DEFAULT_3
 70
0
 62
7
  6
PHANTOM
370
-3
390
F
  0
LAYER
  5
1FD
100
AcDbSymbolTableRecord
100
AcDbLayerTableRecord
  2
01_ALL_DTM_PLN
 70
0
 62
7
  6
CONTINUOUS
370
-3
390
F
  0
LAYER
  5
1FE
100
AcDbSymbolTableRecord
100
AcDbLayerTableRecord
  2
01__ASM_ALL_DTM_PLN
 70
0
 62
7
  6
CONTINUOUS
370
-3
390
F
  0
LAYER
  5
1FF
100
AcDbSymbolTableRecord
100
AcDbLayerTableRecord
  2
01__ASM_DEF_DTM_PLN
 70
0
 62
7
  6
CONTINUOUS
370
-3
390
F
  0
LAYER
  5
200
100
AcDbSymbolTableRecord
100
AcDbLayerTableRecord
  2
01___PRT_ALL_DTM_PLN
 70
0
 62
7
  6
CONTINUOUS
370
-3
390
F
  0
LAYER
  5
201
100
AcDbSymbolTableRecord
100
AcDbLayerTableRecord
  2
01___PRT_DEF_DTM_PLN
 70
0
 62
7
  6
CONTINUOUS
370
-3
390
F
  0
LAYER
  5
202
100
AcDbSymbolTableRecord
100
AcDbLayerTableRecord
  2
02_ALL_AXES
 70
0
 62
7
  6
CONTINUOUS
370
-3
390
F
  0
LAYER
  5
203
100
AcDbSymbolTableRecord
100
AcDbLayerTableRecord
  2
02__ASM_ALL_AXES
 70
0
 62
7
  6
CONTINUOUS
370
-3
390
F
  0
LAYER
  5
204
100
AcDbSymbolTableRecord
100
AcDbLayerTableRecord
  2
02___PRT_ALL_AXES
 70
0
 62
7
  6
CONTINUOUS
370
-3
390
F
  0
LAYER
  5
205
100
AcDbSymbolTableRecord
100
AcDbLayerTableRecord
  2
03_ALL_CURVES
 70
0
 62
7
  6
CONTINUOUS
370
-3
390
F
  0
LAYER
  5
206
100
AcDbSymbolTableRecord
100
AcDbLayerTableRecord
  2
03__ASM_ALL_CURVES
 70
0
 62
7
  6
CONTINUOUS
370
-3
390
F
  0
LAYER
  5
207
100
AcDbSymbolTableRecord
100
AcDbLayerTableRecord
  2
03___PRT_ALL_CURVES
 70
0
 62
7
  6
CONTINUOUS
370
-3
390
F
  0
LAYER
  5
208
100
AcDbSymbolTableRecord
100
AcDbLayerTableRecord
  2
04_ALL_DTM_PNT
 70
0
 62
7
  6
CONTINUOUS
370
-3
390
F
  0
LAYER
  5
209
100
AcDbSymbolTableRecord
100
AcDbLayerTableRecord
  2
04__ASM_ALL_DTM_PNT
 70
0
 62
7
  6
CONTINUOUS
370
-3
390
F
  0
LAYER
  5
20A
100
AcDbSymbolTableRecord
100
AcDbLayerTableRecord
  2
04___PRT_ALL_DTM_PNT
 70
0
 62
7
  6
CONTINUOUS
370
-3
390
F
  0
LAYER
  5
20B
100
AcDbSymbolTableRecord
100
AcDbLayerTableRecord
  2
05_ALL_DTM_CSYS
 70
0
 62
7
  6
CONTINUOUS
370
-3
390
F
  0
LAYER
  5
20C
100
AcDbSymbolTableRecord
100
AcDbLayerTableRecord
  2
05__ASM_ALL_DTM_CSYS
 70
0
 62
7
  6
CONTINUOUS
370
-3
390
F
  0
LAYER
  5
20D
100
AcDbSymbolTableRecord
100
AcDbLayerTableRecord
  2
05__ASM_DEF_DTM_CSYS
 70
0
 62
7
  6
CONTINUOUS
370
-3
390
F
  0
LAYER
  5
20E
100
AcDbSymbolTableRecord
100
AcDbLayerTableRecord
  2
05___PRT_ALL_DTM_CSYS
 70
0
 62
7
  6
CONTINUOUS
370
-3
390
F
  0
LAYER
  5
20F
100
AcDbSymbolTableRecord
100
AcDbLayerTableRecord
  2
05___PRT_DEF_DTM_CSYS
 70
0
 62
7
  6
CONTINUOUS
370
-3
390
F
  0
LAYER
  5
210
100
AcDbSymbolTableRecord
100
AcDbLayerTableRecord
  2
06_ALL_SURFS
 70
0
 62
7
  6
CONTINUOUS
370
-3
390
F
  0
LAYER
  5
211
100
AcDbSymbolTableRecord
100
AcDbLayerTableRecord
  2
06__ASM_ALL_SURFS
 70
0
 62
7
  6
CONTINUOUS
370
-3
390
F
  0
LAYER
  5
212
100
AcDbSymbolTableRecord
100
AcDbLayerTableRecord
  2
06___PRT_ALL_SURFS
 70
0
 62
7
  6
CONTINUOUS
370
-3
390
F
  0
LAYER
  5
213
100
AcDbSymbolTableRecord
100
AcDbLayerTableRecord
  2
07__ASM_ALL_SKELETONS
 70
0
 62
7
  6
CONTINUOUS
370
-3
390
F
  0
LAYER
  5
214
100
AcDbSymbolTableRecord
100
AcDbLayerTableRecord
  2
CLOSED_SHELL
 70
0
 62
7
  6
CONTINUOUS
370
-3
390
F
  0
LAYER
  5
215
100
AcDbSymbolTableRecord
100
AcDbLayerTableRecord
  2
Colour
 70
0
 62
7
  6
CONTINUOUS
370
-3
390
F
  0
LAYER
  5
216
100
AcDbSymbolTableRecord
100
AcDbLayerTableRecord
  2
ORIENTED_CLOSED_SHE
 70
0
 62
7
  6
CONTINUOUS
370
-3
390
F
  0
ENDTAB
  0
TABLE
  2
STYLE
  5
3
100
AcDbSymbolTable
 70
1
  0
STYLE
  5
11
100
AcDbSymbolTableRecord
100
AcDbTextStyleTableRecord
  2
STANDARD
 70
0
 40
0.0
 41
0.6
 50
0.0
 71
0
 42
0.2
  3
txt
  4

  0
STYLE
  5
217
100
AcDbSymbolTableRecord
100
AcDbTextStyleTableRecord
  2
TEXTSTYLE_1
 70
0
 40
0.0
 41
0.8
 50
0.0
 71
0
 42
0.2
  3
gdt
  4

  0
ENDTAB
  0
TABLE
  2
VIEW
  5
6
100
AcDbSymbolTable
 70
0
  0
ENDTAB
  0
TABLE
  2
UCS
  5
7
100
AcDbSymbolTable
 70
0
  0
ENDTAB
  0
TABLE
  2
APPID
  5
9
100
AcDbSymbolTable
 70
1
  0
APPID
  5
218
100
AcDbSymbolTableRecord
100
AcDbRegAppTableRecord
  2
ACAD
 70
0
  0
ENDTAB
  0
TABLE
  2
BLOCK_RECORD
  5
1
100
AcDbSymbolTable
 70
0
  0
BLOCK_RECORD
  5
219
100
AcDbSymbolTableRecord
100
AcDbBlockTableRecord
  2
*Model_Space
  0
BLOCK_RECORD
  5
21A
100
AcDbSymbolTableRecord
100
AcDbBlockTableRecord
  2
*Paper_Space
  0
BLOCK_RECORD
  5
21B
100
AcDbSymbolTableRecord
100
AcDbBlockTableRecord
  2
_FILLED
  0
ENDTAB
  0
TABLE
  2
DIMSTYLE
  5
A
100
AcDbSymbolTable
 70
1
100
AcDbDimStyleTable
 71
0
  0
DIMSTYLE
105
21C
100
AcDbSymbolTableRecord
100
AcDbDimStyleTableRecord
  2
STANDARD
 70
0
  3

  4

 40
1.0
 41
3.5
 42
1.0
 43
0.38
 44
3.0
 45
0.0
 46
0.0
 47
0.0001
 48
0.0001
140
4.0
141
0.09
142
0.0
143
25.4
144
1.0
145
0.0
146
1.0
147
0.625
 71
1.0
 72
0.0
 73
0
 74
0
 75
0
 76
0
 77
1
 78
8
 79
2
170
0
171
3
172
0
173
0
174
0
175
0
176
0
177
0
178
0
270
2
179
4
271
4
272
4
273
2
274
2
275
0
280
0
281
0
282
0
283
1
284
8
285
0
286
0
287
3
288
0
340
11
278
46
341
21B
342
21B
343
21B
344
21B
  0
ENDTAB
  0
ENDSEC
  0
SECTION
  2
BLOCKS
  0
BLOCK
  5
20
100
AcDbEntity
  8
0
100
AcDbBlockBegin
  2
*Model_Space
 70
0
 10
0.0
 20
0.0
 30
0.0
  3
*Model_Space
  1

  0
ENDBLK
  5
21
100
AcDbEntity
  8
0
100
AcDbBlockEnd
  0
BLOCK
  5
1C
100
AcDbEntity
  8
0
100
AcDbBlockBegin
  2
*Paper_Space
 70
0
 10
0.0
 20
0.0
 30
0.0
  3
*Paper_Space
  1

  0
ENDBLK
  5
1D
100
AcDbEntity
  8
0
100
AcDbBlockEnd
  0
BLOCK
  5
21D
100
AcDbEntity
  8
0
100
AcDbBlockBegin
  2
_FILLED
 70
64
 10
0.0
 20
0.0
  3
_FILLED
  1

  0
SOLID
  5
21E
100
AcDbEntity
  8
0
  6
BYBLOCK
 62
0
100
AcDbTrace
 10
0.0
 20
0.0
 11
-1.0
 21
0.2857142857
 12
-1.0
 22
-0.2857142857
 13
-1.0
 23
-0.2857142857
  0
ENDBLK
  5
21F
100
AcDbEntity
  8
0
  6
BYBLOCK
 62
0
100
AcDbBlockEnd
  0
ENDSEC
  0
SECTION
  2
ENTITIES
  0
LINE
  5
220
100
AcDbEntity
  8
0
100
AcDbLine
 62
7
  6
CONTINUOUS
 10
413.1839883392
 20
101.2242711606
 11
388.3474532645
 21
100.2918529549
  0
LINE
  5
221
100
AcDbEntity
  8
0
100
AcDbLine
 62
9
  6
CONTINUOUS
 10
409.6351762407
 20
106.0045299575
 11
388.3474532647
 21
105.2936193082
  0
LWPOLYLINE
  5
222
100
AcDbEntity
  8
0
100
AcDbPolyline
 62
9
  6
CONTINUOUS
 90
4
 70
0
 10
409.6351762407
 20
106.0045299575
 10
402.8742448508
 20
105.779668975
 10
395.7126292406
 20
105.5405067249
 10
388.3474532647
 20
105.2936193082
  0
LINE
  5
223
100
AcDbEntity
  8
0
100
AcDbLine
 62
9
  6
CONTINUOUS
 10
417.9974532647
 20
106.220780691
 11
409.6351762407
 21
106.0047640197
  0
LINE
  5
224
100
AcDbEntity
  8
0
100
AcDbLine
 62
9
  6
CONTINUOUS
 10
386.9474532646
 20
105.291852955
 11
388.3474532647
 21
105.2936093115
  0
LINE
  5
225
100
AcDbEntity
  8
0
100
AcDbLine
 62
7
  6
CONTINUOUS
 10
385.6874532639
 20
100.291852955
 11
388.3474532645
 21
100.291852955
  0
LINE
  5
226
100
AcDbEntity
  8
0
100
AcDbLine
 62
9
  6
CONTINUOUS
 10
386.9474532646
 20
105.291852955
 11
379.3264054192
 21
105.2918531965
  0
LINE
  5
227
100
AcDbEntity
  8
0
100
AcDbLine
 62
7
  6
CONTINUOUS
 10
385.687453264
 20
100.2918529553
 11
379.3264054193
 21
101.9310107843
  0
LINE
  5
228
100
AcDbEntity
  8
0
100
AcDbLine
 62
9
  6
CONTINUOUS
 10
403.274222657
 20
175.2318529547
 11
400.0753420688
 21
175.2212056427
  0
LINE
  5
229
100
AcDbEntity
  8
0
100
AcDbLine
 62
9
  6
CONTINUOUS
 10
385.6874532639
 20
175.1418529557
 11
386.9474532643
 21
175.1418529557
  0
LINE
  5
22A
100
AcDbEntity
  8
0
100
AcDbLine
 62
9
  6
CONTINUOUS
 10
386.9474532643
 20
175.2318529545
 11
393.2644965483
 21
175.2318529545
  0
LINE
  5
22B
100
AcDbEntity
  8
0
100
AcDbLine
 62
7
  6
CONTINUOUS
 10
403.274222657
 20
175.2318529547
 11
409.6351762407
 21
175.2318529547
  0
LINE
  5
22C
100
AcDbEntity
  8
0
100
AcDbLine
 62
9
  6
CONTINUOUS
 10
381.8673262459
 20
355.3628148496
 11
383.3673262459
 21
357.9608910609
  0
LINE
  5
22D
100
AcDbEntity
  8
0
100
AcDbLine
 62
9
  6
CONTINUOUS
 10
385.4474532647
 20
356.7599291667
 11
383.9474532647
 21
354.1618529553
  0
LINE
  5
22E
100
AcDbEntity
  8
0
100
AcDbLine
 62
7
  6
CONTINUOUS
 10
366.9435162568
 20
194.406852955
 11
368.7650050658
 21
194.406852955
  0
LINE
  5
22F
100
AcDbEntity
  8
0
100
AcDbLine
 62
9
  6
CONTINUOUS
 10
385.6874668573
 20
194.6210084808
 11
386.9474532647
 21
194.6210084808
  0
LINE
  5
230
100
AcDbEntity
  8
0
100
AcDbLine
 62
9
  6
CONTINUOUS
 10
414.4818031994
 20
195.012606074
 11
386.9474532626
 21
195.0126062491
  0
LWPOLYLINE
  5
231
100
AcDbEntity
  8
0
100
AcDbPolyline
 62
7
  6
CONTINUOUS
 90
4
 70
0
 10
368.3683399326
 20
194.7187529215
 10
368.6242971397
 20
194.5406000932
 10
369.0980109138
 20
194.0903208276
 10
369.434432541
 20
193.674379339
  0
LWPOLYLINE
  5
232
100
AcDbEntity
  8
0
100
AcDbPolyline
 62
7
  6
CONTINUOUS
 90
4
 70
0
 10
365.4234284835
 20
196.6943755061
 10
366.054808601
 20
196.2334327819
 10
367.3703658123
 20
195.341208281
 10
368.3678591788
 20
194.7179707302
  0
LINE
  5
233
100
AcDbEntity
  8
0
100
AcDbLine
 62
7
  6
CONTINUOUS
 10
337.4974532648
 20
257.2302846772
 11
337.4974532648
 21
283.4334212329
  0
LINE
  5
234
100
AcDbEntity
  8
0
100
AcDbLine
 62
7
  6
CONTINUOUS
 10
339.4974532648
 20
254.5819437669
 11
339.4974532648
 21
286.0817621431
  0
LWPOLYLINE
  5
235
100
AcDbEntity
  8
0
100
AcDbPolyline
 62
7
  6
CONTINUOUS
 90
3
 70
0
 10
364.7733352156
 20
197.2806547503
 10
364.8179750118
 20
197.2268312705
 10
364.8662323813
 20
197.1812098157
  0
LWPOLYLINE
  5
236
100
AcDbEntity
  8
0
100
AcDbPolyline
 62
7
  6
CONTINUOUS
 90
6
 70
0
 10
364.5312479396
 20
197.5825994626
 10
364.7014529018
 20
197.3576036212
 10
364.9312703748
 20
197.1115876807
 10
365.1701937874
 20
196.8959015579
 10
365.3779591885
 20
196.7298023688
 10
365.4237023671
 20
196.6951509489
  0
LINE
  5
237
100
AcDbEntity
  8
0
100
AcDbLine
 62
7
  6
CONTINUOUS
 10
369.434283522
 20
193.6745821639
 11
369.434432541
 21
193.674379339
  0
LINE
  5
238
100
AcDbEntity
  8
0
100
AcDbLine
 62
7
  6
CONTINUOUS
 10
369.4311610617
 20
193.6775985214
 11
369.430966719
 21
193.6778646749
  0
LINE
  5
239
100
AcDbEntity
  8
0
100
AcDbLine
 62
7
  6
CONTINUOUS
 10
341.4974532648
 20
286.0817666051
 11
341.4974532648
 21
254.5819393049
  0
LINE
  5
23A
100
AcDbEntity
  8
0
100
AcDbLine
 62
7
  6
CONTINUOUS
 10
350.2974532647
 20
289.1972314236
 11
350.2974532647
 21
287.9158268619
  0
LINE
  5
23B
100
AcDbEntity
  8
0
100
AcDbLine
 62
9
  6
CONTINUOUS
 10
351.0536650977
 20
289.1972314235
 11
351.0536628101
 21
287.9158268615
  0
LINE
  5
23C
100
AcDbEntity
  8
0
100
AcDbLine
 62
9
  6
CONTINUOUS
 10
361.9806601156
 20
333.9807890864
 11
361.6773871538
 21
332.6131741484
  0
LINE
  5
23D
100
AcDbEntity
  8
0
100
AcDbLine
 62
7
  6
CONTINUOUS
 10
350.4907288157
 20
290.9451025221
 11
359.6128221247
 21
331.6881921714
  0
LINE
  5
23E
100
AcDbEntity
  8
0
100
AcDbLine
 62
7
  6
CONTINUOUS
 10
359.2131980122
 20
326.224367097
 11
351.2236749483
 21
290.7266174462
  0
LINE
  5
23F
100
AcDbEntity
  8
0
100
AcDbLine
 62
9
  6
CONTINUOUS
 10
408.2665507192
 20
213.5618527243
 11
386.9474532647
 21
213.561852955
  0
LINE
  5
240
100
AcDbEntity
  8
0
100
AcDbLine
 62
9
  6
CONTINUOUS
 10
386.9474532647
 20
214.1001640067
 11
385.6874532647
 21
214.1001640067
  0
LWPOLYLINE
  5
241
100
AcDbEntity
  8
0
100
AcDbPolyline
 62
7
  6
CONTINUOUS
 90
3
 70
0
 10
369.4309667188
 20
193.6778646752
 10
370.0662397379
 20
192.6468462104
 10
370.0687064605
 20
192.6415102822
  0
LWPOLYLINE
  5
242
100
AcDbEntity
  8
0
100
AcDbPolyline
 62
7
  6
CONTINUOUS
 90
6
 70
0
 10
369.434283522
 20
193.6745821639
 10
370.0719838236
 20
192.6361735399
 10
370.5684935852
 20
191.5542185971
 10
371.0025849609
 20
190.3445950782
 10
371.3909607385
 20
188.9630933969
 10
371.7303282367
 20
187.4434891306
  0
LINE
  5
243
100
AcDbEntity
  8
0
100
AcDbLine
 62
7
  6
CONTINUOUS
 10
363.1356303855
 20
200.4714663478
 11
363.5212442587
 21
199.5361118964
  0
LINE
  5
244
100
AcDbEntity
  8
0
100
AcDbLine
 62
7
  6
CONTINUOUS
 10
358.5435162568
 20
228.831852955
 11
358.5435162568
 21
231.1504135973
  0
LWPOLYLINE
  5
245
100
AcDbEntity
  8
0
100
AcDbPolyline
 62
7
  6
CONTINUOUS
 90
3
 70
0
 10
371.0002016993
 20
190.3512361897
 10
371.3853831482
 20
188.97439601
 10
371.7267047377
 20
187.4588382446
  0
LWPOLYLINE
  5
246
100
AcDbEntity
  8
0
100
AcDbPolyline
 62
7
  6
CONTINUOUS
 90
4
 70
0
 10
362.9060338519
 20
201.4280457403
 10
363.1427232948
 20
200.4419148088
 10
363.837681052
 20
198.7788767724
 10
364.5312499406
 20
197.5825959648
  0
LWPOLYLINE
  5
247
100
AcDbEntity
  8
0
100
AcDbPolyline
 62
7
  6
CONTINUOUS
 90
5
 70
0
 10
371.7267047377
 20
187.4588382446
 10
372.0302820959
 20
185.8283882168
 10
372.3032093298
 20
184.1577797207
 10
372.5498289819
 20
182.4441393757
 10
372.7713686293
 20
180.6433293285
  0
LINE
  5
248
100
AcDbEntity
  8
0
100
AcDbLine
 62
9
  6
CONTINUOUS
 10
351.1282765851
 20
286.8992920398
 11
361.8659938709
 21
214.1003396282
  0
LINE
  5
249
100
AcDbEntity
  8
0
100
AcDbLine
 62
7
  6
CONTINUOUS
 10
362.9060338392
 20
201.4280458152
 11
350.3822577628
 21
286.7540695006
  0
LINE
  5
24A
100
AcDbEntity
  8
0
100
AcDbLine
 62
7
  6
CONTINUOUS
 10
372.7713686293
 20
180.6433293285
 11
372.9037950746
 21
179.2099655925
  0
LINE
  5
24B
100
AcDbEntity
  8
0
100
AcDbLine
 62
7
  6
CONTINUOUS
 10
372.9038760904
 20
179.2087698636
 11
372.9037950746
 21
179.2099655925
  0
LWPOLYLINE
  5
24C
100
AcDbEntity
  8
0
100
AcDbPolyline
 62
7
  6
CONTINUOUS
 90
4
 70
0
 10
372.9040137498
 20
179.2090221484
 10
372.9243808311
 20
178.8765771269
 10
372.9465243762
 20
178.190331534
 10
372.9474532032
 20
178.0280293628
  0
LINE
  5
24D
100
AcDbEntity
  8
0
100
AcDbLine
 62
7
  6
CONTINUOUS
 10
363.5435162568
 20
198.831852955
 11
363.5435162568
 21
199.4828148727
  0
LINE
  5
24E
100
AcDbEntity
  8
0
100
AcDbLine
 62
9
  6
CONTINUOUS
 10
364.0435162576
 20
198.331852955
 11
364.0435162576
 21
198.4238482958
  0
LINE
  5
24F
100
AcDbEntity
  8
0
100
AcDbLine
 62
7
  6
CONTINUOUS
 10
364.9435162568
 20
196.406852955
 11
364.9435162568
 21
197.1005328126
  0
LINE
  5
250
100
AcDbEntity
  8
0
100
AcDbLine
 62
9
  6
CONTINUOUS
 10
366.9435162568
 20
194.406852955
 11
366.9435162568
 21
195.6307020623
  0
LINE
  5
251
100
AcDbEntity
  8
0
100
AcDbLine
 62
7
  6
CONTINUOUS
 10
375.1857424658
 20
348.2694645028
 11
375.1474632355
 21
347.661852955
  0
LINE
  5
252
100
AcDbEntity
  8
0
100
AcDbLine
 62
7
  6
CONTINUOUS
 10
376.4574470794
 20
358.4862100423
 11
375.185742467
 21
348.269464512
  0
LWPOLYLINE
  5
253
100
AcDbEntity
  8
0
100
AcDbPolyline
 62
7
  6
CONTINUOUS
 90
3
 70
0
 10
372.312997792
 20
184.0897644445
 10
372.5438345246
 20
182.4702032239
 10
372.6930211153
 20
181.2801859456
  0
LINE
  5
254
100
AcDbEntity
  8
0
100
AcDbLine
 62
7
  6
CONTINUOUS
 10
372.9474532647
 20
178.0264489348
 11
372.9474532024
 21
178.0280291137
  0
LINE
  5
255
100
AcDbEntity
  8
0
100
AcDbLine
 62
7
  6
CONTINUOUS
 10
372.9474532647
 20
179.2090221484
 11
372.9474532647
 21
110.1621198239
  0
LINE
  5
256
100
AcDbEntity
  8
0
100
AcDbLine
 62
7
  6
CONTINUOUS
 10
375.1974632355
 20
347.661852955
 11
375.1974632355
 21
336.0084600776
  0
LINE
  5
257
100
AcDbEntity
  8
0
100
AcDbLine
 62
7
  6
CONTINUOUS
 10
378.2974532647
 20
365.311852955
 11
378.2974532647
 21
360.887983591
  0
LINE
  5
258
100
AcDbEntity
  8
0
100
AcDbLine
 62
7
  6
CONTINUOUS
 10
379.2974532647
 20
373.811852955
 11
379.2974532647
 21
368.311852955
  0
LINE
  5
259
100
AcDbEntity
  8
0
100
AcDbLine
 62
9
  6
CONTINUOUS
 10
379.3264054192
 20
105.2918531965
 11
379.3264054192
 21
174.3251955057
  0
LINE
  5
25A
100
AcDbEntity
  8
0
100
AcDbLine
 62
7
  6
CONTINUOUS
 10
380.1974532647
 20
382.311852955
 11
380.1974532647
 21
376.811852955
  0
LINE
  5
25B
100
AcDbEntity
  8
0
100
AcDbLine
 62
7
  6
CONTINUOUS
 10
381.2974532647
 20
390.811852955
 11
381.2974532647
 21
385.311852955
  0
LINE
  5
25C
100
AcDbEntity
  8
0
100
AcDbLine
 62
7
  6
CONTINUOUS
 10
385.4474532647
 20
351.563776744
 11
385.4474532647
 21
335.7572112037
  0
LINE
  5
25D
100
AcDbEntity
  8
0
100
AcDbLine
 62
7
  6
CONTINUOUS
 10
385.6874532649
 20
100.291852955
 11
385.6874532649
 21
335.674609786
  0
LINE
  5
25E
100
AcDbEntity
  8
0
100
AcDbLine
 62
7
  6
CONTINUOUS
 10
386.9474532647
 20
214.1001640067
 11
386.9474532647
 21
197.4642934671
  0
LINE
  5
25F
100
AcDbEntity
  8
0
100
AcDbLine
 62
9
  6
CONTINUOUS
 10
386.9474532643
 20
175.1418529557
 11
386.9474532647
 21
197.4642934671
  0
LINE
  5
260
100
AcDbEntity
  8
0
100
AcDbLine
 62
7
  6
CONTINUOUS
 10
386.9474532647
 20
319.310240269
 11
386.9474532647
 21
320.613465641
  0
LINE
  5
261
100
AcDbEntity
  8
0
100
AcDbLine
 62
9
  6
CONTINUOUS
 10
388.3474166785
 20
335.616500959
 11
388.3474532647
 21
213.561852955
  0
LINE
  5
262
100
AcDbEntity
  8
0
100
AcDbLine
 62
9
  6
CONTINUOUS
 10
388.3474532647
 20
175.231852955
 11
388.3474532647
 21
105.2936093115
  0
LINE
  5
263
100
AcDbEntity
  8
0
100
AcDbLine
 62
7
  6
CONTINUOUS
 10
388.4474532647
 20
351.563776744
 11
388.4474532647
 21
335.7726112559
  0
LINE
  5
264
100
AcDbEntity
  8
0
100
AcDbLine
 62
9
  6
CONTINUOUS
 10
388.3474475139
 20
213.5618527942
 11
388.0288179386
 21
175.2318529545
  0
LINE
  5
265
100
AcDbEntity
  8
0
100
AcDbLine
 62
7
  6
CONTINUOUS
 10
339.4974532648
 20
254.581852955
 11
341.4974532642
 21
254.581852955
  0
LINE
  5
266
100
AcDbEntity
  8
0
100
AcDbLine
 62
7
  6
CONTINUOUS
 10
341.4974532648
 20
255.481852955
 11
354.9722552865
 21
255.481852955
  0
LINE
  5
267
100
AcDbEntity
  8
0
100
AcDbLine
 62
7
  6
CONTINUOUS
 10
392.5974532647
 20
390.811852955
 11
392.5974532647
 21
385.311852955
  0
LINE
  5
268
100
AcDbEntity
  8
0
100
AcDbLine
 62
7
  6
CONTINUOUS
 10
393.6974532647
 20
382.311852955
 11
393.6974532647
 21
376.811852955
  0
LINE
  5
269
100
AcDbEntity
  8
0
100
AcDbLine
 62
7
  6
CONTINUOUS
 10
394.5974532647
 20
373.811852955
 11
394.5974532647
 21
368.311852955
  0
LINE
  5
26A
100
AcDbEntity
  8
0
100
AcDbLine
 62
9
  6
CONTINUOUS
 10
395.1106554389
 20
213.5618527243
 11
395.110695037
 21
326.285162334
  0
LINE
  5
26B
100
AcDbEntity
  8
0
100
AcDbLine
 62
7
  6
CONTINUOUS
 10
395.5974532647
 20
365.311852955
 11
395.5974532647
 21
359.811852955
  0
LINE
  5
26C
100
AcDbEntity
  8
0
100
AcDbLine
 62
7
  6
CONTINUOUS
 10
398.6974432939
 20
347.661852955
 11
398.6974432939
 21
336.961852955
  0
LINE
  5
26D
100
AcDbEntity
  8
0
100
AcDbLine
 62
7
  6
CONTINUOUS
 10
398.7091640636
 20
348.2694645028
 11
398.7474432939
 21
347.661852955
  0
LINE
  5
26E
100
AcDbEntity
  8
0
100
AcDbLine
 62
7
  6
CONTINUOUS
 10
405.4474532647
 20
324.4361355545
 11
405.4474532647
 21
315.561852955
  0
LINE
  5
26F
100
AcDbEntity
  8
0
100
AcDbLine
 62
9
  6
CONTINUOUS
 10
408.272931414
 20
315.561852955
 11
408.272931414
 21
226.0585187115
  0
LINE
  5
270
100
AcDbEntity
  8
0
100
AcDbLine
 62
9
  6
CONTINUOUS
 10
408.2729314154
 20
219.0561886019
 11
408.2729314154
 21
213.60677032
  0
LINE
  5
271
100
AcDbEntity
  8
0
100
AcDbLine
 62
9
  6
CONTINUOUS
 10
409.6351762407
 20
106.0045299575
 11
409.6351762407
 21
175.2318529547
  0
LINE
  5
272
100
AcDbEntity
  8
0
100
AcDbLine
 62
9
  6
CONTINUOUS
 10
420.1065551753
 20
233.851137351
 11
412.822754987
 21
229.6458333516
  0
LINE
  5
273
100
AcDbEntity
  8
0
100
AcDbLine
 62
7
  6
CONTINUOUS
 10
397.2724532647
 20
359.811852955
 11
398.7091640624
 21
348.269464512
  0
LINE
  5
274
100
AcDbEntity
  8
0
100
AcDbLine
 62
7
  6
CONTINUOUS
 10
417.9974532647
 20
175.2450784209
 11
417.9974532647
 21
106.2207779556
  0
LWPOLYLINE
  5
275
100
AcDbEntity
  8
0
100
AcDbPolyline
 62
7
  6
CONTINUOUS
 90
3
 70
0
 10
423.8209163643
 20
248.2653868172
 10
423.9126713655
 20
248.7371758149
 10
423.9474532647
 20
249.2635268014
  0
LINE
  5
276
100
AcDbEntity
  8
0
100
AcDbLine
 62
7
  6
CONTINUOUS
 10
420.1065551753
 20
233.851137351
 11
423.8209164601
 21
248.2653868073
  0
LINE
  5
277
100
AcDbEntity
  8
0
100
AcDbLine
 62
7
  6
CONTINUOUS
 10
341.4974532648
 20
285.181852955
 11
350.6130207482
 21
285.181852955
  0
LINE
  5
278
100
AcDbEntity
  8
0
100
AcDbLine
 62
7
  6
CONTINUOUS
 10
339.4974532648
 20
286.081852955
 11
341.4974532645
 21
286.081852955
  0
LINE
  5
279
100
AcDbEntity
  8
0
100
AcDbLine
 62
9
  6
CONTINUOUS
 10
351.053663791
 20
287.9158268612
 11
350.2974532647
 21
287.9158268612
  0
LINE
  5
27A
100
AcDbEntity
  8
0
100
AcDbLine
 62
9
  6
CONTINUOUS
 10
350.2974532647
 20
289.1972314236
 11
351.053663791
 21
289.1972314236
  0
LINE
  5
27B
100
AcDbEntity
  8
0
100
AcDbLine
 62
9
  6
CONTINUOUS
 10
423.8210152666
 20
248.2657702339
 11
423.8000929681
 21
249.1834582824
  0
LINE
  5
27C
100
AcDbEntity
  8
0
100
AcDbLine
 62
7
  6
CONTINUOUS
 10
423.9474532647
 20
249.2636666877
 11
423.9474532647
 21
311.838746943
  0
LWPOLYLINE
  5
27D
100
AcDbEntity
  8
0
100
AcDbPolyline
 62
7
  6
CONTINUOUS
 90
5
 70
0
 10
423.8401032417
 20
219.2898898986
 10
423.8836226656
 20
220.036438228
 10
423.6594259881
 20
221.2223980336
 10
423.0916813615
 20
222.2874875376
 10
422.8631127742
 20
222.5665318094
  0
LINE
  5
27E
100
AcDbEntity
  8
0
100
AcDbLine
 62
7
  6
CONTINUOUS
 10
417.9974532636
 20
175.2465602639
 11
418.3318923404
 21
177.4407234579
  0
LINE
  5
27F
100
AcDbEntity
  8
0
100
AcDbLine
 62
7
  6
CONTINUOUS
 10
420.6269486305
 20
198.2915217508
 11
423.8401275841
 21
219.2897402434
  0
LWPOLYLINE
  5
280
100
AcDbEntity
  8
0
100
AcDbPolyline
 62
7
  6
CONTINUOUS
 90
4
 70
0
 10
420.8203508774
 20
189.2128068309
 10
420.959680071
 20
190.1233405358
 10
420.9616779478
 20
191.6076897764
 10
420.8094628
 20
192.5900943083
  0
LWPOLYLINE
  5
281
100
AcDbEntity
  8
0
100
AcDbPolyline
 62
7
  6
CONTINUOUS
 90
3
 70
0
 10
418.3316008788
 20
177.4391015127
 10
418.394951224
 20
177.7991594859
 10
418.4149487723
 20
177.8961964961
  0
LINE
  5
282
100
AcDbEntity
  8
0
100
AcDbLine
 62
7
  6
CONTINUOUS
 10
418.4150029383
 20
177.8962697214
 11
420.8204047198
 21
189.2127953681
  0
LINE
  5
283
100
AcDbEntity
  8
0
100
AcDbLine
 62
9
  6
CONTINUOUS
 10
422.8632175902
 20
222.5666250693
 11
421.5186172296
 21
221.3699709522
  0
LINE
  5
284
100
AcDbEntity
  8
0
100
AcDbLine
 62
9
  6
CONTINUOUS
 10
420.6269484993
 20
198.2915208933
 11
416.5770218986
 21
195.9532946803
  0
LINE
  5
285
100
AcDbEntity
  8
0
100
AcDbLine
 62
7
  6
CONTINUOUS
 10
386.3180437428
 20
320.4448158679
 11
386.9474532643
 21
320.6134656419
  0
LINE
  5
286
100
AcDbEntity
  8
0
100
AcDbLine
 62
9
  6
CONTINUOUS
 10
405.4474532646
 20
315.561852955
 11
413.4565152965
 21
315.561852955
  0
LINE
  5
287
100
AcDbEntity
  8
0
100
AcDbLine
 62
7
  6
CONTINUOUS
 10
405.4474532647
 20
315.961852955
 11
417.9326280354
 21
315.961852955
  0
LINE
  5
288
100
AcDbEntity
  8
0
100
AcDbLine
 62
7
  6
CONTINUOUS
 10
386.9474532643
 20
319.3102402681
 11
386.3180437428
 21
319.478890042
  0
LINE
  5
289
100
AcDbEntity
  8
0
100
AcDbLine
 62
9
  6
CONTINUOUS
 10
405.4474532646
 20
320.2261522004
 11
399.292531988
 21
326.381073477
  0
LINE
  5
28A
100
AcDbEntity
  8
0
100
AcDbLine
 62
9
  6
CONTINUOUS
 10
399.292531988
 20
326.381073477
 11
395.110695037
 21
326.285162334
  0
LINE
  5
28B
100
AcDbEntity
  8
0
100
AcDbLine
 62
7
  6
CONTINUOUS
 10
413.0868893235
 20
323.961852955
 11
405.4474532647
 21
323.961852955
  0
LINE
  5
28C
100
AcDbEntity
  8
0
100
AcDbLine
 62
9
  6
CONTINUOUS
 10
413.3517914092
 20
324.171053237
 11
405.4474006234
 21
324.171053237
  0
LINE
  5
28D
100
AcDbEntity
  8
0
100
AcDbLine
 62
9
  6
CONTINUOUS
 10
386.9474532645
 20
326.2236875445
 11
388.3474532647
 21
326.2230079726
  0
LINE
  5
28E
100
AcDbEntity
  8
0
100
AcDbLine
 62
9
  6
CONTINUOUS
 10
359.2131980122
 20
326.224367097
 11
386.9474532645
 21
326.2236875445
  0
LINE
  5
28F
100
AcDbEntity
  8
0
100
AcDbLine
 62
9
  6
CONTINUOUS
 10
413.4565152965
 20
315.561852955
 11
419.1116891443
 21
313.5541515671
  0
LINE
  5
290
100
AcDbEntity
  8
0
100
AcDbLine
 62
9
  6
CONTINUOUS
 10
422.4012640387
 20
312.3880250029
 11
423.9474533318
 21
311.8387443342
  0
LINE
  5
291
100
AcDbEntity
  8
0
100
AcDbLine
 62
9
  6
CONTINUOUS
 10
416.5060365603
 20
314.4791438555
 11
423.6388760813
 21
311.9485087157
  0
LINE
  5
292
100
AcDbEntity
  8
0
100
AcDbLine
 62
7
  6
CONTINUOUS
 10
406.5781602091
 20
334.1786027468
 11
420.432734639
 21
320.3240283169
  0
LINE
  5
293
100
AcDbEntity
  8
0
100
AcDbLine
 62
9
  6
CONTINUOUS
 10
400.5946388231
 20
336.1639259086
 11
399.8604558833
 21
336.961852955
  0
LINE
  5
294
100
AcDbEntity
  8
0
100
AcDbLine
 62
9
  6
CONTINUOUS
 10
399.9415393146
 20
336.8731783694
 11
399.8604558833
 21
336.961852955
  0
LINE
  5
295
100
AcDbEntity
  8
0
100
AcDbLine
 62
7
  6
CONTINUOUS
 10
398.6974432939
 20
336.95700621
 11
398.7474532652
 21
336.961852955
  0
LINE
  5
296
100
AcDbEntity
  8
0
100
AcDbLine
 62
7
  6
CONTINUOUS
 10
398.7474532652
 20
336.961852955
 11
398.6974432939
 21
336.9570132726
  0
LINE
  5
297
100
AcDbEntity
  8
0
100
AcDbLine
 62
9
  6
CONTINUOUS
 10
385.4157734954
 20
335.5955713813
 11
385.6874532649
 21
335.618092322
  0
LINE
  5
298
100
AcDbEntity
  8
0
100
AcDbLine
 62
9
  6
CONTINUOUS
 10
385.4154178208
 20
335.6010652378
 11
385.6874532649
 21
335.618092322
  0
LINE
  5
299
100
AcDbEntity
  8
0
100
AcDbLine
 62
7
  6
CONTINUOUS
 10
375.1974632355
 20
336.009392856
 11
375.1474532647
 21
336.0083431142
  0
LINE
  5
29A
100
AcDbEntity
  8
0
100
AcDbLine
 62
9
  6
CONTINUOUS
 10
387.9218778428
 20
335.6165009589
 11
388.3474532676
 21
335.6165016682
  0
LINE
  5
29B
100
AcDbEntity
  8
0
100
AcDbLine
 62
9
  6
CONTINUOUS
 10
385.6874532649
 20
335.6180923215
 11
385.9694183959
 21
335.6180923215
  0
LINE
  5
29C
100
AcDbEntity
  8
0
100
AcDbLine
 62
7
  6
CONTINUOUS
 10
399.8603915553
 20
336.961852955
 11
398.7474532647
 21
336.961852955
  0
LINE
  5
29D
100
AcDbEntity
  8
0
100
AcDbLine
 62
9
  6
CONTINUOUS
 10
388.4474532647
 20
338.605301962
 11
385.4474532647
 21
338.605301962
  0
LINE
  5
29E
100
AcDbEntity
  8
0
100
AcDbLine
 62
7
  6
CONTINUOUS
 10
398.74739916
 20
347.661852955
 11
388.4474532647
 21
347.661852955
  0
LINE
  5
29F
100
AcDbEntity
  8
0
100
AcDbLine
 62
7
  6
CONTINUOUS
 10
385.4474532647
 20
347.661852955
 11
375.1475073694
 21
347.661852955
  0
LINE
  5
2A0
100
AcDbEntity
  8
0
100
AcDbLine
 62
9
  6
CONTINUOUS
 10
398.7091640624
 20
348.269464512
 11
388.4474532647
 21
348.269464512
  0
LINE
  5
2A1
100
AcDbEntity
  8
0
100
AcDbLine
 62
9
  6
CONTINUOUS
 10
385.4474532647
 20
348.269464512
 11
375.185742467
 21
348.269464512
  0
LINE
  5
2A2
100
AcDbEntity
  8
0
100
AcDbLine
 62
7
  6
CONTINUOUS
 10
368.4439324872
 20
363.1128148493
 11
383.9474532647
 21
354.1618529553
  0
LINE
  5
2A3
100
AcDbEntity
  8
0
100
AcDbLine
 62
7
  6
CONTINUOUS
 10
369.9439324871
 20
365.7108910607
 11
385.4474532648
 21
356.7599291666
  0
LINE
  5
2A4
100
AcDbEntity
  8
0
100
AcDbLine
 62
9
  6
CONTINUOUS
 10
385.4474532647
 20
351.563776744
 11
388.4474532647
 21
351.563776744
  0
LINE
  5
2A5
100
AcDbEntity
  8
0
100
AcDbLine
 62
7
  6
CONTINUOUS
 10
380.1613662019
 20
359.811852955
 11
397.2717926209
 21
359.811852955
  0
LINE
  5
2A6
100
AcDbEntity
  8
0
100
AcDbLine
 62
7
  6
CONTINUOUS
 10
395.5974532647
 20
365.311852955
 11
378.2974532647
 21
365.311852955
  0
LINE
  5
2A7
100
AcDbEntity
  8
0
100
AcDbLine
 62
7
  6
CONTINUOUS
 10
378.2974532647
 20
368.311852955
 11
395.596783544
 21
368.311852955
  0
LINE
  5
2A8
100
AcDbEntity
  8
0
100
AcDbLine
 62
7
  6
CONTINUOUS
 10
394.5974532647
 20
373.811852955
 11
379.2974532647
 21
373.811852955
  0
LINE
  5
2A9
100
AcDbEntity
  8
0
100
AcDbLine
 62
7
  6
CONTINUOUS
 10
379.2974532647
 20
376.811852955
 11
394.5974094252
 21
376.811852955
  0
LINE
  5
2AA
100
AcDbEntity
  8
0
100
AcDbLine
 62
7
  6
CONTINUOUS
 10
393.6974532647
 20
382.311852955
 11
380.1974532647
 21
382.311852955
  0
LINE
  5
2AB
100
AcDbEntity
  8
0
100
AcDbLine
 62
7
  6
CONTINUOUS
 10
380.1974532647
 20
385.311852955
 11
393.6974145826
 21
385.311852955
  0
LINE
  5
2AC
100
AcDbEntity
  8
0
100
AcDbLine
 62
7
  6
CONTINUOUS
 10
392.5974532647
 20
390.811852955
 11
381.2974532647
 21
390.811852955
  0
LINE
  5
2AD
100
AcDbEntity
  8
0
100
AcDbLine
 62
7
  6
CONTINUOUS
 10
392.5974532647
 20
393.811852955
 11
381.2974532647
 21
393.811852955
  0
ARC
  5
2AE
100
AcDbEntity
  8
0
100
AcDbCircle
 62
9
  6
CONTINUOUS
 10
-31.6740570265
 20
731.8971768872
 40
682.6578996597
100
AcDbArc
 50
311.3840082219
 51
311.5838458018
  0
ARC
  5
2AF
100
AcDbEntity
  8
0
100
AcDbCircle
 62
9
  6
CONTINUOUS
 10
323.8612210863
 20
117.9463466736
 40
89.4174481311
100
AcDbArc
 50
59.8832075334
 51
60.1838806064
  0
ARC
  5
2B0
100
AcDbEntity
  8
0
100
AcDbCircle
 62
9
  6
CONTINUOUS
 10
299.4039870118
 20
172.2310961908
 40
79.9498481303
100
AcDbArc
 50
1.5009006126
 51
2.7701412434
  0
ARC
  5
2B1
100
AcDbEntity
  8
0
100
AcDbCircle
 62
9
  6
CONTINUOUS
 10
303.2342668223
 20
160.8495592885
 40
77.1536012733
100
AcDbArc
 50
10.0267292292
 51
11.3728922307
  0
ARC
  5
2B2
100
AcDbEntity
  8
0
100
AcDbCircle
 62
9
  6
CONTINUOUS
 10
335.1087309982
 20
324.9117306095
 40
60.0176844619
100
AcDbArc
 50
1.3108198511
 51
2.5383787786
  0
ARC
  5
2B3
100
AcDbEntity
  8
0
100
AcDbCircle
 62
9
  6
CONTINUOUS
 10
351.3486994856
 20
326.1074591378
 40
43.7313865908
100
AcDbArc
 50
5.8614185027
 51
6.0545285319
  0
ARC
  5
2B4
100
AcDbEntity
  8
0
100
AcDbCircle
 62
9
  6
CONTINUOUS
 10
357.0002742268
 20
178.7820331348
 40
16.2559890956
100
AcDbArc
 50
358.7720381967
 51
0.2488212766
  0
ARC
  5
2B5
100
AcDbEntity
  8
0
100
AcDbCircle
 62
9
  6
CONTINUOUS
 10
357.6257472975
 20
178.7595937937
 40
15.6301813944
100
AcDbArc
 50
357.2464369064
 51
358.8051399279
  0
ARC
  5
2B6
100
AcDbEntity
  8
0
100
AcDbCircle
 62
9
  6
CONTINUOUS
 10
358.9872828409
 20
178.698677162
 40
14.2672921583
100
AcDbArc
 50
355.7642555181
 51
357.2281156312
  0
ARC
  5
2B7
100
AcDbEntity
  8
0
100
AcDbCircle
 62
7
  6
CONTINUOUS
 10
358.2974532647
 20
287.9158268612
 40
8.0
100
AcDbArc
 50
180.0
 51
188.3499999999
  0
ARC
  5
2B8
100
AcDbEntity
  8
0
100
AcDbCircle
 62
7
  6
CONTINUOUS
 10
358.2974532647
 20
289.1972314236
 40
8.0
100
AcDbArc
 50
167.38
 51
180.0
  0
ARC
  5
2B9
100
AcDbEntity
  8
0
100
AcDbCircle
 62
9
  6
CONTINUOUS
 10
364.5259285258
 20
189.7667550442
 40
7.0082758288
100
AcDbArc
 50
38.2685656625
 51
40.85138609
  0
ARC
  5
2BA
100
AcDbEntity
  8
0
100
AcDbCircle
 62
9
  6
CONTINUOUS
 10
358.0400273949
 20
289.1947720608
 40
6.9863706137
100
AcDbArc
 50
167.3342884698
 51
179.9798305708
  0
ARC
  5
2BB
100
AcDbEntity
  8
0
100
AcDbCircle
 62
9
  6
CONTINUOUS
 10
358.0271152184
 20
287.9165394782
 40
6.9734503075
100
AcDbArc
 50
180.0058550542
 51
188.387935726
  0
ARC
  5
2BC
100
AcDbEntity
  8
0
100
AcDbCircle
 62
7
  6
CONTINUOUS
 10
362.5404980234
 20
331.0334364204
 40
2.9999989826
100
AcDbArc
 50
100.7532404571
 51
167.38
  0
ARC
  5
2BD
100
AcDbEntity
  8
0
100
AcDbCircle
 62
9
  6
CONTINUOUS
 10
362.169860645
 20
329.7156233974
 40
2.9262363938
100
AcDbArc
 50
150.2257758086
 51
167.3756411498
  0
ARC
  5
2BE
100
AcDbEntity
  8
0
100
AcDbCircle
 62
7
  6
CONTINUOUS
 10
366.9435162568
 20
196.4068529549
 40
1.9999999999
100
AcDbArc
 50
179.9999999989
 51
269.9999999993
  0
ARC
  5
2BF
100
AcDbEntity
  8
0
100
AcDbCircle
 62
7
  6
CONTINUOUS
 10
339.4974532648
 20
257.2302138979
 40
2.0
100
AcDbArc
 50
180.0
 51
270.0
  0
ARC
  5
2C0
100
AcDbEntity
  8
0
100
AcDbCircle
 62
7
  6
CONTINUOUS
 10
339.4974532648
 20
283.4334920121
 40
2.0
100
AcDbArc
 50
90.0
 51
180.0
  0
ARC
  5
2C1
100
AcDbEntity
  8
0
100
AcDbCircle
 62
7
  6
CONTINUOUS
 10
364.0435162568
 20
198.831852955
 40
0.5
100
AcDbArc
 50
180.0
 51
270.0
  0
ARC
  5
2C2
100
AcDbEntity
  8
0
100
AcDbCircle
 62
7
  6
CONTINUOUS
 10
359.0435162568
 20
228.831852955
 40
0.5
100
AcDbArc
 50
180.0
 51
259.7992794112
  0
ARC
  5
2C3
100
AcDbEntity
  8
0
100
AcDbCircle
 62
9
  6
CONTINUOUS
 10
397.6116351455
 20
142.9149999832
 40
193.0716640534
100
AcDbArc
 50
93.6217502882
 51
100.7263622924
  0
ARC
  5
2C4
100
AcDbEntity
  8
0
100
AcDbCircle
 62
7
  6
CONTINUOUS
 10
397.6174532689
 20
146.334795309
 40
191.0000000182
100
AcDbArc
 50
96.7561493397
 51
100.7532404571
  0
ARC
  5
2C5
100
AcDbEntity
  8
0
100
AcDbCircle
 62
9
  6
CONTINUOUS
 10
379.512493163
 20
153.1401597105
 40
22.8517916662
100
AcDbArc
 50
74.3231132794
 51
80.2145711748
  0
ARC
  5
2C6
100
AcDbEntity
  8
0
100
AcDbCircle
 62
7
  6
CONTINUOUS
 10
381.4474532647
 20
110.1621198247
 40
8.5
100
AcDbArc
 50
180.0000000054
 51
255.5499999989
  0
ARC
  5
2C7
100
AcDbEntity
  8
0
100
AcDbCircle
 62
9
  6
CONTINUOUS
 10
378.0203341121
 20
322.9797027017
 40
127.8210094964
100
AcDbArc
 50
265.6490258288
 51
265.8894386807
  0
ARC
  5
2C8
100
AcDbEntity
  8
0
100
AcDbCircle
 62
9
  6
CONTINUOUS
 10
394.4330632964
 20
343.8211698144
 40
16.8600261834
100
AcDbArc
 50
313.4583836235
 51
315.0909869962
  0
ARC
  5
2C9
100
AcDbEntity
  8
0
100
AcDbCircle
 62
9
  6
CONTINUOUS
 10
372.18798575
 20
323.4086913377
 40
13.2767897784
100
AcDbArc
 50
166.6353732746
 51
167.7560171728
  0
ARC
  5
2CA
100
AcDbEntity
  8
0
100
AcDbCircle
 62
9
  6
CONTINUOUS
 10
371.8536435804
 20
323.4890504676
 40
12.9329272427
100
AcDbArc
 50
164.8565728917
 51
166.6393632256
  0
ARC
  5
2CB
100
AcDbEntity
  8
0
100
AcDbCircle
 62
9
  6
CONTINUOUS
 10
370.9579872365
 20
323.7383309103
 40
12.0032534123
100
AcDbArc
 50
161.0412550868
 51
164.8882979753
  0
ARC
  5
2CC
100
AcDbEntity
  8
0
100
AcDbCircle
 62
9
  6
CONTINUOUS
 10
370.1888913442
 20
323.9946750212
 40
11.1925983866
100
AcDbArc
 50
160.633741597
 51
161.0032136311
  0
ARC
  5
2CD
100
AcDbEntity
  8
0
100
AcDbCircle
 62
7
  6
CONTINUOUS
 10
399.8603915553
 20
327.4614528675
 40
9.4999526514
100
AcDbArc
 50
45.0
 51
90.0
  0
ARC
  5
2CE
100
AcDbEntity
  8
0
100
AcDbCircle
 62
9
  6
CONTINUOUS
 10
400.7735149554
 20
326.8785312847
 40
9.2669227371
100
AcDbArc
 50
49.9094366371
 51
51.5173932977
  0
ARC
  5
2CF
100
AcDbEntity
  8
0
100
AcDbCircle
 62
9
  6
CONTINUOUS
 10
400.9185546664
 20
327.0472955981
 40
9.044408455
100
AcDbArc
 50
45.0181288309
 51
49.9238520778
  0
ARC
  5
2D0
100
AcDbEntity
  8
0
100
AcDbCircle
 62
7
  6
CONTINUOUS
 10
382.4474532647
 20
351.563776744
 40
6.0
100
AcDbArc
 50
0.0
 51
59.9999999988
  0
ARC
  5
2D1
100
AcDbEntity
  8
0
100
AcDbCircle
 62
7
  6
CONTINUOUS
 10
382.4474532647
 20
351.563776744
 40
3.0
100
AcDbArc
 50
0.0
 51
59.9999999998
  0
ARC
  5
2D2
100
AcDbEntity
  8
0
100
AcDbCircle
 62
7
  6
CONTINUOUS
 10
369.1939324871
 20
364.411852955
 40
1.5
100
AcDbArc
 50
60.000000004
 51
240.000000004
  0
ARC
  5
2D3
100
AcDbEntity
  8
0
100
AcDbCircle
 62
7
  6
CONTINUOUS
 10
378.2974532647
 20
366.811852955
 40
1.5
100
AcDbArc
 50
90.0000000141
 51
270.0
  0
ARC
  5
2D4
100
AcDbEntity
  8
0
100
AcDbCircle
 62
7
  6
CONTINUOUS
 10
395.5974532647
 20
366.811852955
 40
1.5
100
AcDbArc
 50
270.0
 51
90.0
  0
ARC
  5
2D5
100
AcDbEntity
  8
0
100
AcDbCircle
 62
7
  6
CONTINUOUS
 10
379.2974532647
 20
375.311852955
 40
1.5
100
AcDbArc
 50
90.0000000141
 51
270.0
  0
ARC
  5
2D6
100
AcDbEntity
  8
0
100
AcDbCircle
 62
7
  6
CONTINUOUS
 10
394.5974532647
 20
375.311852955
 40
1.5
100
AcDbArc
 50
270.0
 51
89.9999999894
  0
ARC
  5
2D7
100
AcDbEntity
  8
0
100
AcDbCircle
 62
7
  6
CONTINUOUS
 10
380.1974532647
 20
383.811852955
 40
1.5
100
AcDbArc
 50
90.0
 51
270.0
  0
ARC
  5
2D8
100
AcDbEntity
  8
0
100
AcDbCircle
 62
7
  6
CONTINUOUS
 10
393.6974532647
 20
383.811852955
 40
1.5
100
AcDbArc
 50
270.0
 51
89.9999999975
  0
ARC
  5
2D9
100
AcDbEntity
  8
0
100
AcDbCircle
 62
7
  6
CONTINUOUS
 10
392.5974532647
 20
392.311852955
 40
1.5
100
AcDbArc
 50
270.0
 51
90.0
  0
ARC
  5
2DA
100
AcDbEntity
  8
0
100
AcDbCircle
 62
7
  6
CONTINUOUS
 10
381.2974532647
 20
392.311852955
 40
1.5
100
AcDbArc
 50
90.0000000141
 51
270.0
  0
ARC
  5
2DB
100
AcDbEntity
  8
0
100
AcDbCircle
 62
7
  6
CONTINUOUS
 10
386.4474532647
 20
319.961852955
 40
0.5
100
AcDbArc
 50
104.9999999322
 51
255.0000000678
  0
ARC
  5
2DC
100
AcDbEntity
  8
0
100
AcDbCircle
 62
7
  6
CONTINUOUS
 10
385.5638253812
 20
335.7190030445
 40
0.2034432827
100
AcDbArc
 50
127.9312485407
 51
131.4407991354
  0
ARC
  5
2DD
100
AcDbEntity
  8
0
100
AcDbCircle
 62
7
  6
CONTINUOUS
 10
385.5425377749
 20
335.9094391036
 40
0.1840579455
100
AcDbArc
 50
232.8431547158
 51
236.084581047
  0
ARC
  5
2DE
100
AcDbEntity
  8
0
100
AcDbCircle
 62
7
  6
CONTINUOUS
 10
436.0474532647
 20
195.9318529549
 40
15.6
100
AcDbArc
 50
171.3000031859
 51
192.3693991289
  0
ARC
  5
2DF
100
AcDbEntity
  8
0
100
AcDbCircle
 62
9
  6
CONTINUOUS
 10
403.098021976
 20
213.4092339802
 40
13.3283980327
100
AcDbArc
 50
358.607356014
 51
2.600084711
  0
ARC
  5
2E0
100
AcDbEntity
  8
0
100
AcDbCircle
 62
7
  6
CONTINUOUS
 10
432.0174532647
 20
230.781852955
 40
12.3
100
AcDbArc
 50
165.55
 51
221.9055514912
  0
ARC
  5
2E1
100
AcDbEntity
  8
0
100
AcDbCircle
 62
9
  6
CONTINUOUS
 10
405.8260103887
 20
213.515824543
 40
11.9016565239
100
AcDbArc
 50
357.717504878
 51
2.6827084092
  0
ARC
  5
2E2
100
AcDbEntity
  8
0
100
AcDbCircle
 62
9
  6
CONTINUOUS
 10
411.0319239072
 20
192.3643487208
 40
8.4869834835
100
AcDbArc
 50
348.462816076
 51
5.3547672977
  0
ARC
  5
2E3
100
AcDbEntity
  8
0
100
AcDbCircle
 62
9
  6
CONTINUOUS
 10
420.077397467
 20
194.8901612622
 40
5.5969338364
100
AcDbArc
 50
176.6363764189
 51
178.7464331573
  0
ARC
  5
2E4
100
AcDbEntity
  8
0
100
AcDbCircle
 62
7
  6
CONTINUOUS
 10
412.9972229758
 20
106.2207779556
 40
4.9999959786
100
AcDbArc
 50
272.15
 51
360.0
  0
ARC
  5
2E5
100
AcDbEntity
  8
0
100
AcDbCircle
 62
9
  6
CONTINUOUS
 10
422.4095471975
 20
178.3826027209
 40
4.3967371262
100
AcDbArc
 50
153.1578286164
 51
158.5940628417
  0
ARC
  5
2E6
100
AcDbEntity
  8
0
100
AcDbCircle
 62
9
  6
CONTINUOUS
 10
419.8027997538
 20
195.7532319503
 40
3.2319723067
100
AcDbArc
 50
176.4510235178
 51
178.658044033
  0
ARC
  5
2E7
100
AcDbEntity
  8
0
100
AcDbCircle
 62
9
  6
CONTINUOUS
 10
421.3246333536
 20
301.4721388492
 40
67.0769825625
100
AcDbArc
 50
155.4575546751
 51
155.5812058815
  0
ARC
  5
2E8
100
AcDbEntity
  8
0
100
AcDbCircle
 62
7
  6
CONTINUOUS
 10
411.9474532647
 20
311.838746943
 40
12.0
100
AcDbArc
 50
0.0
 51
44.999999999
  0
ARC
  5
2E9
100
AcDbEntity
  8
0
100
AcDbCircle
 62
9
  6
CONTINUOUS
 10
420.3883499867
 20
250.1967468909
 40
3.5590318325
100
AcDbArc
 50
343.4581849414
 51
359.9499164455
  0
ARC
  5
2EA
100
AcDbEntity
  8
0
100
AcDbCircle
 62
9
  6
CONTINUOUS
 10
417.683420298
 20
315.5636590593
 40
0.5372610137
100
AcDbArc
 50
5.0497289988
 51
11.0589036319
  0
ARC
  5
2EB
100
AcDbEntity
  8
0
100
AcDbCircle
 62
9
  6
CONTINUOUS
 10
397.4823402852
 20
694.9139277065
 40
519.6991909021
100
AcDbArc
 50
269.5349861957
 51
270.2858743625
  0
ARC
  5
2EC
100
AcDbEntity
  8
0
100
AcDbCircle
 62
9
  6
CONTINUOUS
 10
388.3316927436
 20
695.9348923068
 40
369.7118847128
100
AcDbArc
 50
270.0024424731
 51
271.0506258242
  0
ARC
  5
2ED
100
AcDbEntity
  8
0
100
AcDbCircle
 62
7
  6
CONTINUOUS
 10
368.7931250097
 20
659.3946763174
 40
323.4486973277
100
AcDbArc
 50
271.1315676123
 51
272.9507189773
  0
ARC
  5
2EE
100
AcDbEntity
  8
0
100
AcDbCircle
 62
9
  6
CONTINUOUS
 10
388.3304129464
 20
542.6043146252
 40
206.9878282559
100
AcDbArc
 50
270.0465048491
 51
271.4633774981
  0
ARC
  5
2EF
100
AcDbEntity
  8
0
100
AcDbCircle
 62
9
  6
CONTINUOUS
 10
391.1916208445
 20
2710.7285372852
 40
2395.2701084834
100
AcDbArc
 50
270.5325954698
 51
270.6465041637
  0
SPLINE
  5
2F0
100
AcDbEntity
  8
0
100
AcDbSpline
 62
9
  6
CONTINUOUS
 70
0
 71
3
 72
14
 73
10
 74
0
 42
0.0000001
 43
0.0000001
 44
0.0000000001
 40
0.0
 40
0.0
 40
0.0
 40
0.0
 40
0.3182159739
 40
0.4662501288
 40
0.6017856006
 40
0.7222761619
 40
0.8269580008
 40
0.9177648688
 40
1.0
 40
1.0
 40
1.0
 40
1.0
 10
386.9474532647
 20
337.1053019629
 30
0.0
 10
387.1397525518
 20
337.1053019629
 30
0.0
 10
387.4229023279
 20
337.0789346715
 30
0.0
 10
387.7752446232
 20
336.9864148922
 30
0.0
 10
388.0025483718
 20
336.8950547755
 30
0.0
 10
388.1908930233
 20
336.7832275704
 30
0.0
 10
388.3338485454
 20
336.6541150369
 30
0.0
 10
388.4254525809
 20
336.5103574962
 30
0.0
 10
388.4474532647
 20
336.4049970079
 30
0.0
 10
388.4474532647
 20
336.355301963
 30
0.0
  0
SPLINE
  5
2F1
100
AcDbEntity
  8
0
100
AcDbSpline
 62
9
  6
CONTINUOUS
 70
0
 71
3
 72
14
 73
10
 74
0
 42
0.0000001
 43
0.0000001
 44
0.0000000001
 40
0.0
 40
0.0
 40
0.0
 40
0.0
 40
0.0822351312
 40
0.1730419992
 40
0.277723838
 40
0.3982143994
 40
0.5337498712
 40
0.6817840261
 40
1.0
 40
1.0
 40
1.0
 40
1.0
 10
385.4474532647
 20
336.3553019629
 30
0.0
 10
385.4474532647
 20
336.4049970078
 30
0.0
 10
385.4694539484
 20
336.5103574961
 30
0.0
 10
385.5610579839
 20
336.6541150368
 30
0.0
 10
385.704013506
 20
336.7832275704
 30
0.0
 10
385.8923581575
 20
336.8950547755
 30
0.0
 10
386.1196619061
 20
336.9864148922
 30
0.0
 10
386.4720042014
 20
337.0789346715
 30
0.0
 10
386.7551539776
 20
337.1053019629
 30
0.0
 10
386.9474532647
 20
337.1053019629
 30
0.0
  0
SPLINE
  5
2F2
100
AcDbEntity
  8
0
100
AcDbSpline
 62
7
  6
CONTINUOUS
 70
0
 71
3
 72
9
 73
5
 74
0
 42
0.0000001
 43
0.0000001
 44
0.0000000001
 40
0.0
 40
0.0
 40
0.0
 40
0.0
 40
0.2132046847
 40
1.0
 40
1.0
 40
1.0
 40
1.0
 10
385.39721196
 20
335.8164363481
 30
0.0
 10
385.3972087498
 20
335.811809381
 30
0.0
 10
385.4007448473
 20
335.7899591418
 30
0.0
 10
385.417768412
 20
335.773074151
 30
0.0
 10
385.4313669592
 20
335.7627476688
 30
0.0
  0
SPLINE
  5
2F3
100
AcDbEntity
  8
0
100
AcDbSpline
 62
7
  6
CONTINUOUS
 70
0
 71
3
 72
9
 73
5
 74
0
 42
0.0000001
 43
0.0000001
 44
0.0000000001
 40
0.0
 40
0.0
 40
0.0
 40
0.0
 40
0.2187475006
 40
1.0
 40
1.0
 40
1.0
 40
1.0
 10
385.4398392475
 20
335.7566963795
 30
0.0
 10
385.4440103938
 20
335.7538862178
 30
0.0
 10
385.463557948
 20
335.7417499668
 30
0.0
 10
385.4845620166
 20
335.7321108606
 30
0.0
 10
385.5012230127
 20
335.7253976684
 30
0.0
  0
SPLINE
  5
2F4
100
AcDbEntity
  8
0
100
AcDbSpline
 62
7
  6
CONTINUOUS
 70
0
 71
3
 72
9
 73
5
 74
0
 42
0.0000001
 43
0.0000001
 44
0.0000000001
 40
0.0
 40
0.0
 40
0.0
 40
0.0
 40
0.2071815747
 40
1.0
 40
1.0
 40
1.0
 40
1.0
 10
385.5012230127
 20
335.7253976684
 30
0.0
 10
385.5135989888
 20
335.7204110334
 30
0.0
 10
385.5742564219
 20
335.6986340318
 30
0.0
 10
385.6372998683
 20
335.6841826839
 30
0.0
 10
385.6874532639
 20
335.6746097863
 30
0.0
  0
SPLINE
  5
2F5
100
AcDbEntity
  8
0
100
AcDbSpline
 62
7
  6
CONTINUOUS
 70
0
 71
3
 72
9
 73
5
 74
0
 42
0.0000001
 43
0.0000001
 44
0.0000000001
 40
0.0
 40
0.0
 40
0.0
 40
0.0
 40
0.0852228905
 40
1.0
 40
1.0
 40
1.0
 40
1.0
 10
398.7389533189
 20
336.9610176524
 30
0.0
 10
398.4477824205
 20
336.9324475034
 30
0.0
 10
395.0301715224
 20
336.6087396831
 30
0.0
 10
391.5967349983
 20
336.4293901304
 30
0.0
 10
388.456564842
 20
336.3898232442
 30
0.0
  0
SPLINE
  5
2F6
100
AcDbEntity
  8
0
100
AcDbSpline
 62
7
  6
CONTINUOUS
 70
0
 71
3
 72
9
 73
5
 74
0
 42
0.0000001
 43
0.0000001
 44
0.0000000001
 40
0.0
 40
0.0
 40
0.0
 40
0.0
 40
0.2130465916
 40
1.0
 40
1.0
 40
1.0
 40
1.0
 10
385.9694183956
 20
335.6180923222
 30
0.0
 10
386.0383033634
 20
335.6074022505
 30
0.0
 10
386.3624222279
 20
335.5627371795
 30
0.0
 10
386.6899596353
 20
335.539804302
 30
0.0
 10
386.9474532647
 20
335.539804302
 30
0.0
  0
SPLINE
  5
2F7
100
AcDbEntity
  8
0
100
AcDbSpline
 62
7
  6
CONTINUOUS
 70
0
 71
3
 72
9
 73
5
 74
0
 42
0.0000001
 43
0.0000001
 44
0.0000000001
 40
0.0
 40
0.0
 40
0.0
 40
0.0
 40
0.2196490905
 40
1.0
 40
1.0
 40
1.0
 40
1.0
 10
385.6874532639
 20
335.6746097863
 30
0.0
 10
385.7078356156
 20
335.6693098495
 30
0.0
 10
385.801029298
 20
335.646714275
 30
0.0
 10
385.8954826878
 20
335.6295662045
 30
0.0
 10
385.9694183956
 20
335.6180923222
 30
0.0
  0
SPLINE
  5
2F8
100
AcDbEntity
  8
0
100
AcDbSpline
 62
7
  6
CONTINUOUS
 70
0
 71
3
 72
9
 73
5
 74
0
 42
0.0000001
 43
0.0000001
 44
0.0000000001
 40
0.0
 40
0.0
 40
0.0
 40
0.0
 40
0.6311672528
 40
1.0
 40
1.0
 40
1.0
 40
1.0
 10
387.9218778433
 20
335.6165009591
 30
0.0
 10
388.0379228359
 20
335.6344213953
 30
0.0
 10
388.2188045613
 20
335.6708650278
 30
0.0
 10
388.3999731683
 20
335.7315311853
 30
0.0
 10
388.454970522
 20
335.7725619821
 30
0.0
  0
SPLINE
  5
2F9
100
AcDbEntity
  8
0
100
AcDbSpline
 62
7
  6
CONTINUOUS
 70
0
 71
3
 72
9
 73
5
 74
0
 42
0.0000001
 43
0.0000001
 44
0.0000000001
 40
0.0
 40
0.0
 40
0.0
 40
0.0
 40
0.287998243
 40
1.0
 40
1.0
 40
1.0
 40
1.0
 10
388.454970522
 20
335.7725619821
 30
0.0
 10
388.4588951633
 20
335.7754899622
 30
0.0
 10
388.4721392991
 20
335.7860874259
 30
0.0
 10
388.4840406967
 20
335.7988580596
 30
0.0
 10
388.4899739818
 20
335.8094096654
 30
0.0
  0
SPLINE
  5
2FA
100
AcDbEntity
  8
0
100
AcDbSpline
 62
7
  6
CONTINUOUS
 70
0
 71
3
 72
8
 73
4
 74
0
 42
0.0000001
 43
0.0000001
 44
0.0000000001
 40
0.0
 40
0.0
 40
0.0
 40
0.0
 40
1.0
 40
1.0
 40
1.0
 40
1.0
 10
388.4899739818
 20
335.8094096654
 30
0.0
 10
388.4944718654
 20
335.817408589
 30
0.0
 10
388.4974566436
 20
335.8267267497
 30
0.0
 10
388.4974571292
 20
335.8359035539
 30
0.0
  0
SPLINE
  5
2FB
100
AcDbEntity
  8
0
100
AcDbSpline
 62
7
  6
CONTINUOUS
 70
0
 71
3
 72
9
 73
5
 74
0
 42
0.0000001
 43
0.0000001
 44
0.0000000001
 40
0.0
 40
0.0
 40
0.0
 40
0.0
 40
0.2793442756
 40
1.0
 40
1.0
 40
1.0
 40
1.0
 10
386.9474532647
 20
335.5388916909
 30
0.0
 10
387.0385271971
 20
335.5388916909
 30
0.0
 10
387.3645263184
 20
335.5474368692
 30
0.0
 10
387.6896766223
 20
335.5806429088
 30
0.0
 10
387.9218778433
 20
335.6165009591
 30
0.0
  0
SPLINE
  5
2FC
100
AcDbEntity
  8
0
100
AcDbSpline
 62
7
  6
CONTINUOUS
 70
0
 71
3
 72
13
 73
9
 74
0
 42
0.0000001
 43
0.0000001
 44
0.0000000001
 40
0.0
 40
0.0
 40
0.0
 40
0.0
 40
0.0605782723
 40
0.1418661685
 40
0.2429453901
 40
0.362673963
 40
0.6528955624
 40
1.0
 40
1.0
 40
1.0
 40
1.0
 10
417.5408638039
 20
175.231973557
 30
0.0
 10
417.3813875117
 20
175.2391773968
 30
0.0
 10
417.0073472422
 20
175.2396044223
 30
0.0
 10
416.3672419355
 20
175.2337044588
 30
0.0
 10
415.5711010847
 20
175.2343410923
 30
0.0
 10
414.2244329926
 20
175.237494698
 30
0.0
 10
412.2293901511
 20
175.2351205114
 30
0.0
 10
410.5498833392
 20
175.2318529757
 30
0.0
 10
409.6351762407
 20
175.2318529789
 30
0.0
  0
SPLINE
  5
2FD
100
AcDbEntity
  8
0
100
AcDbSpline
 62
9
  6
CONTINUOUS
 70
0
 71
3
 72
13
 73
9
 74
0
 42
0.0000001
 43
0.0000001
 44
0.0000000001
 40
0.0
 40
0.0
 40
0.0
 40
0.0
 40
0.0799767228
 40
0.169034585
 40
0.2727173256
 40
0.3929794747
 40
0.6776643236
 40
1.0
 40
1.0
 40
1.0
 40
1.0
 10
407.4308495953
 20
101.0082863962
 30
0.0
 10
407.5875466162
 20
101.0141848606
 30
0.0
 10
407.9185373119
 20
101.0991852862
 30
0.0
 10
408.3602068415
 20
101.4155329279
 30
0.0
 10
408.7498275703
 20
101.8965245214
 30
0.0
 10
409.2164877824
 20
102.7830280786
 30
0.0
 10
409.5820876842
 20
104.1781211638
 30
0.0
 10
409.6532962602
 20
105.3727951782
 30
0.0
 10
409.635012398
 20
106.0045246823
 30
0.0
  0
SPLINE
  5
2FE
100
AcDbEntity
  8
0
100
AcDbSpline
 62
7
  6
CONTINUOUS
 70
0
 71
3
 72
22
 73
18
 74
0
 42
0.0000001
 43
0.0000001
 44
0.0000000001
 40
0.0
 40
0.0
 40
0.0
 40
0.0
 40
0.0012208673
 40
0.0048504838
 40
0.0108747003
 40
0.0192762005
 40
0.0300373407
 40
0.0431403938
 40
0.0762494798
 40
0.118242431
 40
0.1687253674
 40
0.227233209
 40
0.2931721797
 40
0.4448329394
 40
0.617721322
 40
0.805189578
 40
1.0
 40
1.0
 40
1.0
 40
1.0
 10
388.3474532611
 20
100.291852955
 30
0.0
 10
388.345416205
 20
100.291852955
 30
0.0
 10
388.3487072801
 20
100.3047800826
 30
0.0
 10
388.3442454397
 20
100.318251193
 30
0.0
 10
388.3453032024
 20
100.3510011244
 30
0.0
 10
388.3430821122
 20
100.3918442646
 30
0.0
 10
388.3418310809
 20
100.4461044187
 30
0.0
 10
388.3388183069
 20
100.5409116594
 30
0.0
 10
388.3345181869
 20
100.6881561666
 30
0.0
 10
388.3291387819
 20
100.8975732129
 30
0.0
 10
388.3246212627
 20
101.1494768895
 30
0.0
 10
388.3206845625
 20
101.4413169913
 30
0.0
 10
388.3120607893
 20
101.901951936
 30
0.0
 10
388.2840274212
 20
102.5529111884
 30
0.0
 10
388.2568139822
 20
103.4069097938
 30
0.0
 10
388.2687438243
 20
104.3335129541
 30
0.0
 10
388.3125636048
 20
104.9704058666
 30
0.0
 10
388.3471411788
 20
105.29360892
 30
0.0
  0
SPLINE
  5
2FF
100
AcDbEntity
  8
0
100
AcDbSpline
 62
9
  6
CONTINUOUS
 70
0
 71
3
 72
13
 73
9
 74
0
 42
0.0000001
 43
0.0000001
 44
0.0000000001
 40
0.0
 40
0.0
 40
0.0
 40
0.0
 40
0.0189876252
 40
0.0763880351
 40
0.1699528609
 40
0.2951948482
 40
0.6181352875
 40
1.0
 40
1.0
 40
1.0
 40
1.0
 10
364.5332608192
 20
197.5839361418
 30
0.0
 10
364.5334425963
 20
197.5819776255
 30
0.0
 10
364.5442900391
 20
197.5926475899
 30
0.0
 10
364.5553067336
 20
197.5956544553
 30
0.0
 10
364.5815172553
 20
197.6146197875
 30
0.0
 10
364.6274032512
 20
197.6432389429
 30
0.0
 10
364.7001206223
 20
197.6916544703
 30
0.0
 10
364.7608552395
 20
197.7313887871
 30
0.0
 10
364.7938801508
 20
197.7531637665
 30
0.0
  0
SPLINE
  5
300
100
AcDbEntity
  8
0
100
AcDbSpline
 62
9
  6
CONTINUOUS
 70
0
 71
3
 72
11
 73
7
 74
0
 42
0.0000001
 43
0.0000001
 44
0.0000000001
 40
0.0
 40
0.0
 40
0.0
 40
0.0
 40
0.2453354303
 40
0.4952540015
 40
0.7470262765
 40
1.0
 40
1.0
 40
1.0
 40
1.0
 10
362.9060338389
 20
201.4280458166
 30
0.0
 10
362.9555437678
 20
201.0907266217
 30
0.0
 10
363.1629833238
 20
200.4272343759
 30
0.0
 10
363.6047898771
 20
199.4867728135
 30
0.0
 10
364.159105419
 20
198.5936514468
 30
0.0
 10
364.5802853316
 20
198.0323826574
 30
0.0
 10
364.793879688
 20
197.7531634548
 30
0.0
  0
SPLINE
  5
301
100
AcDbEntity
  8
0
100
AcDbSpline
 62
9
  6
CONTINUOUS
 70
0
 71
3
 72
10
 73
6
 74
0
 42
0.0000001
 43
0.0000001
 44
0.0000000001
 40
0.0
 40
0.0
 40
0.0
 40
0.0
 40
0.5098739287
 40
0.7595063413
 40
1.0
 40
1.0
 40
1.0
 40
1.0
 10
419.6655033668
 20
212.4944382696
 30
0.0
 10
418.9474647455
 20
209.7219594256
 30
0.0
 10
417.9191609225
 20
205.577816517
 30
0.0
 10
416.9461188832
 20
200.043274314
 30
0.0
 10
416.6536258277
 20
197.3019821999
 30
0.0
 10
416.5770585134
 20
195.9533058858
 30
0.0
  0
SPLINE
  5
302
100
AcDbEntity
  8
0
100
AcDbSpline
 62
9
  6
CONTINUOUS
 70
0
 71
3
 72
9
 73
5
 74
0
 42
0.0000001
 43
0.0000001
 44
0.0000000001
 40
0.0
 40
0.0
 40
0.0
 40
0.0
 40
0.244297685
 40
1.0
 40
1.0
 40
1.0
 40
1.0
 10
421.1425158688
 20
216.4094703969
 30
0.0
 10
421.0236024577
 20
216.0901479425
 30
0.0
 10
420.5365145318
 20
214.7831717245
 30
0.0
 10
420.0447194529
 20
213.477916501
 30
0.0
 10
419.6654982728
 20
212.4944472468
 30
0.0
  0
SPLINE
  5
303
100
AcDbEntity
  8
0
100
AcDbSpline
 62
9
  6
CONTINUOUS
 70
0
 71
3
 72
9
 73
5
 74
0
 42
0.0000001
 43
0.0000001
 44
0.0000000001
 40
0.0
 40
0.0
 40
0.0
 40
0.0
 40
0.2652104611
 40
1.0
 40
1.0
 40
1.0
 40
1.0
 10
418.1216793043
 20
218.8020730962
 30
0.0
 10
418.2683497647
 20
218.8552570228
 30
0.0
 10
418.8109318354
 20
219.0840874156
 30
0.0
 10
419.3081018968
 20
219.4165875867
 30
0.0
 10
419.6328116744
 20
219.7019073104
 30
0.0
  0
SPLINE
  5
304
100
AcDbEntity
  8
0
100
AcDbSpline
 62
9
  6
CONTINUOUS
 70
0
 71
3
 72
12
 73
8
 74
0
 42
0.0000001
 43
0.0000001
 44
0.0000000001
 40
0.0
 40
0.0
 40
0.0
 40
0.0
 40
0.2569081521
 40
0.3889182155
 40
0.5198506125
 40
0.7704124517
 40
1.0
 40
1.0
 40
1.0
 40
1.0
 10
410.6157254808
 20
218.425477156
 30
0.0
 10
411.1496082075
 20
218.0329934985
 30
0.0
 10
412.1835036098
 20
217.765479001
 30
0.0
 10
413.51819049
 20
217.7534750957
 30
0.0
 10
414.8397182035
 20
217.8903402154
 30
0.0
 10
416.3829592762
 20
218.2251087521
 30
0.0
 10
417.5648410099
 20
218.6004339009
 30
0.0
 10
418.1215724602
 20
218.8021864505
 30
0.0
  0
SPLINE
  5
305
100
AcDbEntity
  8
0
100
AcDbSpline
 62
9
  6
CONTINUOUS
 70
0
 71
3
 72
9
 73
5
 74
0
 42
0.0000001
 43
0.0000001
 44
0.0000000001
 40
0.0
 40
0.0
 40
0.0
 40
0.0
 40
0.5039844079
 40
1.0
 40
1.0
 40
1.0
 40
1.0
 10
409.7065916498
 20
219.6713116858
 30
0.0
 10
409.7947055
 20
219.4245171311
 30
0.0
 10
410.034571737
 20
218.9542010211
 30
0.0
 10
410.4077470118
 20
218.5780423694
 30
0.0
 10
410.6157718669
 20
218.4255864389
 30
0.0
  0
SPLINE
  5
306
100
AcDbEntity
  8
0
100
AcDbSpline
 62
9
  6
CONTINUOUS
 70
0
 71
3
 72
10
 73
6
 74
0
 42
0.0000001
 43
0.0000001
 44
0.0000000001
 40
0.0
 40
0.0
 40
0.0
 40
0.0
 40
0.2606723099
 40
0.5169433551
 40
1.0
 40
1.0
 40
1.0
 40
1.0
 10
410.5173529057
 20
225.4229315245
 30
0.0
 10
410.3209579126
 20
224.9496773303
 30
0.0
 10
409.9605275391
 20
223.9953599984
 30
0.0
 10
409.4550941228
 20
222.1076213352
 30
0.0
 10
409.3871078613
 20
220.5654647115
 30
0.0
 10
409.7067070455
 20
219.6713545152
 30
0.0
  0
SPLINE
  5
307
100
AcDbEntity
  8
0
100
AcDbSpline
 62
9
  6
CONTINUOUS
 70
0
 71
3
 72
9
 73
5
 74
0
 42
0.0000001
 43
0.0000001
 44
0.0000000001
 40
0.0
 40
0.0
 40
0.0
 40
0.0
 40
0.2479625969
 40
1.0
 40
1.0
 40
1.0
 40
1.0
 10
412.8227297322
 20
229.6458735329
 30
0.0
 10
412.6000699916
 20
229.3159665704
 30
0.0
 10
411.7298857736
 20
227.9673613429
 30
0.0
 10
410.9801460674
 20
226.5378368082
 30
0.0
 10
410.5173022735
 20
225.4229692401
 30
0.0
  0
SPLINE
  5
308
100
AcDbEntity
  8
0
100
AcDbSpline
 62
9
  6
CONTINUOUS
 70
0
 71
3
 72
16
 73
12
 74
0
 42
0.0000001
 43
0.0000001
 44
0.0000000001
 40
0.0
 40
0.0
 40
0.0
 40
0.0
 40
0.1111296011
 40
0.1851072607
 40
0.2137865875
 40
0.2427374321
 40
0.3179508443
 40
0.4307521039
 40
0.5837463161
 40
0.7746789476
 40
1.0
 40
1.0
 40
1.0
 40
1.0
 10
423.9474532647
 20
250.1936208212
 30
0.0
 10
423.947437345
 20
250.257803335
 30
0.0
 10
423.942288519
 20
250.3637465831
 30
0.0
 10
423.9012461671
 20
250.4873636829
 30
0.0
 10
423.8392273871
 20
250.5356037904
 30
0.0
 10
423.761320692
 20
250.549998439
 30
0.0
 10
423.6393991673
 20
250.5000993504
 30
0.0
 10
423.4843935583
 20
250.3799890329
 30
0.0
 10
423.2964920007
 20
250.1933544696
 30
0.0
 10
423.0811872821
 20
249.9450096795
 30
0.0
 10
422.9321162508
 20
249.7562315535
 30
0.0
 10
422.8530379326
 20
249.6528810846
 30
0.0
  0
SPLINE
  5
309
100
AcDbEntity
  8
0
100
AcDbSpline
 62
9
  6
CONTINUOUS
 70
0
 71
3
 72
9
 73
5
 74
0
 42
0.0000001
 43
0.0000001
 44
0.0000000001
 40
0.0
 40
0.0
 40
0.0
 40
0.0
 40
0.2341955474
 40
1.0
 40
1.0
 40
1.0
 40
1.0
 10
422.8530379326
 20
249.6528810846
 30
0.0
 10
422.8180549994
 20
249.6071605555
 30
0.0
 10
422.6700220708
 20
249.4109096346
 30
0.0
 10
422.5265213397
 20
249.2112749465
 30
0.0
 10
422.4181020134
 20
249.0573854515
 30
0.0
  0
SPLINE
  5
30A
100
AcDbEntity
  8
0
100
AcDbSpline
 62
9
  6
CONTINUOUS
 70
0
 71
3
 72
12
 73
8
 74
0
 42
0.0000001
 43
0.0000001
 44
0.0000000001
 40
0.0
 40
0.0
 40
0.0
 40
0.0
 40
0.0962369407
 40
0.2081637248
 40
0.4571628027
 40
0.7238694551
 40
1.0
 40
1.0
 40
1.0
 40
1.0
 10
422.4181020134
 20
249.0573854515
 30
0.0
 10
422.022111401
 20
248.4953196518
 30
0.0
 10
421.2047836639
 20
247.2522369694
 30
0.0
 10
419.463214776
 20
244.4893270638
 30
0.0
 10
417.1077190303
 20
240.6736579747
 30
0.0
 10
414.0806817401
 20
235.8942763766
 30
0.0
 10
411.9315205609
 20
232.6652490932
 30
0.0
 10
410.811980679
 20
231.0409113936
 30
0.0
  0
SPLINE
  5
30B
100
AcDbEntity
  8
0
100
AcDbSpline
 62
9
  6
CONTINUOUS
 70
0
 71
3
 72
9
 73
5
 74
0
 42
0.0000001
 43
0.0000001
 44
0.0000000001
 40
0.0
 40
0.0
 40
0.0
 40
0.0
 40
0.2489173768
 40
1.0
 40
1.0
 40
1.0
 40
1.0
 10
410.811980679
 20
231.0409113936
 30
0.0
 10
410.5481608643
 20
230.6581335862
 30
0.0
 10
409.5331385137
 20
229.0909416492
 30
0.0
 10
408.7139180864
 20
227.3889044722
 30
0.0
 10
408.272931414
 20
226.057276416
 30
0.0
  0
SPLINE
  5
30C
100
AcDbEntity
  8
0
100
AcDbSpline
 62
9
  6
CONTINUOUS
 70
0
 71
3
 72
9
 73
5
 74
0
 42
0.0000001
 43
0.0000001
 44
0.0000000001
 40
0.0
 40
0.0
 40
0.0
 40
0.0
 40
0.4261780902
 40
1.0
 40
1.0
 40
1.0
 40
1.0
 10
412.8227502863
 20
229.6458275616
 30
0.0
 10
412.5662123512
 20
229.8810167058
 30
0.0
 10
411.9055398976
 20
230.366318655
 30
0.0
 10
411.2151992657
 20
230.8021598938
 30
0.0
 10
410.8119803713
 20
231.040911395
 30
0.0
  0
SPLINE
  5
30D
100
AcDbEntity
  8
0
100
AcDbSpline
 62
9
  6
CONTINUOUS
 70
0
 71
3
 72
10
 73
6
 74
0
 42
0.0000001
 43
0.0000001
 44
0.0000000001
 40
0.0
 40
0.0
 40
0.0
 40
0.0
 40
0.2504644368
 40
0.6258467206
 40
1.0
 40
1.0
 40
1.0
 40
1.0
 10
408.272931414
 20
226.0585187115
 30
0.0
 10
408.1238732676
 20
225.4846432216
 30
0.0
 10
407.8114072148
 20
224.0343779535
 30
0.0
 10
407.6148531847
 20
221.6629508486
 30
0.0
 10
407.9409842761
 20
219.8773562324
 30
0.0
 10
408.2729314154
 20
219.0561886019
 30
0.0
  0
SPLINE
  5
30E
100
AcDbEntity
  8
0
100
AcDbSpline
 62
9
  6
CONTINUOUS
 70
0
 71
3
 72
9
 73
5
 74
0
 42
0.0000001
 43
0.0000001
 44
0.0000000001
 40
0.0
 40
0.0
 40
0.0
 40
0.0
 40
0.2112184719
 40
1.0
 40
1.0
 40
1.0
 40
1.0
 10
410.5165508886
 20
225.4210168772
 30
0.0
 10
410.3595624177
 20
225.4691783821
 30
0.0
 10
409.614524577
 20
225.6913584734
 30
0.0
 10
408.8648638237
 20
225.8977603824
 30
0.0
 10
408.2723137502
 20
226.0556751098
 30
0.0
  0
SPLINE
  5
30F
100
AcDbEntity
  8
0
100
AcDbSpline
 62
9
  6
CONTINUOUS
 70
0
 71
3
 72
13
 73
9
 74
0
 42
0.0000001
 43
0.0000001
 44
0.0000000001
 40
0.0
 40
0.0
 40
0.0
 40
0.0
 40
0.1414332626
 40
0.2808389981
 40
0.4163750412
 40
0.5467587379
 40
0.78835544
 40
1.0
 40
1.0
 40
1.0
 40
1.0
 10
408.2729314154
 20
219.0561885964
 30
0.0
 10
408.5294303718
 20
218.5574537608
 30
0.0
 10
409.2081392478
 20
217.641392412
 30
0.0
 10
410.6034249315
 20
216.7117287877
 30
0.0
 10
412.1350080901
 20
216.1861281755
 30
0.0
 10
414.1301108301
 20
215.876924096
 30
0.0
 10
416.4576911136
 20
215.9145273441
 30
0.0
 10
418.2385112033
 20
216.1822470558
 30
0.0
 10
419.0598641186
 20
216.3545849886
 30
0.0
  0
SPLINE
  5
310
100
AcDbEntity
  8
0
100
AcDbSpline
 62
9
  6
CONTINUOUS
 70
0
 71
3
 72
9
 73
5
 74
0
 42
0.0000001
 43
0.0000001
 44
0.0000000001
 40
0.0
 40
0.0
 40
0.0
 40
0.0
 40
0.2311903865
 40
1.0
 40
1.0
 40
1.0
 40
1.0
 10
409.7065946496
 20
219.6713047848
 30
0.0
 10
409.5968629969
 20
219.6221825176
 30
0.0
 10
409.1212396907
 20
219.411912298
 30
0.0
 10
408.6424147314
 20
219.2089166196
 30
0.0
 10
408.2729357067
 20
219.056188591
 30
0.0
  0
SPLINE
  5
311
100
AcDbEntity
  8
0
100
AcDbSpline
 62
9
  6
CONTINUOUS
 70
0
 71
3
 72
14
 73
10
 74
0
 42
0.0000001
 43
0.0000001
 44
0.0000000001
 40
0.0
 40
0.0
 40
0.0
 40
0.0
 40
0.1165827511
 40
0.2349425406
 40
0.3557858944
 40
0.4824992621
 40
0.6128222456
 40
0.7427894486
 40
1.0
 40
1.0
 40
1.0
 40
1.0
 10
421.1426684923
 20
216.4096201437
 30
0.0
 10
421.1459379622
 20
216.5549842339
 30
0.0
 10
421.1356222953
 20
216.8487036766
 30
0.0
 10
421.0584207055
 20
217.2874098382
 30
0.0
 10
420.9155024267
 20
217.7215461242
 30
0.0
 10
420.7607382103
 20
218.1663244219
 30
0.0
 10
420.5821500671
 20
218.6160309017
 30
0.0
 10
420.2484007476
 20
219.1714164032
 30
0.0
 10
419.8950629601
 20
219.5172581605
 30
0.0
 10
419.6327709407
 20
219.7019454964
 30
0.0
  0
SPLINE
  5
312
100
AcDbEntity
  8
0
100
AcDbSpline
 62
9
  6
CONTINUOUS
 70
0
 71
3
 72
9
 73
5
 74
0
 42
0.0000001
 43
0.0000001
 44
0.0000000001
 40
0.0
 40
0.0
 40
0.0
 40
0.0
 40
0.5855462983
 40
1.0
 40
1.0
 40
1.0
 40
1.0
 10
419.0599050431
 20
216.3545847821
 30
0.0
 10
419.4650223286
 20
216.3041934523
 30
0.0
 10
420.1629060885
 20
216.2662197036
 30
0.0
 10
420.8634980963
 20
216.3350639155
 30
0.0
 10
421.1426684923
 20
216.4096201437
 30
0.0
  0
SPLINE
  5
313
100
AcDbEntity
  8
0
100
AcDbSpline
 62
9
  6
CONTINUOUS
 70
0
 71
3
 72
9
 73
5
 74
0
 42
0.0000001
 43
0.0000001
 44
0.0000000001
 40
0.0
 40
0.0
 40
0.0
 40
0.0
 40
0.2388176534
 40
1.0
 40
1.0
 40
1.0
 40
1.0
 10
418.1215283237
 20
218.8021324526
 30
0.0
 10
418.2438090279
 20
218.6315795018
 30
0.0
 10
418.7072831145
 20
217.883616228
 30
0.0
 10
418.9788016546
 20
217.0185327806
 30
0.0
 10
419.0599050431
 20
216.3545847821
 30
0.0
  0
SPLINE
  5
314
100
AcDbEntity
  8
0
100
AcDbSpline
 62
9
  6
CONTINUOUS
 70
0
 71
3
 72
9
 73
5
 74
0
 42
0.0000001
 43
0.0000001
 44
0.0000000001
 40
0.0
 40
0.0
 40
0.0
 40
0.0
 40
0.2462779241
 40
1.0
 40
1.0
 40
1.0
 40
1.0
 10
419.0598641186
 20
216.3545849886
 30
0.0
 10
418.9499506903
 20
216.1669805701
 30
0.0
 10
418.5033807681
 20
215.4053818052
 30
0.0
 10
418.0552020983
 20
214.644717752
 30
0.0
 10
417.7146942395
 20
214.0729987144
 30
0.0
  0
SPLINE
  5
315
100
AcDbEntity
  8
0
100
AcDbSpline
 62
9
  6
CONTINUOUS
 70
0
 71
3
 72
9
 73
5
 74
0
 42
0.0000001
 43
0.0000001
 44
0.0000000001
 40
0.0
 40
0.0
 40
0.0
 40
0.0
 40
0.2560738096
 40
1.0
 40
1.0
 40
1.0
 40
1.0
 10
416.4127229852
 20
214.0138951558
 30
0.0
 10
416.5238821713
 20
214.0183409769
 30
0.0
 10
416.9579376178
 20
214.0365873903
 30
0.0
 10
417.3918740229
 20
214.0575012589
 30
0.0
 10
417.7146966221
 20
214.0728948258
 30
0.0
  0
SPLINE
  5
316
100
AcDbEntity
  8
0
100
AcDbSpline
 62
9
  6
CONTINUOUS
 70
0
 71
3
 72
10
 73
6
 74
0
 42
0.0000001
 43
0.0000001
 44
0.0000000001
 40
0.0
 40
0.0
 40
0.0
 40
0.0
 40
0.2670788239
 40
0.6497874101
 40
1.0
 40
1.0
 40
1.0
 40
1.0
 10
408.2729314154
 20
213.6067703165
 30
0.0
 10
408.9962619353
 20
213.664524799
 30
0.0
 10
410.7572391569
 20
213.7918718242
 30
0.0
 10
413.4716020044
 20
213.9150928339
 30
0.0
 10
415.4616191886
 20
213.9864231075
 30
0.0
 10
416.4127238527
 20
214.0138694859
 30
0.0
  0
SPLINE
  5
317
100
AcDbEntity
  8
0
100
AcDbSpline
 62
9
  6
CONTINUOUS
 70
0
 71
3
 72
11
 73
7
 74
0
 42
0.0000001
 43
0.0000001
 44
0.0000000001
 40
0.0
 40
0.0
 40
0.0
 40
0.0
 40
0.0944155951
 40
0.3106575689
 40
0.6283144295
 40
1.0
 40
1.0
 40
1.0
 40
1.0
 10
408.2100179054
 20
315.961852955
 30
0.0
 10
408.2229686513
 20
315.961852955
 30
0.0
 10
408.2432169162
 20
315.9092457709
 30
0.0
 10
408.2575896666
 20
315.8347899738
 30
0.0
 10
408.2704509308
 20
315.7060151248
 30
0.0
 10
408.272931414
 20
315.6128361149
 30
0.0
 10
408.272931414
 20
315.561852955
 30
0.0
  0
SPLINE
  5
318
100
AcDbEntity
  8
0
100
AcDbSpline
 62
7
  6
CONTINUOUS
 70
0
 71
3
 72
10
 73
6
 74
0
 42
0.0000001
 43
0.0000001
 44
0.0000000001
 40
0.0
 40
0.0
 40
0.0
 40
0.0
 40
0.3703129854
 40
0.6654260657
 40
1.0
 40
1.0
 40
1.0
 40
1.0
 10
413.2821423114
 20
315.9618367012
 30
0.0
 10
413.3387908569
 20
315.9619035502
 30
0.0
 10
413.4130014205
 20
315.8524843135
 30
0.0
 10
413.4473593753
 20
315.7113787265
 30
0.0
 10
413.4566383805
 20
315.613093694
 30
0.0
 10
413.4566401532
 20
315.5619122862
 30
0.0
  0
SPLINE
  5
319
100
AcDbEntity
  8
0
100
AcDbSpline
 62
9
  6
CONTINUOUS
 70
0
 71
3
 72
9
 73
5
 74
0
 42
0.0000001
 43
0.0000001
 44
0.0000000001
 40
0.0
 40
0.0
 40
0.0
 40
0.0
 40
0.5111824254
 40
1.0
 40
1.0
 40
1.0
 40
1.0
 10
418.1783595864
 20
315.7710595623
 30
0.0
 10
418.1560675233
 20
315.8216186343
 30
0.0
 10
418.0946997195
 20
315.9153623594
 30
0.0
 10
417.9856946737
 20
315.9619402286
 30
0.0
 10
417.9328568824
 20
315.9618434506
 30
0.0
  0
SPLINE
  5
31A
100
AcDbEntity
  8
0
100
AcDbSpline
 62
9
  6
CONTINUOUS
 70
0
 71
3
 72
11
 73
7
 74
0
 42
0.0000001
 43
0.0000001
 44
0.0000000001
 40
0.0
 40
0.0
 40
0.0
 40
0.0
 40
0.2641613501
 40
0.5114132609
 40
0.7502282187
 40
1.0
 40
1.0
 40
1.0
 40
1.0
 10
418.2186061213
 20
315.6109491709
 30
0.0
 10
418.4265243918
 20
315.6155400419
 30
0.0
 10
418.8296780069
 20
315.6504684919
 30
0.0
 10
419.4007909861
 20
315.8249189132
 30
0.0
 10
419.8857962154
 20
316.1635677711
 30
0.0
 10
420.0978629909
 20
316.4984973296
 30
0.0
 10
420.1719055597
 20
316.6806651551
 30
0.0
  0
SPLINE
  5
31B
100
AcDbEntity
  8
0
100
AcDbSpline
 62
9
  6
CONTINUOUS
 70
0
 71
3
 72
8
 73
4
 74
0
 42
0.0000001
 43
0.0000001
 44
0.0000000001
 40
0.0
 40
0.0
 40
0.0
 40
0.0
 40
1.0
 40
1.0
 40
1.0
 40
1.0
 10
418.1783593998
 20
315.7710595622
 30
0.0
 10
418.1930502159
 20
315.7377403448
 30
0.0
 10
418.2037133581
 20
315.7024521364
 30
0.0
 10
418.210704644
 20
315.6667154291
 30
0.0
  0
SPLINE
  5
31C
100
AcDbEntity
  8
0
100
AcDbSpline
 62
9
  6
CONTINUOUS
 70
0
 71
3
 72
11
 73
7
 74
0
 42
0.0000001
 43
0.0000001
 44
0.0000000001
 40
0.0
 40
0.0
 40
0.0
 40
0.0
 40
0.2667926376
 40
0.515308645
 40
0.7514739129
 40
1.0
 40
1.0
 40
1.0
 40
1.0
 10
418.1783487668
 20
315.7710595801
 30
0.0
 10
418.3854798956
 20
315.7601440103
 30
0.0
 10
418.7879340945
 20
315.7647553873
 30
0.0
 10
419.3650398153
 20
315.8899196793
 30
0.0
 10
419.8674627505
 20
316.1856962629
 30
0.0
 10
420.0928198309
 20
316.5043747032
 30
0.0
 10
420.1719055613
 20
316.6806651586
 30
0.0
  0
SPLINE
  5
31D
100
AcDbEntity
  8
0
100
AcDbSpline
 62
9
  6
CONTINUOUS
 70
0
 71
3
 72
19
 73
15
 74
0
 42
0.0000001
 43
0.0000001
 44
0.0000000001
 40
0.0
 40
0.0
 40
0.0
 40
0.0
 40
0.1142250836
 40
0.2418077703
 40
0.3821576996
 40
0.5307797932
 40
0.6058071157
 40
0.6785212497
 40
0.7448646666
 40
0.8015633575
 40
0.850575245
 40
0.8977046234
 40
0.9471316067
 40
1.0
 40
1.0
 40
1.0
 40
1.0
 10
414.0661672276
 20
323.8359509308
 30
0.0
 10
414.5068487686
 20
323.7250978417
 30
0.0
 10
415.4036998738
 20
323.3440078544
 30
0.0
 10
416.6559879586
 20
322.4724628875
 30
0.0
 10
417.8859406784
 20
321.357261957
 30
0.0
 10
418.840310254
 20
320.2597834314
 30
0.0
 10
419.4792182396
 20
319.2659499142
 30
0.0
 10
419.8365421009
 20
318.4883814678
 30
0.0
 10
420.0110296735
 20
317.7212145378
 30
0.0
 10
419.9464855497
 20
317.0219168947
 30
0.0
 10
419.623144744
 20
316.4813992546
 30
0.0
 10
419.1291558854
 20
316.1525271932
 30
0.0
 10
418.5513080138
 20
315.9898388579
 30
0.0
 10
418.1431127644
 20
315.961852955
 30
0.0
 10
417.9327917359
 20
315.961852955
 30
0.0
  0
SPLINE
  5
31E
100
AcDbEntity
  8
0
100
AcDbSpline
 62
9
  6
CONTINUOUS
 70
0
 71
3
 72
13
 73
9
 74
0
 42
0.0000001
 43
0.0000001
 44
0.0000000001
 40
0.0
 40
0.0
 40
0.0
 40
0.0
 40
0.1405728698
 40
0.283393913
 40
0.4224983774
 40
0.5551570858
 40
0.7948191199
 40
1.0
 40
1.0
 40
1.0
 40
1.0
 10
420.2074737252
 20
318.2503876654
 30
0.0
 10
420.1089920889
 20
318.6398894196
 30
0.0
 10
419.79311313
 20
319.3952123757
 30
0.0
 10
419.1452067294
 20
320.4173281519
 30
0.0
 10
418.3930907932
 20
321.3359942661
 30
0.0
 10
417.3699875078
 20
322.3817809056
 30
0.0
 10
416.0767509816
 20
323.4186359128
 30
0.0
 10
414.894057868
 20
323.959980916
 30
0.0
 10
414.3196618393
 20
324.0780707104
 30
0.0
  0
SPLINE
  5
31F
100
AcDbEntity
  8
0
100
AcDbSpline
 62
9
  6
CONTINUOUS
 70
0
 71
3
 72
9
 73
5
 74
0
 42
0.0000001
 43
0.0000001
 44
0.0000000001
 40
0.0
 40
0.0
 40
0.0
 40
0.0
 40
0.2218602183
 40
1.0
 40
1.0
 40
1.0
 40
1.0
 10
420.1719055613
 20
316.6806651586
 30
0.0
 10
420.215812072
 20
316.7893927622
 30
0.0
 10
420.3627120746
 20
317.3008454511
 30
0.0
 10
420.3043837311
 20
317.8507041226
 30
0.0
 10
420.2074737252
 20
318.2503876654
 30
0.0
  0
SPLINE
  5
320
100
AcDbEntity
  8
0
100
AcDbSpline
 62
9
  6
CONTINUOUS
 70
0
 71
3
 72
9
 73
5
 74
0
 42
0.0000001
 43
0.0000001
 44
0.0000000001
 40
0.0
 40
0.0
 40
0.0
 40
0.0
 40
0.2556330682
 40
1.0
 40
1.0
 40
1.0
 40
1.0
 10
414.0661692652
 20
323.8359591749
 30
0.0
 10
413.9844611969
 20
323.8564979812
 30
0.0
 10
413.6627407328
 20
323.9280616139
 30
0.0
 10
413.3322094798
 20
323.961874729
 30
0.0
 10
413.086885729
 20
323.9618622079
 30
0.0
  0
SPLINE
  5
321
100
AcDbEntity
  8
0
100
AcDbSpline
 62
9
  6
CONTINUOUS
 70
0
 71
3
 72
9
 73
5
 74
0
 42
0.0000001
 43
0.0000001
 44
0.0000000001
 40
0.0
 40
0.0
 40
0.0
 40
0.0
 40
0.2546512337
 40
1.0
 40
1.0
 40
1.0
 40
1.0
 10
414.3274404818
 20
324.0971676557
 30
0.0
 10
414.2460092972
 20
324.114000491
 30
0.0
 10
413.9243693576
 20
324.1705087431
 30
0.0
 10
413.5951517613
 20
324.1858220877
 30
0.0
 10
413.352214458
 20
324.1710977326
 30
0.0
  0
SPLINE
  5
322
100
AcDbEntity
  8
0
100
AcDbSpline
 62
9
  6
CONTINUOUS
 70
0
 71
3
 72
8
 73
4
 74
0
 42
0.0000001
 43
0.0000001
 44
0.0000000001
 40
0.0
 40
0.0
 40
0.0
 40
0.0
 40
1.0
 40
1.0
 40
1.0
 40
1.0
 10
414.0661679196
 20
323.8359595362
 30
0.0
 10
414.1863365468
 20
323.8628935686
 30
0.0
 10
414.283616288
 20
323.9820791967
 30
0.0
 10
414.3274416352
 20
324.0971673368
 30
0.0
  0
SPLINE
  5
323
100
AcDbEntity
  8
0
100
AcDbSpline
 62
9
  6
CONTINUOUS
 70
0
 71
3
 72
9
 73
5
 74
0
 42
0.0000001
 43
0.0000001
 44
0.0000000001
 40
0.0
 40
0.0
 40
0.0
 40
0.0
 40
0.2559353732
 40
1.0
 40
1.0
 40
1.0
 40
1.0
 10
414.3310137624
 20
324.4586260813
 30
0.0
 10
414.2484113198
 20
324.4800063855
 30
0.0
 10
413.9232705017
 20
324.5537646972
 30
0.0
 10
413.5879883287
 20
324.5848309177
 30
0.0
 10
413.3399788099
 20
324.5798929972
 30
0.0
  0
SPLINE
  5
324
100
AcDbEntity
  8
0
100
AcDbSpline
 62
9
  6
CONTINUOUS
 70
0
 71
3
 72
9
 73
5
 74
0
 42
0.0000001
 43
0.0000001
 44
0.0000000001
 40
0.0
 40
0.0
 40
0.0
 40
0.0
 40
0.2392704491
 40
1.0
 40
1.0
 40
1.0
 40
1.0
 10
414.327442974
 20
324.0971669956
 30
0.0
 10
414.337815565
 20
324.1244060638
 30
0.0
 10
414.3696346477
 20
324.2416554052
 30
0.0
 10
414.367523487
 20
324.3734535414
 30
0.0
 10
414.3310191892
 20
324.4586304373
 30
0.0
  0
SPLINE
  5
325
100
AcDbEntity
  8
0
100
AcDbSpline
 62
9
  6
CONTINUOUS
 70
0
 71
3
 72
10
 73
6
 74
0
 42
0.0000001
 43
0.0000001
 44
0.0000000001
 40
0.0
 40
0.0
 40
0.0
 40
0.0
 40
0.2143299805
 40
0.5868990161
 40
1.0
 40
1.0
 40
1.0
 40
1.0
 10
413.3399788099
 20
324.5798929972
 30
0.0
 10
412.7760816413
 20
324.5711579162
 30
0.0
 10
411.2321444906
 20
324.536824533
 30
0.0
 10
408.6012087213
 20
324.4939519872
 30
0.0
 10
406.5343647509
 20
324.4469029179
 30
0.0
 10
405.4474532646
 20
324.4338864084
 30
0.0
  0
SPLINE
  5
326
100
AcDbEntity
  8
0
100
AcDbSpline
 62
9
  6
CONTINUOUS
 70
0
 71
3
 72
9
 73
5
 74
0
 42
0.0000001
 43
0.0000001
 44
0.0000000001
 40
0.0
 40
0.0
 40
0.0
 40
0.0
 40
0.2248287209
 40
1.0
 40
1.0
 40
1.0
 40
1.0
 10
413.3517919163
 20
324.171053237
 30
0.0
 10
413.3635742102
 20
324.1998226295
 30
0.0
 10
413.4028841008
 20
324.3325719539
 30
0.0
 10
413.3868312251
 20
324.4833862262
 30
0.0
 10
413.3396784917
 20
324.5796459058
 30
0.0
  0
SPLINE
  5
327
100
AcDbEntity
  8
0
100
AcDbSpline
 62
9
  6
CONTINUOUS
 70
0
 71
3
 72
9
 73
5
 74
0
 42
0.0000001
 43
0.0000001
 44
0.0000000001
 40
0.0
 40
0.0
 40
0.0
 40
0.0
 40
0.4944989126
 40
1.0
 40
1.0
 40
1.0
 40
1.0
 10
413.0868785779
 20
323.9618532614
 30
0.0
 10
413.1450124625
 20
323.9619485975
 30
0.0
 10
413.2636985648
 20
324.0129007302
 30
0.0
 10
413.3292746045
 20
324.1160590991
 30
0.0
 10
413.3517970592
 20
324.1710532271
 30
0.0
  0
SPLINE
  5
328
100
AcDbEntity
  8
0
100
AcDbSpline
 62
9
  6
CONTINUOUS
 70
0
 71
3
 72
15
 73
11
 74
0
 42
0.0000001
 43
0.0000001
 44
0.0000000001
 40
0.0
 40
0.0
 40
0.0
 40
0.0
 40
0.2071746824
 40
0.3251314467
 40
0.4522976778
 40
0.5868310033
 40
0.7260375356
 40
0.8658246216
 40
0.9348157631
 40
1.0
 40
1.0
 40
1.0
 40
1.0
 10
414.3310138764
 20
324.4586261637
 30
0.0
 10
414.9200722677
 20
324.3034798365
 30
0.0
 10
415.788500445
 20
323.8502189258
 30
0.0
 10
416.8380698221
 20
323.0355503817
 30
0.0
 10
417.654976655
 20
322.2716437959
 30
0.0
 10
418.4489232553
 20
321.399036156
 30
0.0
 10
419.1905457554
 20
320.4331954889
 30
0.0
 10
419.7149372708
 20
319.5503212605
 30
0.0
 10
420.0450113191
 20
318.8149115977
 30
0.0
 10
420.1671979738
 20
318.4378409691
 30
0.0
 10
420.2077636141
 20
318.2505246388
 30
0.0
  0
SPLINE
  5
329
100
AcDbEntity
  8
0
100
AcDbSpline
 62
9
  6
CONTINUOUS
 70
0
 71
3
 72
12
 73
8
 74
0
 42
0.0000001
 43
0.0000001
 44
0.0000000001
 40
0.0
 40
0.0
 40
0.0
 40
0.0
 40
0.1119232831
 40
0.1952358406
 40
0.3025149358
 40
0.5965773979
 40
1.0
 40
1.0
 40
1.0
 40
1.0
 10
414.8708074563
 20
325.8859554995
 30
0.0
 10
414.9124603743
 20
325.8443022321
 30
0.0
 10
414.9329742794
 20
325.7290813423
 30
0.0
 10
414.9060170383
 20
325.5745241012
 30
0.0
 10
414.8286005145
 20
325.329534123
 30
0.0
 10
414.6384900547
 20
324.9500151652
 30
0.0
 10
414.4467982736
 20
324.6366040099
 30
0.0
 10
414.331013937
 20
324.4586262569
 30
0.0
  0
LINE
  5
32A
100
AcDbEntity
  8
0
100
AcDbLine
 62
9
  6
CONTINUOUS
 10
421.5474335744
 20
221.3953735364
 11
421.4164691771
 21
221.2791366336
  0
SPLINE
  5
32B
100
AcDbEntity
  8
0
100
AcDbSpline
 62
9
  6
CONTINUOUS
 70
0
 71
3
 72
9
 73
5
 74
0
 42
0.0000001
 43
0.0000001
 44
0.0000000001
 40
0.0
 40
0.0
 40
0.0
 40
0.0
 40
0.4846700229
 40
1.0
 40
1.0
 40
1.0
 40
1.0
 10
400.5946387249
 20
336.1639257191
 30
0.0
 10
401.6247813907
 20
336.1775768322
 30
0.0
 10
403.7703367443
 20
335.855269491
 30
0.0
 10
405.6826440018
 20
334.8143167988
 30
0.0
 10
406.540108126
 20
334.1326515084
 30
0.0
  0
SPLINE
  5
32C
100
AcDbEntity
  8
0
100
AcDbSpline
 62
9
  6
CONTINUOUS
 70
0
 71
3
 72
18
 73
14
 74
0
 42
0.0000001
 43
0.0000001
 44
0.0000000001
 40
0.0
 40
0.0
 40
0.0
 40
0.0
 40
0.0040984861
 40
0.0163507064
 40
0.0366919063
 40
0.0650573378
 40
0.1013822596
 40
0.145601937
 40
0.2574666509
 40
0.4000121555
 40
0.5721133647
 40
0.7725243691
 40
1.0
 40
1.0
 40
1.0
 40
1.0
 10
423.8400801396
 20
219.2897389383
 30
0.0
 10
423.8349544169
 20
219.2880677842
 30
0.0
 10
423.8239161694
 20
219.2667156339
 30
0.0
 10
423.787700557
 20
219.2366468353
 30
0.0
 10
423.7351539517
 20
219.174783241
 30
0.0
 10
423.6582410207
 20
219.0941042862
 30
0.0
 10
423.5611025938
 20
218.9885925752
 30
0.0
 10
423.3886529369
 20
218.8034312481
 30
0.0
 10
423.1211038008
 20
218.5157386149
 30
0.0
 10
422.7383402566
 20
218.1055654691
 30
0.0
 10
422.2753173478
 20
217.6109380444
 30
0.0
 10
421.7347155504
 20
217.0359168581
 30
0.0
 10
421.3482146085
 20
216.6267421412
 30
0.0
 10
421.1424738223
 20
216.4094676041
 30
0.0
  0
SPLINE
  5
32D
100
AcDbEntity
  8
0
100
AcDbSpline
 62
7
  6
CONTINUOUS
 70
0
 71
3
 72
14
 73
10
 74
0
 42
0.0000001
 43
0.0000001
 44
0.0000000001
 40
0.0
 40
0.0
 40
0.0
 40
0.0
 40
0.015687179
 40
0.062837088
 40
0.1414966269
 40
0.2515787119
 40
0.3927073086
 40
0.5645696341
 40
1.0
 40
1.0
 40
1.0
 40
1.0
 10
417.9974720332
 20
175.2473719654
 30
0.0
 10
417.9974667145
 20
175.2497628816
 30
0.0
 10
417.9820791282
 20
175.2434780907
 30
0.0
 10
417.9662085295
 20
175.247411566
 30
0.0
 10
417.9271778826
 20
175.241089022
 30
0.0
 10
417.8785304056
 20
175.2379127768
 30
0.0
 10
417.8136552856
 20
175.2327867107
 30
0.0
 10
417.6999484432
 20
175.2280861091
 30
0.0
 10
417.6071611594
 20
175.2289772478
 30
0.0
 10
417.5408638039
 20
175.231973557
 30
0.0
  0
SPLINE
  5
32E
100
AcDbEntity
  8
0
100
AcDbSpline
 62
9
  6
CONTINUOUS
 70
0
 71
3
 72
9
 73
5
 74
0
 42
0.0000001
 43
0.0000001
 44
0.0000000001
 40
0.0
 40
0.0
 40
0.0
 40
0.0
 40
0.4989742638
 40
1.0
 40
1.0
 40
1.0
 40
1.0
 10
361.6773871537
 20
332.6131741482
 30
0.0
 10
361.2576543114
 20
332.5359205859
 30
0.0
 10
360.4398344444
 20
332.1964764266
 30
0.0
 10
359.8428854484
 20
331.5406181094
 30
0.0
 10
359.6299198177
 20
331.1687441859
 30
0.0
  0
SPLINE
  5
32F
100
AcDbEntity
  8
0
100
AcDbSpline
 62
9
  6
CONTINUOUS
 70
0
 71
3
 72
14
 73
10
 74
0
 42
0.0000001
 43
0.0000001
 44
0.0000000001
 40
0.0
 40
0.0
 40
0.0
 40
0.0
 40
0.3846463059
 40
0.5617446378
 40
0.7155150239
 40
0.8376350892
 40
0.9259552347
 40
0.9799609803
 40
1.0
 40
1.0
 40
1.0
 40
1.0
 10
359.2131980119
 20
326.224367097
 30
0.0
 10
359.1124370924
 20
326.2478772533
 30
0.0
 10
358.9654167556
 20
326.2833698031
 30
0.0
 10
358.7793051242
 20
326.3311994799
 30
0.0
 10
358.6609041184
 20
326.362959669
 30
0.0
 10
358.5688600398
 20
326.390374745
 30
0.0
 10
358.4965431411
 20
326.4124182823
 30
0.0
 10
358.4641543082
 20
326.4280129141
 30
0.0
 10
358.4372491238
 20
326.4375908612
 30
0.0
 10
358.4384268571
 20
326.4428509924
 30
0.0
  0
SPLINE
  5
330
100
AcDbEntity
  8
0
100
AcDbSpline
 62
9
  6
CONTINUOUS
 70
0
 71
3
 72
14
 73
10
 74
0
 42
0.0000001
 43
0.0000001
 44
0.0000000001
 40
0.0
 40
0.0
 40
0.0
 40
0.0
 40
0.3869074494
 40
0.5634168172
 40
0.7162013534
 40
0.8374345231
 40
0.9251617099
 40
0.9790397384
 40
1.0
 40
1.0
 40
1.0
 40
1.0
 10
351.2236699824
 20
290.7266186349
 30
0.0
 10
351.1273508187
 20
290.7495359562
 30
0.0
 10
350.9872930443
 20
290.7842392013
 30
0.0
 10
350.8104393439
 20
290.8313769393
 30
0.0
 10
350.6989294616
 20
290.8628814658
 30
0.0
 10
350.6120287054
 20
290.8900232093
 30
0.0
 10
350.5450389977
 20
290.9130275005
 30
0.0
 10
350.5131823783
 20
290.9282129866
 30
0.0
 10
350.489556946
 20
290.9398684611
 30
0.0
 10
350.4907288157
 20
290.9451025221
 30
0.0
  0
SPLINE
  5
331
100
AcDbEntity
  8
0
100
AcDbSpline
 62
9
  6
CONTINUOUS
 70
0
 71
3
 72
14
 73
10
 74
0
 42
0.0000001
 43
0.0000001
 44
0.0000000001
 40
0.0
 40
0.0
 40
0.0
 40
0.0
 40
0.3858491491
 40
0.5624678919
 40
0.7157536793
 40
0.8377815751
 40
0.9262660394
 40
0.9803976013
 40
1.0
 40
1.0
 40
1.0
 40
1.0
 10
351.1282953765
 20
286.8992949593
 30
0.0
 10
351.0315415361
 20
286.8841997099
 30
0.0
 10
350.8904930538
 20
286.8613497709
 30
0.0
 10
350.7118737949
 20
286.83011428
 30
0.0
 10
350.5982951829
 20
286.809401876
 30
0.0
 10
350.5099070809
 20
286.7907566659
 30
0.0
 10
350.4395184802
 20
286.7766365357
 30
0.0
 10
350.4086440912
 20
286.7642146792
 30
0.0
 10
350.3815353129
 20
286.7589916398
 30
0.0
 10
350.3822577627
 20
286.7540695006
 30
0.0
  0
SPLINE
  5
332
100
AcDbEntity
  8
0
100
AcDbSpline
 62
7
  6
CONTINUOUS
 70
0
 71
3
 72
16
 73
12
 74
0
 42
0.0000001
 43
0.0000001
 44
0.0000000001
 40
0.0
 40
0.0
 40
0.0
 40
0.0
 40
0.3959835305
 40
0.5688302035
 40
0.7177390858
 40
0.8383830028
 40
0.9273072709
 40
0.9589111173
 40
0.9816502262
 40
0.9953905576
 40
1.0
 40
1.0
 40
1.0
 40
1.0
 10
361.8659574908
 20
214.1003458885
 30
0.0
 10
361.7600120073
 20
214.0848144688
 30
0.0
 10
361.6078155327
 20
214.0623845148
 30
0.0
 10
361.415899297
 20
214.0338257859
 30
0.0
 10
361.2974378573
 20
214.0162814602
 30
0.0
 10
361.2019445184
 20
214.0017204386
 30
0.0
 10
361.1366313862
 20
213.9925856133
 30
0.0
 10
361.099455427
 20
213.9860235367
 30
0.0
 10
361.0793834656
 20
213.9844449307
 30
0.0
 10
361.0717523806
 20
213.9805116299
 30
0.0
 10
361.0633779582
 20
213.9819641334
 30
0.0
 10
361.0635985567
 20
213.9807373709
 30
0.0
  0
SPLINE
  5
333
100
AcDbEntity
  8
0
100
AcDbSpline
 62
9
  6
CONTINUOUS
 70
0
 71
3
 72
11
 73
7
 74
0
 42
0.0000001
 43
0.0000001
 44
0.0000000001
 40
0.0
 40
0.0
 40
0.0
 40
0.0
 40
0.3729712729
 40
0.692958338
 40
0.9030796803
 40
1.0
 40
1.0
 40
1.0
 40
1.0
 10
362.9935265866
 20
206.0807816619
 30
0.0
 10
362.8948769121
 20
206.0705642166
 30
0.0
 10
362.7128651609
 20
206.0566239269
 30
0.0
 10
362.465726156
 20
206.0572629753
 30
0.0
 10
362.3130391389
 20
206.0726783399
 30
0.0
 10
362.2185931084
 20
206.1116640357
 30
0.0
 10
362.2148504525
 20
206.1371630701
 30
0.0
  0
SPLINE
  5
334
100
AcDbEntity
  8
0
100
AcDbSpline
 62
9
  6
CONTINUOUS
 70
0
 71
3
 72
13
 73
9
 74
0
 42
0.0000001
 43
0.0000001
 44
0.0000000001
 40
0.0
 40
0.0
 40
0.0
 40
0.0
 40
0.1190763764
 40
0.242304231
 40
0.3675606659
 40
0.4937251874
 40
0.7469397464
 40
1.0
 40
1.0
 40
1.0
 40
1.0
 10
366.0296865761
 20
196.906663411
 30
0.0
 10
366.0258459303
 20
197.2921787144
 30
0.0
 10
365.9312471088
 20
198.0774949228
 30
0.0
 10
365.5789513083
 20
199.217837397
 30
0.0
 10
365.109308763
 20
200.337023881
 30
0.0
 10
364.4167832292
 20
201.8168833351
 30
0.0
 10
363.5629866448
 20
203.6780611629
 30
0.0
 10
363.1072821631
 20
205.2693819439
 30
0.0
 10
362.9935267348
 20
206.0807816773
 30
0.0
  0
SPLINE
  5
335
100
AcDbEntity
  8
0
100
AcDbSpline
 62
9
  6
CONTINUOUS
 70
0
 71
3
 72
9
 73
5
 74
0
 42
0.0000001
 43
0.0000001
 44
0.0000000001
 40
0.0
 40
0.0
 40
0.0
 40
0.0
 40
0.226413011
 40
1.0
 40
1.0
 40
1.0
 40
1.0
 10
364.7939117153
 20
197.7531963838
 30
0.0
 10
364.8143313307
 20
197.7287510825
 30
0.0
 10
364.9092645982
 20
197.6247260254
 30
0.0
 10
365.0181976472
 20
197.534505401
 30
0.0
 10
365.1046612169
 20
197.4684175671
 30
0.0
  0
SPLINE
  5
336
100
AcDbEntity
  8
0
100
AcDbSpline
 62
9
  6
CONTINUOUS
 70
0
 71
3
 72
9
 73
5
 74
0
 42
0.0000001
 43
0.0000001
 44
0.0000000001
 40
0.0
 40
0.0
 40
0.0
 40
0.0
 40
0.2331724621
 40
1.0
 40
1.0
 40
1.0
 40
1.0
 10
365.1046612169
 20
197.4684175671
 30
0.0
 10
365.1451848263
 20
197.4374436255
 30
0.0
 10
365.3219166453
 20
197.3084192715
 30
0.0
 10
365.5095347249
 20
197.1949835977
 30
0.0
 10
365.6555261828
 20
197.1123811404
 30
0.0
  0
SPLINE
  5
337
100
AcDbEntity
  8
0
100
AcDbSpline
 62
9
  6
CONTINUOUS
 70
0
 71
3
 72
9
 73
5
 74
0
 42
0.0000001
 43
0.0000001
 44
0.0000000001
 40
0.0
 40
0.0
 40
0.0
 40
0.0
 40
0.2415284771
 40
1.0
 40
1.0
 40
1.0
 40
1.0
 10
365.6555261828
 20
197.1123811404
 30
0.0
 10
365.685445656
 20
197.0954526019
 30
0.0
 10
365.8097045448
 20
197.0260402284
 30
0.0
 10
365.934899844
 20
196.9583288637
 30
0.0
 10
366.0296885402
 20
196.9066674284
 30
0.0
  0
SPLINE
  5
338
100
AcDbEntity
  8
0
100
AcDbSpline
 62
9
  6
CONTINUOUS
 70
0
 71
3
 72
9
 73
5
 74
0
 42
0.0000001
 43
0.0000001
 44
0.0000000001
 40
0.0
 40
0.0
 40
0.0
 40
0.0
 40
0.288734885
 40
1.0
 40
1.0
 40
1.0
 40
1.0
 10
365.7619218639
 20
196.5026417796
 30
0.0
 10
365.7289626618
 20
196.5204473906
 30
0.0
 10
365.6141827254
 20
196.5805705692
 30
0.0
 10
365.4973299017
 20
196.6393375948
 30
0.0
 10
365.4233375372
 20
196.694483053
 30
0.0
  0
SPLINE
  5
339
100
AcDbEntity
  8
0
100
AcDbSpline
 62
9
  6
CONTINUOUS
 70
0
 71
3
 72
9
 73
5
 74
0
 42
0.0000001
 43
0.0000001
 44
0.0000000001
 40
0.0
 40
0.0
 40
0.0
 40
0.0
 40
0.2555190886
 40
1.0
 40
1.0
 40
1.0
 40
1.0
 10
368.3209684905
 20
195.5270559056
 30
0.0
 10
368.0948734652
 20
195.5857952307
 30
0.0
 10
367.2141228756
 20
195.8278431822
 30
0.0
 10
366.3523947876
 20
196.1641385893
 30
0.0
 10
365.7619218639
 20
196.5026417796
 30
0.0
  0
SPLINE
  5
33A
100
AcDbEntity
  8
0
100
AcDbSpline
 62
9
  6
CONTINUOUS
 70
0
 71
3
 72
9
 73
5
 74
0
 42
0.0000001
 43
0.0000001
 44
0.0000000001
 40
0.0
 40
0.0
 40
0.0
 40
0.0
 40
0.3325031891
 40
1.0
 40
1.0
 40
1.0
 40
1.0
 10
366.030899716
 20
196.9058031782
 30
0.0
 10
366.0002636902
 20
196.8616841554
 30
0.0
 10
365.9091282626
 20
196.728364225
 30
0.0
 10
365.8165856042
 20
196.5956530041
 30
0.0
 10
365.761955823
 20
196.5026884866
 30
0.0
  0
SPLINE
  5
33B
100
AcDbEntity
  8
0
100
AcDbSpline
 62
9
  6
CONTINUOUS
 70
0
 71
3
 72
8
 73
4
 74
0
 42
0.0000001
 43
0.0000001
 44
0.0000000001
 40
0.0
 40
0.0
 40
0.0
 40
0.0
 40
1.0
 40
1.0
 40
1.0
 40
1.0
 10
366.0296756887
 20
196.9066134209
 30
0.0
 10
366.7735624106
 20
196.4141646876
 30
0.0
 10
367.5458995002
 20
195.965085898
 30
0.0
 10
368.3230884785
 20
195.5270784756
 30
0.0
  0
SPLINE
  5
33C
100
AcDbEntity
  8
0
100
AcDbSpline
 62
7
  6
CONTINUOUS
 70
0
 71
3
 72
9
 73
5
 74
0
 42
0.0000001
 43
0.0000001
 44
0.0000000001
 40
0.0
 40
0.0
 40
0.0
 40
0.0
 40
0.5019545791
 40
1.0
 40
1.0
 40
1.0
 40
1.0
 10
385.6874532647
 20
214.1001640069
 30
0.0
 10
381.7059728325
 20
213.9151126636
 30
0.0
 10
373.7595577464
 20
214.3014298226
 30
0.0
 10
365.8197651005
 20
214.0129094152
 30
0.0
 10
361.8659938709
 20
214.1003396282
 30
0.0
  0
SPLINE
  5
33D
100
AcDbEntity
  8
0
100
AcDbSpline
 62
9
  6
CONTINUOUS
 70
0
 71
3
 72
9
 73
5
 74
0
 42
0.0000001
 43
0.0000001
 44
0.0000000001
 40
0.0
 40
0.0
 40
0.0
 40
0.0
 40
0.4578185002
 40
1.0
 40
1.0
 40
1.0
 40
1.0
 10
368.8579600639
 20
195.4875013694
 30
0.0
 10
371.4230902365
 20
195.3021211383
 30
0.0
 10
377.0299921192
 20
194.9497763455
 30
0.0
 10
382.6432927034
 20
194.7190650395
 30
0.0
 10
385.6874477634
 20
194.6210122876
 30
0.0
  0
SPLINE
  5
33E
100
AcDbEntity
  8
0
100
AcDbSpline
 62
9
  6
CONTINUOUS
 70
0
 71
3
 72
9
 73
5
 74
0
 42
0.0000001
 43
0.0000001
 44
0.0000000001
 40
0.0
 40
0.0
 40
0.0
 40
0.0
 40
0.2517258001
 40
1.0
 40
1.0
 40
1.0
 40
1.0
 10
362.9937384876
 20
206.0808668253
 30
0.0
 10
363.4918612905
 20
205.1953677883
 30
0.0
 10
365.4624171703
 20
201.6729955239
 30
0.0
 10
367.4067512889
 20
198.1360417592
 30
0.0
 10
368.8583880792
 20
195.4876845607
 30
0.0
  0
SPLINE
  5
33F
100
AcDbEntity
  8
0
100
AcDbSpline
 62
9
  6
CONTINUOUS
 70
0
 71
3
 72
9
 73
5
 74
0
 42
0.0000001
 43
0.0000001
 44
0.0000000001
 40
0.0
 40
0.0
 40
0.0
 40
0.0
 40
0.2512404755
 40
1.0
 40
1.0
 40
1.0
 40
1.0
 10
361.8659574908
 20
214.1003458885
 30
0.0
 10
361.9599278628
 20
213.4286679011
 30
0.0
 10
362.334470068
 20
210.7552935808
 30
0.0
 10
362.7110402211
 20
208.082203774
 30
0.0
 10
362.993520634
 20
206.0807759812
 30
0.0
  0
SPLINE
  5
340
100
AcDbEntity
  8
0
100
AcDbSpline
 62
9
  6
CONTINUOUS
 70
0
 71
3
 72
14
 73
10
 74
0
 42
0.0000001
 43
0.0000001
 44
0.0000000001
 40
0.0
 40
0.0
 40
0.0
 40
0.0
 40
0.0452635529
 40
0.1184412293
 40
0.2167114322
 40
0.3380722546
 40
0.480236072
 40
0.6400502732
 40
1.0
 40
1.0
 40
1.0
 40
1.0
 10
361.6773871538
 20
332.6131741483
 30
0.0
 10
361.6760513404
 20
332.5595003399
 30
0.0
 10
361.634240084
 20
332.4228014804
 30
0.0
 10
361.5507223893
 20
332.1812285172
 30
0.0
 10
361.4277269638
 20
331.855703219
 30
0.0
 10
361.2669742833
 20
331.4580064693
 30
0.0
 10
361.0684208485
 20
330.9966548251
 30
0.0
 10
360.7469443213
 20
330.2803354423
 30
0.0
 10
360.4851346925
 20
329.7221137392
 30
0.0
 10
360.307800466
 20
329.3337198176
 30
0.0
  0
SPLINE
  5
341
100
AcDbEntity
  8
0
100
AcDbSpline
 62
9
  6
CONTINUOUS
 70
0
 71
3
 72
9
 73
5
 74
0
 42
0.0000001
 43
0.0000001
 44
0.0000000001
 40
0.0
 40
0.0
 40
0.0
 40
0.0
 40
0.2438438516
 40
1.0
 40
1.0
 40
1.0
 40
1.0
 10
360.2478139512
 20
329.2019733488
 30
0.0
 10
360.1934253949
 20
329.082168952
 30
0.0
 10
359.9719752308
 20
328.5902121447
 30
0.0
 10
359.764890195
 20
328.0911198971
 30
0.0
 10
359.6295913874
 20
327.7062034215
 30
0.0
  0
SPLINE
  5
342
100
AcDbEntity
  8
0
100
AcDbSpline
 62
7
  6
CONTINUOUS
 70
0
 71
3
 72
8
 73
4
 74
0
 42
0.0000001
 43
0.0000001
 44
0.0000000001
 40
0.0
 40
0.0
 40
0.0
 40
0.0
 40
1.0
 40
1.0
 40
1.0
 40
1.0
 10
385.4291772916
 20
335.8715122614
 30
0.0
 10
385.4177414045
 20
335.8613911593
 30
0.0
 10
385.4068815764
 20
335.8494414543
 30
0.0
 10
385.4011085373
 20
335.8353032705
 30
0.0
  0
SPLINE
  5
343
100
AcDbEntity
  8
0
100
AcDbSpline
 62
7
  6
CONTINUOUS
 70
0
 71
3
 72
8
 73
4
 74
0
 42
0.0000001
 43
0.0000001
 44
0.0000000001
 40
0.0
 40
0.0
 40
0.0
 40
0.0
 40
1.0
 40
1.0
 40
1.0
 40
1.0
 10
385.4011085373
 20
335.8353032705
 30
0.0
 10
385.3986809485
 20
335.8293581007
 30
0.0
 10
385.3972164153
 20
335.8228580465
 30
0.0
 10
385.39721196
 20
335.8164363481
 30
0.0
  0
SPLINE
  5
344
100
AcDbEntity
  8
0
100
AcDbSpline
 62
9
  6
CONTINUOUS
 70
0
 71
3
 72
19
 73
15
 74
0
 42
0.0000001
 43
0.0000001
 44
0.0000000001
 40
0.0
 40
0.0
 40
0.0
 40
0.0
 40
0.2064020212
 40
0.3997780199
 40
0.5742533702
 40
0.723984831
 40
0.7878058672
 40
0.8434948059
 40
0.8905657557
 40
0.9285771549
 40
0.9572596022
 40
0.9769050786
 40
0.9890864398
 40
1.0
 40
1.0
 40
1.0
 40
1.0
 10
397.7983371073
 20
335.7881552719
 30
0.0
 10
397.9969635242
 20
335.7929996526
 30
0.0
 10
398.3815981247
 20
335.8062809158
 30
0.0
 10
398.9335728758
 20
335.8370423266
 30
0.0
 10
399.4302711688
 20
335.8767124271
 30
0.0
 10
399.8016567942
 20
335.9175031794
 30
0.0
 10
400.05815053
 20
335.9549492261
 30
0.0
 10
400.216094632
 20
335.9826705245
 30
0.0
 10
400.3486574831
 20
336.0113281799
 30
0.0
 10
400.4542332751
 20
336.0399293456
 30
0.0
 10
400.5326755941
 20
336.0695591848
 30
0.0
 10
400.5831013817
 20
336.0966503522
 30
0.0
 10
400.6127597289
 20
336.132181932
 30
0.0
 10
400.6017453592
 20
336.1561880822
 30
0.0
 10
400.5946389762
 20
336.163925383
 30
0.0
  0
SPLINE
  5
345
100
AcDbEntity
  8
0
100
AcDbSpline
 62
9
  6
CONTINUOUS
 70
0
 71
3
 72
8
 73
4
 74
0
 42
0.0000001
 43
0.0000001
 44
0.0000000001
 40
0.0
 40
0.0
 40
0.0
 40
0.0
 40
1.0
 40
1.0
 40
1.0
 40
1.0
 10
393.6164555649
 20
335.6840014209
 30
0.0
 10
395.0104059438
 20
335.7191177205
 30
0.0
 10
396.4043665773
 20
335.7538290703
 30
0.0
 10
397.798336633
 20
335.7881554062
 30
0.0
  0
LINE
  5
346
100
AcDbEntity
  8
0
100
AcDbLine
 62
9
  6
CONTINUOUS
 10
388.3474532677
 20
335.6164976338
 11
388.4984172348
 21
335.6165545508
  0
SPLINE
  5
347
100
AcDbEntity
  8
0
100
AcDbSpline
 62
9
  6
CONTINUOUS
 70
0
 71
3
 72
12
 73
8
 74
0
 42
0.0000001
 43
0.0000001
 44
0.0000000001
 40
0.0
 40
0.0
 40
0.0
 40
0.0
 40
0.0508554774
 40
0.1218885459
 40
0.3323197734
 40
0.6313586446
 40
1.0
 40
1.0
 40
1.0
 40
1.0
 10
393.6164935976
 20
335.6839991238
 30
0.0
 10
393.6813976877
 20
335.6253174688
 30
0.0
 10
393.8075086494
 20
335.4538239032
 30
0.0
 10
394.0591138805
 20
334.939679822
 30
0.0
 10
394.3374675798
 20
333.9743254233
 30
0.0
 10
394.6248554074
 20
332.4916500942
 30
0.0
 10
394.7692478802
 20
331.3507477392
 30
0.0
 10
394.8361508715
 20
330.72002297
 30
0.0
  0
SPLINE
  5
348
100
AcDbEntity
  8
0
100
AcDbSpline
 62
9
  6
CONTINUOUS
 70
0
 71
3
 72
9
 73
5
 74
0
 42
0.0000001
 43
0.0000001
 44
0.0000000001
 40
0.0
 40
0.0
 40
0.0
 40
0.0
 40
0.2458732211
 40
1.0
 40
1.0
 40
1.0
 40
1.0
 10
394.8514500536
 20
330.5734266894
 30
0.0
 10
394.8766580491
 20
330.3278928376
 30
0.0
 10
394.9708655751
 20
329.3284238975
 30
0.0
 10
395.033986248
 20
328.326129478
 30
0.0
 10
395.0675248849
 20
327.5698283917
 30
0.0
  0
SPLINE
  5
349
100
AcDbEntity
  8
0
100
AcDbSpline
 62
9
  6
CONTINUOUS
 70
0
 71
3
 72
11
 73
7
 74
0
 42
0.0000001
 43
0.0000001
 44
0.0000000001
 40
0.0
 40
0.0
 40
0.0
 40
0.0
 40
0.2910808762
 40
0.5622680221
 40
0.8020549149
 40
1.0
 40
1.0
 40
1.0
 40
1.0
 10
399.2925319883
 20
326.3810734773
 30
0.0
 10
399.9742066842
 20
326.8426635921
 30
0.0
 10
401.2756021252
 20
327.7570442289
 30
0.0
 10
403.0968385392
 20
329.1099593983
 30
0.0
 10
404.6648206425
 20
330.3601307441
 30
0.0
 10
405.5981064253
 20
331.1748832372
 30
0.0
 10
406.0050111691
 20
331.559396109
 30
0.0
  0
LINE
  5
34A
100
AcDbEntity
  8
0
100
AcDbLine
 62
9
  6
CONTINUOUS
 10
406.0050111691
 20
331.559396109
 11
406.029853356
 21
331.5829124539
  0
SPLINE
  5
34B
100
AcDbEntity
  8
0
100
AcDbSpline
 62
9
  6
CONTINUOUS
 70
0
 71
3
 72
14
 73
10
 74
0
 42
0.0000001
 43
0.0000001
 44
0.0000000001
 40
0.0
 40
0.0
 40
0.0
 40
0.0
 40
0.3993987263
 40
0.5598650932
 40
0.6937969233
 40
0.8015799973
 40
0.8847141931
 40
0.9475014252
 40
1.0
 40
1.0
 40
1.0
 40
1.0
 10
406.3738192517
 20
331.9182781437
 30
0.0
 10
406.5503241637
 20
332.0957876004
 30
0.0
 10
406.792123272
 20
332.3508068551
 30
0.0
 10
407.0655159058
 20
332.6892838169
 30
0.0
 10
407.2098307785
 20
332.8962489936
 30
0.0
 10
407.3089117877
 20
333.0748620152
 30
0.0
 10
407.3625590562
 20
333.2253878901
 30
0.0
 10
407.3707059192
 20
333.3529427317
 30
0.0
 10
407.3354190767
 20
333.4213438801
 30
0.0
 10
407.3121524466
 20
333.4446105096
 30
0.0
  0
SPLINE
  5
34C
100
AcDbEntity
  8
0
100
AcDbSpline
 62
9
  6
CONTINUOUS
 70
0
 71
3
 72
14
 73
10
 74
0
 42
0.0000001
 43
0.0000001
 44
0.0000000001
 40
0.0
 40
0.0
 40
0.0
 40
0.0
 40
0.0453693615
 40
0.1178844314
 40
0.2200067918
 40
0.348971122
 40
0.4998224333
 40
0.6643587079
 40
1.0
 40
1.0
 40
1.0
 40
1.0
 10
397.798333473
 20
335.7881559688
 30
0.0
 10
397.9081835922
 20
335.692865782
 30
0.0
 10
398.1085764537
 20
335.3594605088
 30
0.0
 10
398.3531704764
 20
334.7007091863
 30
0.0
 10
398.5908689239
 20
333.7538270779
 30
0.0
 10
398.8108582184
 20
332.5497272719
 30
0.0
 10
398.9965568966
 20
331.1368833429
 30
0.0
 10
399.1930567889
 20
329.0592453834
 30
0.0
 10
399.2689961369
 20
327.4566365268
 30
0.0
 10
399.2925352016
 20
326.3810734772
 30
0.0
  0
SPLINE
  5
34D
100
AcDbEntity
  8
0
100
AcDbSpline
 62
9
  6
CONTINUOUS
 70
0
 71
3
 72
9
 73
5
 74
0
 42
0.0000001
 43
0.0000001
 44
0.0000000001
 40
0.0
 40
0.0
 40
0.0
 40
0.0
 40
0.2544572074
 40
1.0
 40
1.0
 40
1.0
 40
1.0
 10
388.7599560224
 20
213.5618530648
 30
0.0
 10
388.7433405898
 20
211.9885196891
 30
0.0
 10
388.6780293446
 20
205.8054237704
 30
0.0
 10
388.6118941746
 20
199.622335997
 30
0.0
 10
388.560329564
 20
195.0126045803
 30
0.0
  0
SPLINE
  5
34E
100
AcDbEntity
  8
0
100
AcDbSpline
 62
9
  6
CONTINUOUS
 70
0
 71
3
 72
9
 73
5
 74
0
 42
0.0000001
 43
0.0000001
 44
0.0000000001
 40
0.0
 40
0.0
 40
0.0
 40
0.0
 40
0.2544572066
 40
1.0
 40
1.0
 40
1.0
 40
1.0
 10
388.3474459232
 20
175.231852955
 30
0.0
 10
388.3651644246
 20
176.9096416416
 30
0.0
 10
388.4348115662
 20
183.5032400324
 30
0.0
 10
388.5053373315
 20
190.0968297373
 30
0.0
 10
388.5603252236
 20
195.0126062491
 30
0.0
  0
SPLINE
  5
34F
100
AcDbEntity
  8
0
100
AcDbSpline
 62
9
  6
CONTINUOUS
 70
0
 71
3
 72
9
 73
5
 74
0
 42
0.0000001
 43
0.0000001
 44
0.0000000001
 40
0.0
 40
0.0
 40
0.0
 40
0.0
 40
0.2544474613
 40
1.0
 40
1.0
 40
1.0
 40
1.0
 10
393.2644723476
 20
175.2318540017
 30
0.0
 10
393.3437710449
 20
176.9096467542
 30
0.0
 10
393.6554866452
 20
183.5035092922
 30
0.0
 10
393.9711279708
 20
190.0971981313
 30
0.0
 10
394.217205743
 20
195.0126045697
 30
0.0
  0
SPLINE
  5
350
100
AcDbEntity
  8
0
100
AcDbSpline
 62
9
  6
CONTINUOUS
 70
0
 71
3
 72
9
 73
5
 74
0
 42
0.0000001
 43
0.0000001
 44
0.0000000001
 40
0.0
 40
0.0
 40
0.0
 40
0.0
 40
0.2543835961
 40
1.0
 40
1.0
 40
1.0
 40
1.0
 10
403.274148616
 20
175.231862678
 30
0.0
 10
403.4888630118
 20
176.9096826581
 30
0.0
 10
404.3330908768
 20
183.505279498
 30
0.0
 10
405.1878317476
 20
190.0996163787
 30
0.0
 10
405.85378919
 20
195.0126017345
 30
0.0
  0
SPLINE
  5
351
100
AcDbEntity
  8
0
100
AcDbSpline
 62
9
  6
CONTINUOUS
 70
0
 71
3
 72
9
 73
5
 74
0
 42
0.0000001
 43
0.0000001
 44
0.0000000001
 40
0.0
 40
0.0
 40
0.0
 40
0.0
 40
0.2544474662
 40
1.0
 40
1.0
 40
1.0
 40
1.0
 10
395.1106536511
 20
213.5618528159
 30
0.0
 10
395.0362916091
 20
211.9885148337
 30
0.0
 10
394.743981535
 20
205.8051681923
 30
0.0
 10
394.4479901244
 20
199.6219844371
 30
0.0
 10
394.217231651
 20
195.0125978321
 30
0.0
  0
SPLINE
  5
352
100
AcDbEntity
  8
0
100
AcDbSpline
 62
9
  6
CONTINUOUS
 70
0
 71
3
 72
8
 73
4
 74
0
 42
0.0000001
 43
0.0000001
 44
0.0000000001
 40
0.0
 40
0.0
 40
0.0
 40
0.0
 40
1.0
 40
1.0
 40
1.0
 40
1.0
 10
408.2665312006
 20
213.5618533967
 30
0.0
 10
408.2658980735
 20
213.5459948572
 30
0.0
 10
408.2701165696
 20
213.5288253737
 30
0.0
 10
408.2636608711
 20
213.5143264744
 30
0.0
  0
SPLINE
  5
353
100
AcDbEntity
  8
0
100
AcDbSpline
 62
9
  6
CONTINUOUS
 70
0
 71
3
 72
9
 73
5
 74
0
 42
0.0000001
 43
0.0000001
 44
0.0000000001
 40
0.0
 40
0.0
 40
0.0
 40
0.0
 40
0.5119289157
 40
1.0
 40
1.0
 40
1.0
 40
1.0
 10
408.2729314154
 20
213.60677032
 30
0.0
 10
408.2690503434
 20
213.6015951435
 30
0.0
 10
408.2765424838
 20
213.5881278998
 30
0.0
 10
408.2698172135
 20
213.5729720743
 30
0.0
 10
408.2638935593
 20
213.5712556571
 30
0.0
  0
SPLINE
  5
354
100
AcDbEntity
  8
0
100
AcDbSpline
 62
9
  6
CONTINUOUS
 70
0
 71
3
 72
9
 73
5
 74
0
 42
0.0000001
 43
0.0000001
 44
0.0000000001
 40
0.0
 40
0.0
 40
0.0
 40
0.0
 40
0.2285322333
 40
1.0
 40
1.0
 40
1.0
 40
1.0
 10
418.9515155546
 20
213.2081811571
 30
0.0
 10
418.8628849408
 20
213.2814930625
 30
0.0
 10
418.4671763969
 20
213.5927466074
 30
0.0
 10
418.0463848367
 20
213.8711109823
 30
0.0
 10
417.7146407104
 20
214.0728808025
 30
0.0
  0
SPLINE
  5
355
100
AcDbEntity
  8
0
100
AcDbSpline
 62
9
  6
CONTINUOUS
 70
0
 71
3
 72
9
 73
5
 74
0
 42
0.0000001
 43
0.0000001
 44
0.0000000001
 40
0.0
 40
0.0
 40
0.0
 40
0.0
 40
0.2196816011
 40
1.0
 40
1.0
 40
1.0
 40
1.0
 10
419.6655402264
 20
212.4945683191
 30
0.0
 10
419.6203230491
 20
212.5531597215
 30
0.0
 10
419.4038042316
 20
212.8116218919
 30
0.0
 10
419.1540847593
 20
213.0406213746
 30
0.0
 10
418.9515149777
 20
213.2081794571
 30
0.0
  0
SPLINE
  5
356
100
AcDbEntity
  8
0
100
AcDbSpline
 62
9
  6
CONTINUOUS
 70
0
 71
3
 72
10
 73
6
 74
0
 42
0.0000001
 43
0.0000001
 44
0.0000000001
 40
0.0
 40
0.0
 40
0.0
 40
0.0
 40
0.2543250605
 40
0.507893783
 40
1.0
 40
1.0
 40
1.0
 40
1.0
 10
417.7182125343
 20
213.0418219109
 30
0.0
 10
417.3499461909
 20
211.5494502308
 30
0.0
 10
416.6278060683
 20
208.5653043683
 30
0.0
 10
415.3412942835
 20
202.6616457722
 30
0.0
 10
414.6639495592
 20
198.1877447722
 30
0.0
 10
414.4901026749
 20
195.2185449119
 30
0.0
  0
SPLINE
  5
357
100
AcDbEntity
  8
0
100
AcDbSpline
 62
9
  6
CONTINUOUS
 70
0
 71
3
 72
9
 73
5
 74
0
 42
0.0000001
 43
0.0000001
 44
0.0000000001
 40
0.0
 40
0.0
 40
0.0
 40
0.0
 40
0.2251751616
 40
1.0
 40
1.0
 40
1.0
 40
1.0
 10
418.855208341
 20
212.7369138301
 30
0.0
 10
418.769588469
 20
212.7587351632
 30
0.0
 10
418.3896991259
 20
212.8569881946
 30
0.0
 10
418.0106789448
 20
212.9587163537
 30
0.0
 10
417.7182231386
 20
213.0418232344
 30
0.0
  0
SPLINE
  5
358
100
AcDbEntity
  8
0
100
AcDbSpline
 62
9
  6
CONTINUOUS
 70
0
 71
3
 72
9
 73
5
 74
0
 42
0.0000001
 43
0.0000001
 44
0.0000000001
 40
0.0
 40
0.0
 40
0.0
 40
0.0
 40
0.210110743
 40
1.0
 40
1.0
 40
1.0
 40
1.0
 10
419.6655161665
 20
212.4945644513
 30
0.0
 10
419.6090790284
 20
212.5125583766
 30
0.0
 10
419.3396002954
 20
212.5954235597
 30
0.0
 10
419.0695935863
 20
212.6766570735
 30
0.0
 10
418.855208341
 20
212.7369138301
 30
0.0
  0
SPLINE
  5
359
100
AcDbEntity
  8
0
100
AcDbSpline
 62
9
  6
CONTINUOUS
 70
0
 71
3
 72
9
 73
5
 74
0
 42
0.0000001
 43
0.0000001
 44
0.0000000001
 40
0.0
 40
0.0
 40
0.0
 40
0.0
 40
0.2543600997
 40
1.0
 40
1.0
 40
1.0
 40
1.0
 10
416.4225262582
 20
213.0853011818
 30
0.0
 10
416.1528021153
 20
211.552068253
 30
0.0
 10
415.0918537648
 20
205.5243776395
 30
0.0
 10
414.0170844362
 20
199.4989807844
 30
0.0
 10
413.1811494438
 20
195.012606074
 30
0.0
  0
SPLINE
  5
35A
100
AcDbEntity
  8
0
100
AcDbSpline
 62
9
  6
CONTINUOUS
 70
0
 71
3
 72
9
 73
5
 74
0
 42
0.0000001
 43
0.0000001
 44
0.0000000001
 40
0.0
 40
0.0
 40
0.0
 40
0.0
 40
0.2428700276
 40
1.0
 40
1.0
 40
1.0
 40
1.0
 10
417.7182139451
 20
213.0418216376
 30
0.0
 10
417.6133019147
 20
213.0447857969
 30
0.0
 10
417.1813508697
 20
213.0575454962
 30
0.0
 10
416.7494439443
 20
213.0720464486
 30
0.0
 10
416.4225262582
 20
213.0853011818
 30
0.0
  0
SPLINE
  5
35B
100
AcDbEntity
  8
0
100
AcDbSpline
 62
9
  6
CONTINUOUS
 70
0
 71
3
 72
9
 73
5
 74
0
 42
0.0000001
 43
0.0000001
 44
0.0000000001
 40
0.0
 40
0.0
 40
0.0
 40
0.0
 40
0.2543881951
 40
1.0
 40
1.0
 40
1.0
 40
1.0
 10
408.2666702756
 20
213.5129615001
 30
0.0
 10
408.0658481498
 20
211.9437087869
 30
0.0
 10
407.276230229
 20
205.7750103843
 30
0.0
 10
406.4767184271
 20
199.607498659
 30
0.0
 10
405.8538648858
 20
195.0125309103
 30
0.0
  0
SPLINE
  5
35C
100
AcDbEntity
  8
0
100
AcDbSpline
 62
9
  6
CONTINUOUS
 70
0
 71
3
 72
10
 73
6
 74
0
 42
0.0000001
 43
0.0000001
 44
0.0000000001
 40
0.0
 40
0.0
 40
0.0
 40
0.0
 40
0.2285107941
 40
0.6016256481
 40
1.0
 40
1.0
 40
1.0
 40
1.0
 10
416.4225262582
 20
213.0853011818
 30
0.0
 10
415.8014091604
 20
213.1202305934
 30
0.0
 10
414.1658992915
 20
213.2082123933
 30
0.0
 10
411.4488848813
 20
213.3801962381
 30
0.0
 10
409.3505037491
 20
213.4738251159
 30
0.0
 10
408.2666745564
 20
213.5129609463
 30
0.0
  0
SPLINE
  5
35D
100
AcDbEntity
  8
0
100
AcDbSpline
 62
9
  6
CONTINUOUS
 70
0
 71
3
 72
9
 73
5
 74
0
 42
0.0000001
 43
0.0000001
 44
0.0000000001
 40
0.0
 40
0.0
 40
0.0
 40
0.0
 40
0.2543196706
 40
1.0
 40
1.0
 40
1.0
 40
1.0
 10
409.6351761265
 20
175.231852306
 30
0.0
 10
409.9303262882
 20
176.9096951599
 30
0.0
 10
411.0911005176
 20
183.507012376
 30
0.0
 10
412.2661641837
 20
190.1019746319
 30
0.0
 10
413.1811354077
 20
195.0125307438
 30
0.0
  0
SPLINE
  5
35E
100
AcDbEntity
  8
0
100
AcDbSpline
 62
9
  6
CONTINUOUS
 70
0
 71
3
 72
9
 73
5
 74
0
 42
0.0000001
 43
0.0000001
 44
0.0000000001
 40
0.0
 40
0.0
 40
0.0
 40
0.0
 40
0.4838144486
 40
1.0
 40
1.0
 40
1.0
 40
1.0
 10
418.316092924
 20
179.9873013701
 30
0.0
 10
418.3648704056
 20
181.7180252305
 30
0.0
 10
418.5714336844
 20
185.2938447202
 30
0.0
 10
419.0464049843
 20
188.8444390659
 30
0.0
 10
419.3474031991
 20
190.6670077569
 30
0.0
  0
SPLINE
  5
35F
100
AcDbEntity
  8
0
100
AcDbSpline
 62
9
  6
CONTINUOUS
 70
0
 71
3
 72
8
 73
4
 74
0
 42
0.0000001
 43
0.0000001
 44
0.0000000001
 40
0.0
 40
0.0
 40
0.0
 40
0.0
 40
1.0
 40
1.0
 40
1.0
 40
1.0
 10
417.5345253003
 20
175.2319962709
 30
0.0
 10
417.7947734989
 20
176.8171430364
 30
0.0
 10
418.0550327238
 20
178.402288132
 30
0.0
 10
418.316092924
 20
179.9873013701
 30
0.0
  0
SPLINE
  5
360
100
AcDbEntity
  8
0
100
AcDbSpline
 62
9
  6
CONTINUOUS
 70
0
 71
3
 72
12
 73
8
 74
0
 42
0.0000001
 43
0.0000001
 44
0.0000000001
 40
0.0
 40
0.0
 40
0.0
 40
0.0
 40
0.175815235
 40
0.3368885828
 40
0.6138903743
 40
0.8352333413
 40
1.0
 40
1.0
 40
1.0
 40
1.0
 10
414.4818106963
 20
195.0126021436
 30
0.0
 10
414.503070292
 20
194.5883642434
 30
0.0
 10
414.6380805346
 20
193.7733881836
 30
0.0
 10
415.2942483529
 20
192.4242284817
 30
0.0
 10
416.4954212776
 20
191.2943050873
 30
0.0
 10
418.0011366024
 20
190.6799054808
 30
0.0
 10
418.9536365692
 20
190.6090674395
 30
0.0
 10
419.3474765878
 20
190.6669916897
 30
0.0
  0
SPLINE
  5
361
100
AcDbEntity
  8
0
100
AcDbSpline
 62
9
  6
CONTINUOUS
 70
0
 71
3
 72
9
 73
5
 74
0
 42
0.0000001
 43
0.0000001
 44
0.0000000001
 40
0.0
 40
0.0
 40
0.0
 40
0.0
 40
0.4610950574
 40
1.0
 40
1.0
 40
1.0
 40
1.0
 10
416.5717425402
 20
195.8286338552
 30
0.0
 10
416.2754334653
 20
195.6505759372
 30
0.0
 10
415.5909514992
 20
195.3345452836
 30
0.0
 10
414.8733503214
 20
195.1122817246
 30
0.0
 10
414.4818106963
 20
195.0126021436
 30
0.0
  0
SPLINE
  5
362
100
AcDbEntity
  8
0
100
AcDbSpline
 62
9
  6
CONTINUOUS
 70
0
 71
3
 72
13
 73
9
 74
0
 42
0.0000001
 43
0.0000001
 44
0.0000000001
 40
0.0
 40
0.0
 40
0.0
 40
0.0
 40
0.1742705087
 40
0.3308766065
 40
0.4699594825
 40
0.5959102216
 40
0.8157010956
 40
1.0
 40
1.0
 40
1.0
 40
1.0
 10
416.5717494704
 20
195.8289349532
 30
0.0
 10
416.5655145883
 20
195.558442855
 30
0.0
 10
416.5996513562
 20
195.0422953726
 30
0.0
 10
416.8052817616
 20
194.3335316907
 30
0.0
 10
417.1691639845
 20
193.7775092691
 30
0.0
 10
417.750736033
 20
193.2839988528
 30
0.0
 10
418.5667401573
 20
193.030204121
 30
0.0
 10
419.2061552068
 20
193.0801946593
 30
0.0
 10
419.4819464151
 20
193.1564286168
 30
0.0
  0
SPLINE
  5
363
100
AcDbEntity
  8
0
100
AcDbSpline
 62
9
  6
CONTINUOUS
 70
0
 71
3
 72
16
 73
12
 74
0
 42
0.0000001
 43
0.0000001
 44
0.0000000001
 40
0.0
 40
0.0
 40
0.0
 40
0.0
 40
0.4356697797
 40
0.6076930718
 40
0.7488386876
 40
0.8586846117
 40
0.9371657102
 40
0.9646456279
 40
0.9842815321
 40
0.9960685325
 40
1.0
 40
1.0
 40
1.0
 40
1.0
 10
420.1929349706
 20
192.9869893684
 30
0.0
 10
420.2760466207
 20
192.9201115569
 30
0.0
 10
420.3963270244
 20
192.8319741862
 30
0.0
 10
420.5512122989
 20
192.7338645097
 30
0.0
 10
420.6406884275
 20
192.6814686281
 30
0.0
 10
420.7106266547
 20
192.6417598985
 30
0.0
 10
420.7578653928
 20
192.6168933442
 30
0.0
 10
420.7841127001
 20
192.6022953403
 30
0.0
 10
420.7986135099
 20
192.5963102373
 30
0.0
 10
420.803411309
 20
192.5913846039
 30
0.0
 10
420.8099017554
 20
192.5907483992
 30
0.0
 10
420.8095092238
 20
192.589869406
 30
0.0
  0
SPLINE
  5
364
100
AcDbEntity
  8
0
100
AcDbSpline
 62
9
  6
CONTINUOUS
 70
0
 71
3
 72
9
 73
5
 74
0
 42
0.0000001
 43
0.0000001
 44
0.0000000001
 40
0.0
 40
0.0
 40
0.0
 40
0.0
 40
0.4993745331
 40
1.0
 40
1.0
 40
1.0
 40
1.0
 10
419.4820184118
 20
193.1564369231
 30
0.0
 10
419.6028694609
 20
193.1905828557
 30
0.0
 10
419.8689510141
 20
193.1971657446
 30
0.0
 10
420.0952972443
 20
193.0665569103
 30
0.0
 10
420.1929945184
 20
192.9871511501
 30
0.0
  0
SPLINE
  5
365
100
AcDbEntity
  8
0
100
AcDbSpline
 62
9
  6
CONTINUOUS
 70
0
 71
3
 72
9
 73
5
 74
0
 42
0.0000001
 43
0.0000001
 44
0.0000000001
 40
0.0
 40
0.0
 40
0.0
 40
0.0
 40
0.459427716
 40
1.0
 40
1.0
 40
1.0
 40
1.0
 10
416.5770264764
 20
195.9532978767
 30
0.0
 10
416.2798770931
 20
195.7888143207
 30
0.0
 10
415.5944255987
 20
195.5012854723
 30
0.0
 10
414.8802220466
 20
195.3051933035
 30
0.0
 10
414.4901054303
 20
195.2185479538
 30
0.0
  0
SPLINE
  5
366
100
AcDbEntity
  8
0
100
AcDbSpline
 62
9
  6
CONTINUOUS
 70
0
 71
3
 72
9
 73
5
 74
0
 42
0.0000001
 43
0.0000001
 44
0.0000000001
 40
0.0
 40
0.0
 40
0.0
 40
0.0
 40
0.522478822
 40
1.0
 40
1.0
 40
1.0
 40
1.0
 10
419.5607765083
 20
190.0575014875
 30
0.0
 10
419.2708168343
 20
188.3839900601
 30
0.0
 10
418.8099392124
 20
185.1629441966
 30
0.0
 10
418.5734546589
 20
181.919124655
 30
0.0
 10
418.4865442395
 20
180.3692598874
 30
0.0
  0
SPLINE
  5
367
100
AcDbEntity
  8
0
100
AcDbSpline
 62
9
  6
CONTINUOUS
 70
0
 71
3
 72
10
 73
6
 74
0
 42
0.0000001
 43
0.0000001
 44
0.0000000001
 40
0.0
 40
0.0
 40
0.0
 40
0.0
 40
0.6499639187
 40
0.8645606347
 40
1.0
 40
1.0
 40
1.0
 40
1.0
 10
419.5607757536
 20
190.0575016494
 30
0.0
 10
419.5378720113
 20
190.1983170021
 30
0.0
 10
419.5027365387
 20
190.3879332377
 30
0.0
 10
419.4268867425
 20
190.5906130452
 30
0.0
 10
419.3754028816
 20
190.6568477951
 30
0.0
 10
419.3474318346
 20
190.6669183072
 30
0.0
  0
SPLINE
  5
368
100
AcDbEntity
  8
0
100
AcDbSpline
 62
9
  6
CONTINUOUS
 70
0
 71
3
 72
18
 73
14
 74
0
 42
0.0000001
 43
0.0000001
 44
0.0000000001
 40
0.0
 40
0.0
 40
0.0
 40
0.0
 40
0.2318173061
 40
0.4342246228
 40
0.6064799378
 40
0.7478367822
 40
0.8580122375
 40
0.9013621747
 40
0.93685818
 40
0.9644772642
 40
0.9842079395
 40
0.9960491083
 40
1.0
 40
1.0
 40
1.0
 40
1.0
 10
419.560735523
 20
190.0575111226
 30
0.0
 10
419.6538463394
 20
189.986249966
 30
0.0
 10
419.8301546673
 20
189.8552245957
 30
0.0
 10
420.0813175703
 20
189.6790662663
 30
0.0
 10
420.2985740216
 20
189.5343765427
 30
0.0
 10
420.4791703622
 20
189.418952779
 30
0.0
 10
420.6061336711
 20
189.3405592845
 30
0.0
 10
420.6880864815
 20
189.2914986159
 30
0.0
 10
420.7343659803
 20
189.2636002768
 30
0.0
 10
420.7705171035
 20
189.2433610204
 30
0.0
 10
420.796152065
 20
189.2257469688
 30
0.0
 10
420.8118959416
 20
189.2208399847
 30
0.0
 10
420.8185092402
 20
189.2124295265
 30
0.0
 10
420.8203469176
 20
189.2132145315
 30
0.0
  0
SPLINE
  5
369
100
AcDbEntity
  8
0
100
AcDbSpline
 62
9
  6
CONTINUOUS
 70
0
 71
3
 72
9
 73
5
 74
0
 42
0.0000001
 43
0.0000001
 44
0.0000000001
 40
0.0
 40
0.0
 40
0.0
 40
0.0
 40
0.2424380704
 40
1.0
 40
1.0
 40
1.0
 40
1.0
 10
420.1926219407
 20
192.9872412845
 30
0.0
 10
420.1983513036
 20
192.7439323138
 30
0.0
 10
420.1575201177
 20
191.739314732
 30
0.0
 10
419.8773583986
 20
190.7489396464
 30
0.0
 10
419.5606455068
 20
190.0575322868
 30
0.0
  0
SPLINE
  5
36A
100
AcDbEntity
  8
0
100
AcDbSpline
 62
9
  6
CONTINUOUS
 70
0
 71
3
 72
8
 73
4
 74
0
 42
0.0000001
 43
0.0000001
 44
0.0000000001
 40
0.0
 40
0.0
 40
0.0
 40
0.0
 40
1.0
 40
1.0
 40
1.0
 40
1.0
 10
378.872777148
 20
176.0637208349
 30
0.0
 10
378.9998713463
 20
176.0892428103
 30
0.0
 10
379.1308841594
 20
176.1002319839
 30
0.0
 10
379.2604104646
 20
176.0950125272
 30
0.0
  0
SPLINE
  5
36B
100
AcDbEntity
  8
0
100
AcDbSpline
 62
9
  6
CONTINUOUS
 70
0
 71
3
 72
9
 73
5
 74
0
 42
0.0000001
 43
0.0000001
 44
0.0000000001
 40
0.0
 40
0.0
 40
0.0
 40
0.0
 40
0.2493203656
 40
1.0
 40
1.0
 40
1.0
 40
1.0
 10
372.203027288
 20
189.2386864541
 30
0.0
 10
372.7724967672
 20
188.1515475008
 30
0.0
 10
375.0380312715
 20
183.7814116287
 30
0.0
 10
377.2398762575
 20
179.3785229501
 30
0.0
 10
378.8727524704
 20
176.0637180929
 30
0.0
  0
SPLINE
  5
36C
100
AcDbEntity
  8
0
100
AcDbSpline
 62
9
  6
CONTINUOUS
 70
0
 71
3
 72
8
 73
4
 74
0
 42
0.0000001
 43
0.0000001
 44
0.0000000001
 40
0.0
 40
0.0
 40
0.0
 40
0.0
 40
1.0
 40
1.0
 40
1.0
 40
1.0
 10
369.1014115046
 20
195.0425130398
 30
0.0
 10
369.3689890889
 20
194.8423602206
 30
0.0
 10
369.6084216337
 20
194.6035699244
 30
0.0
 10
369.8270495225
 20
194.3508630568
 30
0.0
  0
SPLINE
  5
36D
100
AcDbEntity
  8
0
100
AcDbSpline
 62
9
  6
CONTINUOUS
 70
0
 71
3
 72
10
 73
6
 74
0
 42
0.0000001
 43
0.0000001
 44
0.0000000001
 40
0.0
 40
0.0
 40
0.0
 40
0.0
 40
0.5009651813
 40
0.7505121107
 40
1.0
 40
1.0
 40
1.0
 40
1.0
 10
370.0282399978
 20
194.1073193574
 30
0.0
 10
370.58267297
 20
193.4048162804
 30
0.0
 10
371.2190895642
 20
192.2004242687
 30
0.0
 10
371.8386410398
 20
190.5263082507
 30
0.0
 10
372.0857170582
 20
189.6686606803
 30
0.0
 10
372.203027288
 20
189.2386864541
 30
0.0
  0
LINE
  5
36E
100
AcDbEntity
  8
0
100
AcDbLine
 62
9
  6
CONTINUOUS
 10
368.8579469592
 20
195.4874996495
 11
369.1014115046
 21
195.0425130398
  0
SPLINE
  5
36F
100
AcDbEntity
  8
0
100
AcDbSpline
 62
9
  6
CONTINUOUS
 70
0
 71
3
 72
9
 73
5
 74
0
 42
0.0000001
 43
0.0000001
 44
0.0000000001
 40
0.0
 40
0.0
 40
0.0
 40
0.0
 40
0.4995805534
 40
1.0
 40
1.0
 40
1.0
 40
1.0
 10
379.2603856349
 20
176.0950035889
 30
0.0
 10
379.9525003522
 20
176.0626958104
 30
0.0
 10
381.3361005626
 20
175.9579767641
 30
0.0
 10
382.7125321722
 20
175.7780674842
 30
0.0
 10
383.3963583018
 20
175.6594841662
 30
0.0
  0
SPLINE
  5
370
100
AcDbEntity
  8
0
100
AcDbSpline
 62
9
  6
CONTINUOUS
 70
0
 71
3
 72
9
 73
5
 74
0
 42
0.0000001
 43
0.0000001
 44
0.0000000001
 40
0.0
 40
0.0
 40
0.0
 40
0.0
 40
0.4933381438
 40
1.0
 40
1.0
 40
1.0
 40
1.0
 10
385.6873670396
 20
175.1422361967
 30
0.0
 10
384.6602510892
 20
174.895806039
 30
0.0
 10
382.5522473859
 20
174.4905419856
 30
0.0
 10
380.4107628053
 20
174.3559071975
 30
0.0
 10
379.3263951063
 20
174.3255888113
 30
0.0
  0
SPLINE
  5
371
100
AcDbEntity
  8
0
100
AcDbSpline
 62
9
  6
CONTINUOUS
 70
0
 71
3
 72
23
 73
19
 74
0
 42
0.0000001
 43
0.0000001
 44
0.0000000001
 40
0.0
 40
0.0
 40
0.0
 40
0.0
 40
0.0516533151
 40
0.1023528001
 40
0.1525202765
 40
0.2022769614
 40
0.3938651954
 40
0.5688357386
 40
0.7203666003
 40
0.7852475742
 40
0.8418322778
 40
0.889508963
 40
0.9281598248
 40
0.9578329935
 40
0.9788162659
 40
0.9861825475
 40
0.9916755739
 40
1.0
 40
1.0
 40
1.0
 40
1.0
 10
379.2094731141
 20
174.2825864361
 30
0.0
 10
379.1045456366
 20
174.2157408319
 30
0.0
 10
378.9041568821
 20
174.071813338
 30
0.0
 10
378.5925975274
 20
173.8770286604
 30
0.0
 10
378.2897914981
 20
173.6771978748
 30
0.0
 10
377.7078443432
 20
173.2843579035
 30
0.0
 10
376.8700589546
 20
172.7332001272
 30
0.0
 10
375.8122844087
 20
172.0710643409
 30
0.0
 10
374.9947347703
 20
171.6005910317
 30
0.0
 10
374.407420091
 20
171.3046018924
 30
0.0
 10
374.0359675434
 20
171.1368176818
 30
0.0
 10
373.7148964535
 20
171.0124605843
 30
0.0
 10
373.4486355651
 20
170.9264759407
 30
0.0
 10
373.2398979913
 20
170.8757473771
 30
0.0
 10
373.1018189158
 20
170.8488614611
 30
0.0
 10
373.0205318962
 20
170.8474096764
 30
0.0
 10
372.9687012387
 20
170.8565932231
 30
0.0
 10
372.9474616869
 20
170.8920071765
 30
0.0
 10
372.9474532647
 20
170.9120572067
 30
0.0
  0
SPLINE
  5
372
100
AcDbEntity
  8
0
100
AcDbSpline
 62
9
  6
CONTINUOUS
 70
0
 71
3
 72
8
 73
4
 74
0
 42
0.0000001
 43
0.0000001
 44
0.0000000001
 40
0.0
 40
0.0
 40
0.0
 40
0.0
 40
1.0
 40
1.0
 40
1.0
 40
1.0
 10
379.3264054192
 20
174.325195506
 30
0.0
 10
379.2850954551
 20
174.3213937727
 30
0.0
 10
379.2442673146
 20
174.3051769191
 30
0.0
 10
379.2094731142
 20
174.2825864361
 30
0.0
  0
SPLINE
  5
373
100
AcDbEntity
  8
0
100
AcDbSpline
 62
9
  6
CONTINUOUS
 70
0
 71
3
 72
13
 73
9
 74
0
 42
0.0000001
 43
0.0000001
 44
0.0000000001
 40
0.0
 40
0.0
 40
0.0
 40
0.0
 40
0.0892877755
 40
0.183087872
 40
0.3984001075
 40
0.5266124765
 40
0.6699200346
 40
1.0
 40
1.0
 40
1.0
 40
1.0
 10
372.9474532647
 20
110.1621198244
 30
0.0
 10
372.9474533458
 20
109.9053263501
 30
0.0
 10
373.0179847745
 20
109.3763796721
 30
0.0
 10
373.4548421189
 20
108.3060023371
 30
0.0
 10
374.3293964548
 20
107.3482816013
 30
0.0
 10
375.4906988718
 20
106.5634982954
 30
0.0
 10
377.0524229962
 20
105.8057579368
 30
0.0
 10
378.3878423195
 20
105.4627746782
 30
0.0
 10
379.3264054192
 20
105.3202909773
 30
0.0
  0
SPLINE
  5
374
100
AcDbEntity
  8
0
100
AcDbSpline
 62
7
  6
CONTINUOUS
 70
0
 71
3
 72
21
 73
17
 74
0
 42
0.0000001
 43
0.0000001
 44
0.0000000001
 40
0.0
 40
0.0
 40
0.0
 40
0.0
 40
0.0581195389
 40
0.0779427125
 40
0.0920360726
 40
0.1022609044
 40
0.1120539066
 40
0.1389382292
 40
0.1775299081
 40
0.2252093955
 40
0.2792790803
 40
0.3385936459
 40
0.4717463911
 40
0.6266475818
 40
0.8037196058
 40
1.0
 40
1.0
 40
1.0
 40
1.0
 10
379.3389293445
 20
101.9277835344
 30
0.0
 10
379.3726857155
 20
101.9190849687
 30
0.0
 10
379.4183840797
 20
101.9080634963
 30
0.0
 10
379.473530157
 20
101.9040270716
 30
0.0
 10
379.5001902874
 20
101.907055677
 30
0.0
 10
379.5185010816
 20
101.9187595538
 30
0.0
 10
379.5277107235
 20
101.946895805
 30
0.0
 10
379.5153100898
 20
101.9921032226
 30
0.0
 10
379.4911474095
 20
102.0547322812
 30
0.0
 10
379.4589942307
 20
102.1328400853
 30
0.0
 10
379.427972965
 20
102.2243124339
 30
0.0
 10
379.3912070355
 20
102.36782515
 30
0.0
 10
379.3727987723
 20
102.5764296546
 30
0.0
 10
379.375682394
 20
102.8553108545
 30
0.0
 10
379.3781136028
 20
103.1720872567
 30
0.0
 10
379.3785824638
 20
103.3962461525
 30
0.0
 10
379.3866657525
 20
103.5136939593
 30
0.0
  0
SPLINE
  5
375
100
AcDbEntity
  8
0
100
AcDbSpline
 62
7
  6
CONTINUOUS
 70
0
 71
3
 72
9
 73
5
 74
0
 42
0.0000001
 43
0.0000001
 44
0.0000000001
 40
0.0
 40
0.0
 40
0.0
 40
0.0
 40
0.2424739987
 40
1.0
 40
1.0
 40
1.0
 40
1.0
 10
379.3866657525
 20
103.5136939593
 30
0.0
 10
379.3893852184
 20
103.5532069982
 30
0.0
 10
379.4039094363
 20
103.715945972
 30
0.0
 10
379.4285640192
 20
103.8775652743
 30
0.0
 10
379.4485148741
 20
103.9996831052
 30
0.0
  0
SPLINE
  5
376
100
AcDbEntity
  8
0
100
AcDbSpline
 62
7
  6
CONTINUOUS
 70
0
 71
3
 72
10
 73
6
 74
0
 42
0.0000001
 43
0.0000001
 44
0.0000000001
 40
0.0
 40
0.0
 40
0.0
 40
0.0
 40
0.4877304637
 40
0.7432175447
 40
1.0
 40
1.0
 40
1.0
 40
1.0
 10
379.4485148741
 20
103.9996831052
 30
0.0
 10
379.4833631405
 20
104.2129869828
 30
0.0
 10
379.5431389714
 20
104.5400058094
 30
0.0
 10
379.4968236081
 20
104.9856085233
 30
0.0
 10
379.4020800781
 20
105.1977620607
 30
0.0
 10
379.3380875099
 20
105.2918530541
 30
0.0
  0
SPLINE
  5
377
100
AcDbEntity
  8
0
100
AcDbSpline
 62
9
  6
CONTINUOUS
 70
0
 71
3
 72
9
 73
5
 74
0
 42
0.0000001
 43
0.0000001
 44
0.0000000001
 40
0.0
 40
0.0
 40
0.0
 40
0.0
 40
0.4286337925
 40
1.0
 40
1.0
 40
1.0
 40
1.0
 10
372.9043488269
 20
179.2090609099
 30
0.0
 10
372.9098656639
 20
179.134990078
 30
0.0
 10
373.00662947
 20
178.9712582213
 30
0.0
 10
373.1643540591
 20
178.8899220458
 30
0.0
 10
373.2560610383
 20
178.8526031449
 30
0.0
  0
SPLINE
  5
378
100
AcDbEntity
  8
0
100
AcDbSpline
 62
9
  6
CONTINUOUS
 70
0
 71
3
 72
13
 73
9
 74
0
 42
0.0000001
 43
0.0000001
 44
0.0000000001
 40
0.0
 40
0.0
 40
0.0
 40
0.0
 40
0.118105019
 40
0.2401244393
 40
0.3640109286
 40
0.4895709231
 40
0.7438781693
 40
1.0
 40
1.0
 40
1.0
 40
1.0
 10
369.4344219688
 20
193.6743725267
 30
0.0
 10
369.7270702587
 20
193.2756801073
 30
0.0
 10
370.2414750603
 20
192.4061725641
 30
0.0
 10
370.8679673867
 20
191.0149019726
 30
0.0
 10
371.385010182
 20
189.5461063262
 30
0.0
 10
371.9582798554
 20
187.5151007423
 30
0.0
 10
372.5275769263
 20
184.9121258775
 30
0.0
 10
372.9471047515
 20
182.8164427594
 30
0.0
 10
373.1486594968
 20
181.7630319962
 30
0.0
  0
SPLINE
  5
379
100
AcDbEntity
  8
0
100
AcDbSpline
 62
9
  6
CONTINUOUS
 70
0
 71
3
 72
13
 73
9
 74
0
 42
0.0000001
 43
0.0000001
 44
0.0000000001
 40
0.0
 40
0.0
 40
0.0
 40
0.0
 40
0.0191169605
 40
0.084489928
 40
0.1871868665
 40
0.3179055121
 40
0.6354995542
 40
1.0
 40
1.0
 40
1.0
 40
1.0
 10
418.4149872965
 20
177.8962066102
 30
0.0
 10
418.4116224036
 20
177.8808010529
 30
0.0
 10
418.4151173027
 20
178.0328197921
 30
0.0
 10
418.4115825057
 20
178.1045605303
 30
0.0
 10
418.4165804555
 20
178.3951281201
 30
0.0
 10
418.4236475634
 20
178.8270430933
 30
0.0
 10
418.4438696431
 20
179.511450139
 30
0.0
 10
418.4697860132
 20
180.0691652502
 30
0.0
 10
418.4865847529
 20
180.3693563013
 30
0.0
  0
SPLINE
  5
37A
100
AcDbEntity
  8
0
100
AcDbSpline
 62
9
  6
CONTINUOUS
 70
0
 71
3
 72
11
 73
7
 74
0
 42
0.0000001
 43
0.0000001
 44
0.0000000001
 40
0.0
 40
0.0
 40
0.0
 40
0.0
 40
0.0522854054
 40
0.2532857868
 40
0.577616875
 40
1.0
 40
1.0
 40
1.0
 40
1.0
 10
418.3316033413
 20
177.4394351431
 30
0.0
 10
418.3297484961
 20
177.4265484545
 30
0.0
 10
418.3237813572
 20
177.5629758523
 30
0.0
 10
418.3215210577
 20
177.6281187871
 30
0.0
 10
418.313480788
 20
177.9088278574
 30
0.0
 10
418.3102733799
 20
178.0808087529
 30
0.0
 10
418.3085732564
 20
178.1859718583
 30
0.0
  0
SPLINE
  5
37B
100
AcDbEntity
  8
0
100
AcDbSpline
 62
9
  6
CONTINUOUS
 70
0
 71
3
 72
9
 73
5
 74
0
 42
0.0000001
 43
0.0000001
 44
0.0000000001
 40
0.0
 40
0.0
 40
0.0
 40
0.0
 40
0.2171212327
 40
1.0
 40
1.0
 40
1.0
 40
1.0
 10
418.3085732564
 20
178.1859718583
 30
0.0
 10
418.306465827
 20
178.3163293414
 30
0.0
 10
418.2994928535
 20
178.9167633004
 30
0.0
 10
418.3055431787
 20
179.5173247412
 30
0.0
 10
418.316092796
 20
179.9873005926
 30
0.0
  0
SPLINE
  5
37C
100
AcDbEntity
  8
0
100
AcDbSpline
 62
9
  6
CONTINUOUS
 70
0
 71
3
 72
9
 73
5
 74
0
 42
0.0000001
 43
0.0000001
 44
0.0000000001
 40
0.0
 40
0.0
 40
0.0
 40
0.0
 40
0.6226164124
 40
1.0
 40
1.0
 40
1.0
 40
1.0
 10
423.8000608094
 20
249.183392378
 30
0.0
 10
423.7984639061
 20
249.2538456334
 30
0.0
 10
423.7919490359
 20
249.364198321
 30
0.0
 10
423.7478985022
 20
249.4800957973
 30
0.0
 10
423.7134627915
 20
249.5053684689
 30
0.0
  0
SPLINE
  5
37D
100
AcDbEntity
  8
0
100
AcDbSpline
 62
9
  6
CONTINUOUS
 70
0
 71
3
 72
22
 73
18
 74
0
 42
0.0000001
 43
0.0000001
 44
0.0000000001
 40
0.0
 40
0.0
 40
0.0
 40
0.0
 40
0.0125607126
 40
0.0254536937
 40
0.0425237498
 40
0.063116232
 40
0.0865977822
 40
0.1123969823
 40
0.1400707813
 40
0.1999585336
 40
0.2641827344
 40
0.3314175355
 40
0.4009456457
 40
0.5449311633
 40
0.6935515867
 40
0.8454802372
 40
1.0
 40
1.0
 40
1.0
 40
1.0
 10
423.7134627915
 20
249.5053684689
 30
0.0
 10
423.6367534746
 20
249.5616661126
 30
0.0
 10
423.4207206237
 20
249.3806711684
 30
0.0
 10
423.2445319071
 20
249.1561932694
 30
0.0
 10
423.0166751475
 20
248.8314107662
 30
0.0
 10
422.7753771816
 20
248.4415319308
 30
0.0
 10
422.5074110039
 20
247.9832115374
 30
0.0
 10
422.2234994302
 20
247.4745846602
 30
0.0
 10
421.814308903
 20
246.7193799006
 30
0.0
 10
421.2814459849
 20
245.7005410124
 30
0.0
 10
420.6206467194
 20
244.4103788881
 30
0.0
 10
419.9318001096
 20
243.0525897734
 30
0.0
 10
418.9713419808
 20
241.1550633323
 30
0.0
 10
417.7270374343
 20
238.7102054585
 30
0.0
 10
416.1725396114
 20
235.7229008965
 30
0.0
 10
414.540015195
 20
232.6865428617
 30
0.0
 10
413.405439426
 20
230.6610502479
 30
0.0
 10
412.8227237258
 20
229.6458698952
 30
0.0
  0
SPLINE
  5
37E
100
AcDbEntity
  8
0
100
AcDbSpline
 62
7
  6
CONTINUOUS
 70
0
 71
3
 72
9
 73
5
 74
0
 42
0.0000001
 43
0.0000001
 44
0.0000000001
 40
0.0
 40
0.0
 40
0.0
 40
0.0
 40
0.2071428037
 40
1.0
 40
1.0
 40
1.0
 40
1.0
 10
388.4974571292
 20
335.8359035539
 30
0.0
 10
388.4974574065
 20
335.84114464
 30
0.0
 10
388.4928445942
 20
335.8666133589
 30
0.0
 10
388.4718942121
 20
335.8853797163
 30
0.0
 10
388.4555122677
 20
335.8969583258
 30
0.0
  0
SPLINE
  5
37F
100
AcDbEntity
  8
0
100
AcDbSpline
 62
9
  6
CONTINUOUS
 70
0
 71
3
 72
15
 73
11
 74
0
 42
0.0000001
 43
0.0000001
 44
0.0000000001
 40
0.0
 40
0.0
 40
0.0
 40
0.0
 40
0.4105709351
 40
0.5833346835
 40
0.7293268072
 40
0.8459358248
 40
0.9308977275
 40
0.9610209473
 40
0.9826649777
 40
1.0
 40
1.0
 40
1.0
 40
1.0
 10
368.7277274903
 20
195.292874136
 30
0.0
 10
368.6791972672
 20
195.213894398
 30
0.0
 10
368.6101224043
 20
195.1018126365
 30
0.0
 10
368.5233849314
 20
194.9617130033
 30
0.0
 10
368.471366738
 20
194.8785927398
 30
0.0
 10
368.4297080207
 20
194.8113312952
 30
0.0
 10
368.4014803849
 20
194.7689013118
 30
0.0
 10
368.3849016371
 20
194.7406583618
 30
0.0
 10
368.3758510507
 20
194.7318374062
 30
0.0
 10
368.3716099334
 20
194.7165369239
 30
0.0
 10
368.368407457
 20
194.7187869566
 30
0.0
  0
SPLINE
  5
380
100
AcDbEntity
  8
0
100
AcDbSpline
 62
9
  6
CONTINUOUS
 70
0
 71
3
 72
8
 73
4
 74
0
 42
0.0000001
 43
0.0000001
 44
0.0000000001
 40
0.0
 40
0.0
 40
0.0
 40
0.0
 40
1.0
 40
1.0
 40
1.0
 40
1.0
 10
368.7277023446
 20
195.2928326298
 30
0.0
 10
368.8573860518
 20
195.2175881473
 30
0.0
 10
368.9820494687
 20
195.1332492243
 30
0.0
 10
369.1014116545
 20
195.042517396
 30
0.0
  0
SPLINE
  5
381
100
AcDbEntity
  8
0
100
AcDbSpline
 62
9
  6
CONTINUOUS
 70
0
 71
3
 72
18
 73
14
 74
0
 42
0.0000001
 43
0.0000001
 44
0.0000000001
 40
0.0
 40
0.0
 40
0.0
 40
0.0
 40
0.2250497708
 40
0.4735034822
 40
0.6024380412
 40
0.6677794335
 40
0.7335845262
 40
0.7996899639
 40
0.8660702992
 40
0.8994885336
 40
0.9330480411
 40
0.9665827062
 40
1.0
 40
1.0
 40
1.0
 40
1.0
 10
373.2558234103
 20
178.8524791227
 30
0.0
 10
373.6907933989
 20
178.6722094208
 30
0.0
 10
374.6045134271
 20
178.2878010816
 30
0.0
 10
375.7267600514
 20
177.7126574721
 30
0.0
 10
376.5524454332
 20
177.2929840922
 30
0.0
 10
377.0329042052
 20
177.0374985892
 30
0.0
 10
377.3953717974
 20
176.8401941942
 30
0.0
 10
377.7626659926
 20
176.6472594824
 30
0.0
 10
378.0761830204
 20
176.49782332
 30
0.0
 10
378.3176781977
 20
176.3576274856
 30
0.0
 10
378.4934676983
 20
176.2423199067
 30
0.0
 10
378.6736403696
 20
176.1331764431
 30
0.0
 10
378.8053462494
 20
176.0823069538
 30
0.0
 10
378.8727705032
 20
176.0638108183
 30
0.0
  0
SPLINE
  5
382
100
AcDbEntity
  8
0
100
AcDbSpline
 62
9
  6
CONTINUOUS
 70
0
 71
3
 72
9
 73
5
 74
0
 42
0.0000001
 43
0.0000001
 44
0.0000000001
 40
0.0
 40
0.0
 40
0.0
 40
0.0
 40
0.2538893417
 40
1.0
 40
1.0
 40
1.0
 40
1.0
 10
373.1477134736
 20
181.7624534551
 30
0.0
 10
373.1582992161
 20
181.5920953048
 30
0.0
 10
373.195284907
 20
180.9208259324
 30
0.0
 10
373.225956681
 20
180.2491501834
 30
0.0
 10
373.2402256663
 20
179.7477520394
 30
0.0
  0
SPLINE
  5
383
100
AcDbEntity
  8
0
100
AcDbSpline
 62
9
  6
CONTINUOUS
 70
0
 71
3
 72
9
 73
5
 74
0
 42
0.0000001
 43
0.0000001
 44
0.0000000001
 40
0.0
 40
0.0
 40
0.0
 40
0.0
 40
0.2533974486
 40
1.0
 40
1.0
 40
1.0
 40
1.0
 10
373.2402256663
 20
179.7477520394
 30
0.0
 10
373.2423771668
 20
179.6721504222
 30
0.0
 10
373.2498840356
 20
179.3737702338
 30
0.0
 10
373.25393452
 20
179.0753116096
 30
0.0
 10
373.2558234103
 20
178.8524791227
 30
0.0
  0
SPLINE
  5
384
100
AcDbEntity
  8
0
100
AcDbSpline
 62
9
  6
CONTINUOUS
 70
0
 71
3
 72
12
 73
8
 74
0
 42
0.0000001
 43
0.0000001
 44
0.0000000001
 40
0.0
 40
0.0
 40
0.0
 40
0.0
 40
0.2529202004
 40
0.3791479509
 40
0.5049011732
 40
0.7544665805
 40
1.0
 40
1.0
 40
1.0
 40
1.0
 10
372.2031024629
 20
189.2387503172
 30
0.0
 10
372.329576498
 20
188.6152724056
 30
0.0
 10
372.5359252063
 20
187.6839140674
 30
0.0
 10
372.7452131291
 20
186.43081258
 30
0.0
 10
372.8940063962
 20
185.1777538793
 30
0.0
 10
373.0205915355
 20
183.6210087641
 30
0.0
 10
373.1071457969
 20
182.3787158721
 30
0.0
 10
373.1477134736
 20
181.7624534551
 30
0.0
  0
SPLINE
  5
385
100
AcDbEntity
  8
0
100
AcDbSpline
 62
9
  6
CONTINUOUS
 70
0
 71
3
 72
9
 73
5
 74
0
 42
0.0000001
 43
0.0000001
 44
0.0000000001
 40
0.0
 40
0.0
 40
0.0
 40
0.0
 40
0.5042309
 40
1.0
 40
1.0
 40
1.0
 40
1.0
 10
373.2156052153
 20
177.6448897365
 30
0.0
 10
373.123776554
 20
176.5158833226
 30
0.0
 10
372.9990079771
 20
174.2721994654
 30
0.0
 10
372.9474853788
 20
172.0257828454
 30
0.0
 10
372.9474532647
 20
170.9120572068
 30
0.0
  0
SPLINE
  5
386
100
AcDbEntity
  8
0
100
AcDbSpline
 62
9
  6
CONTINUOUS
 70
0
 71
3
 72
9
 73
5
 74
0
 42
0.0000001
 43
0.0000001
 44
0.0000000001
 40
0.0
 40
0.0
 40
0.0
 40
0.0
 40
0.2131535723
 40
1.0
 40
1.0
 40
1.0
 40
1.0
 10
372.9474532647
 20
178.0264489362
 30
0.0
 10
372.9474532647
 20
177.9924525029
 30
0.0
 10
372.9784653697
 20
177.8324900525
 30
0.0
 10
373.1090669875
 20
177.7111752026
 30
0.0
 10
373.2156376378
 20
177.6449030142
 30
0.0
  0
ENDSEC
  0
SECTION
  2
OBJECTS
  0
DICTIONARY
  5
C
100
AcDbDictionary
280
0
281
1
  3
ACAD_GROUP
350
D
  3
ACAD_MLINESTYLE
350
17
  3
ACAD_LAYOUT
350
1A
  3
ACAD_PLOTSETTINGS
350
19
  3
ACAD_PLOTSTYLENAME
350
E
  0
DICTIONARY
  5
D
102
{ACAD_REACTORS
330
C
102
}
100
AcDbDictionary
280
0
281
1
  0
ACDBDICTIONARYWDFLT
  5
E
102
{ACAD_REACTORS
330
C
102
}
100
AcDbDictionary
281
1
  3
Normal
350
F
100
AcDbDictionaryWithDefault
340
F
  0
DICTIONARY
  5
17
102
{ACAD_REACTORS
330
C
102
}
100
AcDbDictionary
280
0
281
1
  3
Standard
350
18
  0
DICTIONARY
  5
19
102
{ACAD_REACTORS
330
C
102
}
100
AcDbDictionary
281
1
  0
DICTIONARY
  5
1A
102
{ACAD_REACTORS
330
C
102
}
100
AcDbDictionary
281
1
  3
Model
350
387
  3
Layout1
350
388
  0
ACDBPLACEHOLDER
  5
F
102
{ACAD_REACTORS
330
E
102
}
  0
MLINESTYLE
  5
18
102
{ACAD_REACTORS
330
17
102
}
100
AcDbMlineStyle
  2
STANDARD
 70
0
  3

 62
256
 51
90.0
 52
90.0
 71
2
 49
0.5
 62
256
  6
BYLAYER
 49
-0.5
 62
256
  6
BYLAYER
  0
LAYOUT
  5
387
102
{ACAD_REACTORS
330
1A
102
}
100
AcDbPlotSettings
  1

  2
none_device
  4
ANSI_C_(22.00_x_17.00_Inches)
  6

 40
0.0
 41
0.0
 42
0.0
 43
0.0
 44
558.8
 45
431.8
 46
0.0
 47
0.0
 48
0.0
 49
0.0
140
0.0
141
0.0
142
1.0
143
1.0
 70
1024
 72
1
 73
0
 74
0
  7

 75
0
147
1.0
148
0.0
149
0.0
100
AcDbLayout
  1
Model
 70
0
 71
0
 10
0.0
 20
0.0
 11
558.8
 21
431.8
 12
0.0
 22
0.0
 32
0.0
 14
0.0
 24
0.0
 34
0.0
 15
0.0
 25
0.0
 35
0.0
146
0.0
 13
0.0
 23
0.0
 33
0.0
 16
1.0
 26
0.0
 36
0.0
 17
0.0
 27
1.0
 37
0.0
 76
0
330
219
345
0
346
0
  0
LAYOUT
  5
388
102
{ACAD_REACTORS
330
1A
102
}
100
AcDbPlotSettings
  1

  2
none_device
  4
ANSI_C_(22.00_x_17.00_Inches)
  6

 40
0.0
 41
0.0
 42
0.0
 43
0.0
 44
558.8
 45
431.8
 46
0.0
 47
0.0
 48
0.0
 49
0.0
140
0.0
141
0.0
142
1.0
143
1.0
 70
0
 72
1
 73
0
 74
0
  7

 75
0
147
1.0
148
0.0
149
0.0
100
AcDbLayout
  1
Layout1
 70
0
 71
1
 10
0.0
 20
0.0
 11
558.8
 21
431.8
 12
0.0
 22
0.0
 32
0.0
 14
0.0
 24
0.0
 34
0.0
 15
0.0
 25
0.0
 35
0.0
146
0.0
 13
0.0
 23
0.0
 33
0.0
 16
1.0
 26
0.0
 36
0.0
 17
0.0
 27
1.0
 37
0.0
 76
0
330
21A
345
0
346
0
  0
ENDSEC
  0
EOF
