999
DXF file: C:\Gen2D\CAD\NSYPLM86G_3D-CAD\drw0001_2.dxf
999
Pro/ENGINEER 2019471 by Parametric Technology Corporation
  0
SECTION
  2
HEADER
  9
$ACADVER
  1
AC1024
  9
$DWGCODEPAGE
  3
ANSI_1252
  9
$EXTMAX
 10
801.0954600471
 20
1132.9778649237
 30
0.0
  9
$EXTMIN
 10
0.0
 20
0.0
 30
0.0
  9
$LIMMIN
 10
0.0
 20
0.0
  9
$LIMMAX
 10
801.0954600471
 20
1132.9778649237
  9
$VIEWCTR
 10
400.5477300235
 20
566.4889324619
  9
$VIEWSIZE
 40
1132.9778649237
  9
$CLAYER
  8
0
  9
$LTSCALE
 40
73.8533719358
  9
$CELTYPE
  6
BYLAYER
  9
$DIMSCALE
 40
1.0
  9
$DIMASZ
 40
9.5368507148
  9
$DIMEXO
 40
1.0
  9
$DIMDLI
 40
51.0259660647
  9
$DIMEXE
 40
1.0
  9
$DIMCEN
 40
12.0850972259
  9
$DIMLFAC
 40
1.0
  9
$DIMBLK
  1
_FILLED
  9
$DIMALT
 70
0
  9
$DIMALTF
 40
0.0393700787
  9
$DIMTXT
 40
13.3515910008
  9
$DIMTOL
 70
1
  9
$DIMLIM
 70
0
  9
$DIMTFAC
 40
1.0
  9
$DIMTP
 40
0.01
  9
$DIMTM
 40
0.01
  9
$DIMGAP
 40
0.625
  9
$DIMDSEP
 70
46
  9
$AUNITS
 70
0
  9
$PDMODE
 70
3
  9
$PDSIZE
 40
0.3125
  9
$HANDSEED
  5
46D
  9
$TILEMODE
 70
1
  9
$MEASUREMENT
 70
1
  9
$INSUNITS
 70
4
  0
ENDSEC
  0
SECTION
  2
CLASSES
  0
CLASS
  1
ACDBDICTIONARYWDFLT
  2
AcDbDictionaryWithDefault
  3
AutoCAD 2000
 90
0
 91
1
280
0
281
0
  0
CLASS
  1
ACDBPLACEHOLDER
  2
AcDbPlaceHolder
  3
AutoCAD 2000
 90
0
 91
1
280
0
281
0
  0
CLASS
  1
LAYOUT
  2
AcDbLayout
  3
AutoCAD 2000
 90
0
 91
0
280
0
281
0
  0
ENDSEC
  0
SECTION
  2
TABLES
  0
TABLE
  2
VPORT
  5
8
100
AcDbSymbolTable
 70
2
  0
VPORT
  5
1F4
100
AcDbSymbolTableRecord
100
AcDbViewportTableRecord
  2
*ACTIVE
 70
0
 10
0.0
 20
0.0
 11
1.0
 21
1.0
 12
400.5477300235
 22
566.4889324619
 13
0.0
 23
0.0
 14
1.0
 24
1.0
 15
0.0
 25
0.0
 16
0.0
 26
0.0
 36
1.0
 17
0.0
 27
0.0
 37
0.0
 40
1132.9778649237
 41
0.7070707071
 42
50.0
 43
0.0
 44
0.0
 50
0.0
 51
0.0
 71
0
 72
100
 73
1
 74
1
 75
0
 76
0
 77
0
 78
0
  0
ENDTAB
  0
TABLE
  2
LTYPE
  5
5
100
AcDbSymbolTable
 70
6
  0
LTYPE
  5
14
100
AcDbSymbolTableRecord
100
AcDbLinetypeTableRecord
  2
BYBLOCK
 70
0
  3

 72
65
 73
0
 40
0.0
  0
LTYPE
  5
15
100
AcDbSymbolTableRecord
100
AcDbLinetypeTableRecord
  2
BYLAYER
 70
0
  3

 72
65
 73
0
 40
0.0
  0
LTYPE
  5
16
100
AcDbSymbolTableRecord
100
AcDbLinetypeTableRecord
  2
CONTINUOUS
 70
64
  3
Solid line
 72
65
 73
0
 40
0.0
  0
LTYPE
  5
1F5
100
AcDbSymbolTableRecord
100
AcDbLinetypeTableRecord
  2
CENTER
 70
64
  3
____ _ ____ _ ____ _ ____ _ ____ _ ____ _ ____
 72
65
 73
4
 40
0.6
 49
0.375
 74
0
 49
-0.075
 74
0
 49
0.075
 74
0
 49
-0.075
 74
0
  0
LTYPE
  5
1F6
100
AcDbSymbolTableRecord
100
AcDbLinetypeTableRecord
  2
HIDDEN
 70
64
  3
- - - - - - - - - - - - - - - - - - - -
 72
65
 73
2
 40
0.2
 49
0.1
 74
0
 49
-0.1
 74
0
  0
LTYPE
  5
1F7
100
AcDbSymbolTableRecord
100
AcDbLinetypeTableRecord
  2
PHANTOM
 70
64
  3
_____ _ _ _____ _ _ _____ _ _ _____
 72
65
 73
6
 40
0.8
 49
0.45
 74
0
 49
-0.05
 74
0
 49
0.1
 74
0
 49
-0.05
 74
0
 49
0.1
 74
0
 49
-0.05
 74
0
  0
LTYPE
  5
1F8
100
AcDbSymbolTableRecord
100
AcDbLinetypeTableRecord
  2
DOT
 70
64
  3
. . . . . . . . . . . . . . . . . . . .
 72
65
 73
2
 40
0.2
 49
0.1
 74
0
 49
-0.1
 74
0
  0
LTYPE
  5
1F9
100
AcDbSymbolTableRecord
100
AcDbLinetypeTableRecord
  2
DASHED
 70
64
  3
- - - - - - - - - - - - - - - - - - - -
 72
65
 73
2
 40
0.2
 49
0.1
 74
0
 49
-0.1
 74
0
  0
ENDTAB
  0
TABLE
  2
LAYER
  5
2
100
AcDbSymbolTable
 70
36
  0
LAYER
  5
10
100
AcDbSymbolTableRecord
100
AcDbLayerTableRecord
  2
0
 70
0
 62
7
  6
CONTINUOUS
370
-3
390
F
  0
LAYER
  5
1FA
100
AcDbSymbolTableRecord
100
AcDbLayerTableRecord
  2
DEFAULT_1
 70
0
 62
7
  6
CENTER
370
-3
390
F
  0
LAYER
  5
1FB
100
AcDbSymbolTableRecord
100
AcDbLayerTableRecord
  2
DEFAULT_2
 70
0
 62
8
  6
HIDDEN
370
-3
390
F
  0
LAYER
  5
1FC
100
AcDbSymbolTableRecord
100
AcDbLayerTableRecord
  2
DEFAULT_3
 70
0
 62
7
  6
PHANTOM
370
-3
390
F
  0
LAYER
  5
1FD
100
AcDbSymbolTableRecord
100
AcDbLayerTableRecord
  2
00_COMPONENTS
 70
0
 62
7
  6
CONTINUOUS
370
-3
390
F
  0
LAYER
  5
1FE
100
AcDbSymbolTableRecord
100
AcDbLayerTableRecord
  2
00_COMPONENTS_1
 70
0
 62
7
  6
CONTINUOUS
370
-3
390
F
  0
LAYER
  5
1FF
100
AcDbSymbolTableRecord
100
AcDbLayerTableRecord
  2
00_COMPONENTS_1_1
 70
0
 62
7
  6
CONTINUOUS
370
-3
390
F
  0
LAYER
  5
200
100
AcDbSymbolTableRecord
100
AcDbLayerTableRecord
  2
00_COMPONENTS_2
 70
0
 62
7
  6
CONTINUOUS
370
-3
390
F
  0
LAYER
  5
201
100
AcDbSymbolTableRecord
100
AcDbLayerTableRecord
  2
00_COMPONENTS_3
 70
0
 62
7
  6
CONTINUOUS
370
-3
390
F
  0
LAYER
  5
202
100
AcDbSymbolTableRecord
100
AcDbLayerTableRecord
  2
00_COMPONENTS_3_1
 70
0
 62
7
  6
CONTINUOUS
370
-3
390
F
  0
LAYER
  5
203
100
AcDbSymbolTableRecord
100
AcDbLayerTableRecord
  2
00_COMPONENTS_5
 70
0
 62
7
  6
CONTINUOUS
370
-3
390
F
  0
LAYER
  5
204
100
AcDbSymbolTableRecord
100
AcDbLayerTableRecord
  2
00_COMPONENTS_5_1
 70
0
 62
7
  6
CONTINUOUS
370
-3
390
F
  0
LAYER
  5
205
100
AcDbSymbolTableRecord
100
AcDbLayerTableRecord
  2
01_1_DEFAULT_DATUMS
 70
0
 62
7
  6
CONTINUOUS
370
-3
390
F
  0
LAYER
  5
206
100
AcDbSymbolTableRecord
100
AcDbLayerTableRecord
  2
01_PLANES
 70
0
 62
7
  6
CONTINUOUS
370
-3
390
F
  0
LAYER
  5
207
100
AcDbSymbolTableRecord
100
AcDbLayerTableRecord
  2
02_COORD_SYS
 70
0
 62
7
  6
CONTINUOUS
370
-3
390
F
  0
LAYER
  5
208
100
AcDbSymbolTableRecord
100
AcDbLayerTableRecord
  2
03_AXES
 70
0
 62
7
  6
CONTINUOUS
370
-3
390
F
  0
LAYER
  5
209
100
AcDbSymbolTableRecord
100
AcDbLayerTableRecord
  2
03_AXES_3
 70
0
 62
7
  6
CONTINUOUS
370
-3
390
F
  0
LAYER
  5
20A
100
AcDbSymbolTableRecord
100
AcDbLayerTableRecord
  2
03_AXES_4
 70
0
 62
7
  6
CONTINUOUS
370
-3
390
F
  0
LAYER
  5
20B
100
AcDbSymbolTableRecord
100
AcDbLayerTableRecord
  2
0443926801-SIMP
 70
0
 62
7
  6
CONTINUOUS
370
-3
390
F
  0
LAYER
  5
20C
100
AcDbSymbolTableRecord
100
AcDbLayerTableRecord
  2
04_POINTS
 70
0
 62
7
  6
CONTINUOUS
370
-3
390
F
  0
LAYER
  5
20D
100
AcDbSymbolTableRecord
100
AcDbLayerTableRecord
  2
05_CURVES
 70
0
 62
7
  6
CONTINUOUS
370
-3
390
F
  0
LAYER
  5
20E
100
AcDbSymbolTableRecord
100
AcDbLayerTableRecord
  2
05_CURVES_5
 70
0
 62
7
  6
CONTINUOUS
370
-3
390
F
  0
LAYER
  5
20F
100
AcDbSymbolTableRecord
100
AcDbLayerTableRecord
  2
05_CURVES_6
 70
0
 62
7
  6
CONTINUOUS
370
-3
390
F
  0
LAYER
  5
210
100
AcDbSymbolTableRecord
100
AcDbLayerTableRecord
  2
06_SURFS
 70
0
 62
7
  6
CONTINUOUS
370
-3
390
F
  0
LAYER
  5
211
100
AcDbSymbolTableRecord
100
AcDbLayerTableRecord
  2
07_COSMETICS
 70
0
 62
7
  6
CONTINUOUS
370
-3
390
F
  0
LAYER
  5
212
100
AcDbSymbolTableRecord
100
AcDbLayerTableRecord
  2
10_NOTES
 70
0
 62
7
  6
CONTINUOUS
370
-3
390
F
  0
LAYER
  5
213
100
AcDbSymbolTableRecord
100
AcDbLayerTableRecord
  2
11_NOTES_PUB
 70
0
 62
7
  6
CONTINUOUS
370
-3
390
F
  0
LAYER
  5
214
100
AcDbSymbolTableRecord
100
AcDbLayerTableRecord
  2
13_REF_GTOL
 70
0
 62
7
  6
CONTINUOUS
370
-3
390
F
  0
LAYER
  5
215
100
AcDbSymbolTableRecord
100
AcDbLayerTableRecord
  2
16_MISC
 70
0
 62
7
  6
CONTINUOUS
370
-3
390
F
  0
LAYER
  5
216
100
AcDbSymbolTableRecord
100
AcDbLayerTableRecord
  2
17_NO_PRINT
 70
0
 62
7
  6
CONTINUOUS
370
-3
390
F
  0
LAYER
  5
217
100
AcDbSymbolTableRecord
100
AcDbLayerTableRecord
  2
18_DATUM_CAMS_JOINTS
 70
0
 62
7
  6
CONTINUOUS
370
-3
390
F
  0
LAYER
  5
218
100
AcDbSymbolTableRecord
100
AcDbLayerTableRecord
  2
19_DATUM_FUNCTIONAL
 70
0
 62
7
  6
CONTINUOUS
370
-3
390
F
  0
LAYER
  5
219
100
AcDbSymbolTableRecord
100
AcDbLayerTableRecord
  2
20_DATUM_KINEMATIC_SCHEME
 70
0
 62
7
  6
CONTINUOUS
370
-3
390
F
  0
LAYER
  5
21A
100
AcDbSymbolTableRecord
100
AcDbLayerTableRecord
  2
COLOR22
 70
0
 62
7
  6
CONTINUOUS
370
-3
390
F
  0
LAYER
  5
21B
100
AcDbSymbolTableRecord
100
AcDbLayerTableRecord
  2
COLOR23
 70
0
 62
7
  6
CONTINUOUS
370
-3
390
F
  0
LAYER
  5
21C
100
AcDbSymbolTableRecord
100
AcDbLayerTableRecord
  2
COLOR3
 70
0
 62
7
  6
CONTINUOUS
370
-3
390
F
  0
LAYER
  5
21D
100
AcDbSymbolTableRecord
100
AcDbLayerTableRecord
  2
ENN0263A-S-SIMP
 70
0
 62
7
  6
CONTINUOUS
370
-3
390
F
  0
LAYER
  5
21E
100
AcDbSymbolTableRecord
100
AcDbLayerTableRecord
  2
INTFCLR_34645
 70
0
 62
7
  6
CONTINUOUS
370
-3
390
F
  0
LAYER
  5
21F
100
AcDbSymbolTableRecord
100
AcDbLayerTableRecord
  2
INTFCLR_34732
 70
0
 62
7
  6
CONTINUOUS
370
-3
390
F
  0
LAYER
  5
220
100
AcDbSymbolTableRecord
100
AcDbLayerTableRecord
  2
INTFCLR_42
 70
0
 62
7
  6
CONTINUOUS
370
-3
390
F
  0
LAYER
  5
221
100
AcDbSymbolTableRecord
100
AcDbLayerTableRecord
  2
INTFCLR_43
 70
0
 62
7
  6
CONTINUOUS
370
-3
390
F
  0
LAYER
  5
222
100
AcDbSymbolTableRecord
100
AcDbLayerTableRecord
  2
INTFCLR_44
 70
0
 62
7
  6
CONTINUOUS
370
-3
390
F
  0
LAYER
  5
223
100
AcDbSymbolTableRecord
100
AcDbLayerTableRecord
  2
INTFCLR_6
 70
0
 62
7
  6
CONTINUOUS
370
-3
390
F
  0
LAYER
  5
224
100
AcDbSymbolTableRecord
100
AcDbLayerTableRecord
  2
INTFCLR_8
 70
0
 62
7
  6
CONTINUOUS
370
-3
390
F
  0
LAYER
  5
225
100
AcDbSymbolTableRecord
100
AcDbLayerTableRecord
  2
INTF_BLANK
 70
0
 62
7
  6
CONTINUOUS
370
-3
390
F
  0
LAYER
  5
226
100
AcDbSymbolTableRecord
100
AcDbLayerTableRecord
  2
PLM-CAME-SIMP
 70
0
 62
7
  6
CONTINUOUS
370
-3
390
F
  0
LAYER
  5
227
100
AcDbSymbolTableRecord
100
AcDbLayerTableRecord
  2
PLM-ROSACE-SIMP
 70
0
 62
7
  6
CONTINUOUS
370
-3
390
F
  0
LAYER
  5
228
100
AcDbSymbolTableRecord
100
AcDbLayerTableRecord
  2
_BLACK_HOLE
 70
0
 62
7
  6
CONTINUOUS
370
-3
390
F
  0
LAYER
  5
229
100
AcDbSymbolTableRecord
100
AcDbLayerTableRecord
  2
white
 70
0
 62
7
  6
CONTINUOUS
370
-3
390
F
  0
ENDTAB
  0
TABLE
  2
STYLE
  5
3
100
AcDbSymbolTable
 70
1
  0
STYLE
  5
11
100
AcDbSymbolTableRecord
100
AcDbTextStyleTableRecord
  2
STANDARD
 70
0
 40
0.0
 41
0.8
 50
0.0
 71
0
 42
0.2
  3
txt
  4

  0
STYLE
  5
22A
100
AcDbSymbolTableRecord
100
AcDbTextStyleTableRecord
  2
TEXTSTYLE_1
 70
0
 40
0.0
 41
0.8
 50
0.0
 71
0
 42
0.2
  3
gdt
  4

  0
ENDTAB
  0
TABLE
  2
VIEW
  5
6
100
AcDbSymbolTable
 70
0
  0
ENDTAB
  0
TABLE
  2
UCS
  5
7
100
AcDbSymbolTable
 70
0
  0
ENDTAB
  0
TABLE
  2
APPID
  5
9
100
AcDbSymbolTable
 70
1
  0
APPID
  5
22B
100
AcDbSymbolTableRecord
100
AcDbRegAppTableRecord
  2
ACAD
 70
0
  0
ENDTAB
  0
TABLE
  2
BLOCK_RECORD
  5
1
100
AcDbSymbolTable
 70
0
  0
BLOCK_RECORD
  5
22C
100
AcDbSymbolTableRecord
100
AcDbBlockTableRecord
  2
*Model_Space
  0
BLOCK_RECORD
  5
22D
100
AcDbSymbolTableRecord
100
AcDbBlockTableRecord
  2
*Paper_Space
  0
BLOCK_RECORD
  5
22E
100
AcDbSymbolTableRecord
100
AcDbBlockTableRecord
  2
_FILLED
  0
ENDTAB
  0
TABLE
  2
DIMSTYLE
  5
A
100
AcDbSymbolTable
 70
1
100
AcDbDimStyleTable
 71
0
  0
DIMSTYLE
105
22F
100
AcDbSymbolTableRecord
100
AcDbDimStyleTableRecord
  2
STANDARD
 70
0
  3

  4

 40
1.0
 41
9.5368507148
 42
1.0
 43
0.38
 44
1.0
 45
0.0
 46
0.0
 47
0.01
 48
0.01
140
13.3515910008
141
0.09
142
0.0
143
25.4
144
1.0
145
0.0
146
1.0
147
0.625
 71
1
 72
0
 73
0
 74
0
 75
0
 76
0
 77
1
 78
8
 79
2
170
0
171
1
172
0
173
0
174
0
175
0
176
0
177
0
178
0
270
2
179
2
271
2
272
2
273
2
274
2
275
0
280
0
281
0
282
0
283
1
284
8
285
0
286
0
287
3
288
0
340
11
278
46
341
22E
342
22E
343
22E
344
22E
  0
ENDTAB
  0
ENDSEC
  0
SECTION
  2
BLOCKS
  0
BLOCK
  5
20
100
AcDbEntity
  8
0
100
AcDbBlockBegin
  2
*Model_Space
 70
0
 10
0.0
 20
0.0
 30
0.0
  3
*Model_Space
  1

  0
ENDBLK
  5
21
100
AcDbEntity
  8
0
100
AcDbBlockEnd
  0
BLOCK
  5
1C
100
AcDbEntity
  8
0
100
AcDbBlockBegin
  2
*Paper_Space
 70
0
 10
0.0
 20
0.0
 30
0.0
  3
*Paper_Space
  1

  0
ENDBLK
  5
1D
100
AcDbEntity
  8
0
100
AcDbBlockEnd
  0
BLOCK
  5
230
100
AcDbEntity
  8
0
100
AcDbBlockBegin
  2
_FILLED
 70
64
 10
0.0
 20
0.0
  3
_FILLED
  1

  0
SOLID
  5
231
100
AcDbEntity
  8
0
  6
BYBLOCK
 62
0
100
AcDbTrace
 10
0.0
 20
0.0
 11
-1.0
 21
0.25
 12
-1.0
 22
-0.25
 13
-1.0
 23
-0.25
  0
ENDBLK
  5
232
100
AcDbEntity
  8
0
  6
BYBLOCK
 62
0
100
AcDbBlockEnd
  0
ENDSEC
  0
SECTION
  2
ENTITIES
  0
LINE
  5
233
100
AcDbEntity
  8
00_COMPONENTS_1
100
AcDbLine
 62
7
  6
CONTINUOUS
 10
151.5947452741
 20
952.9088017429
 11
151.3327063777
 21
952.6467628465
  0
LINE
  5
234
100
AcDbEntity
  8
00_COMPONENTS_1
100
AcDbLine
 62
7
  6
CONTINUOUS
 10
129.5947452741
 20
930.9088017429
 11
129.8567841705
 21
931.1708406393
  0
LINE
  5
235
100
AcDbEntity
  8
00_COMPONENTS_1
100
AcDbLine
 62
7
  6
CONTINUOUS
 10
160.9383284571
 20
982.8255415495
 11
158.6411823792
 21
980.5487017429
  0
LINE
  5
236
100
AcDbEntity
  8
00_COMPONENTS_1
100
AcDbLine
 62
7
  6
CONTINUOUS
 10
160.938328457
 20
145.9920619363
 11
158.6411823792
 21
148.2689017429
  0
LINE
  5
237
100
AcDbEntity
  8
00_COMPONENTS_1
100
AcDbLine
 62
7
  6
CONTINUOUS
 10
151.5947452741
 20
175.9088017429
 11
151.3327063777
 21
176.1708406393
  0
LINE
  5
238
100
AcDbEntity
  8
00_COMPONENTS_1
100
AcDbLine
 62
7
  6
CONTINUOUS
 10
129.5947452741
 20
197.9088017429
 11
129.8567841705
 21
197.6467628465
  0
LINE
  5
239
100
AcDbEntity
  8
00_COMPONENTS_1
100
AcDbLine
 62
7
  6
CONTINUOUS
 10
92.9197115012
 20
860.7175706408
 11
95.1965513078
 21
862.9746274658
  0
LINE
  5
23A
100
AcDbEntity
  8
00_COMPONENTS_1
100
AcDbLine
 62
7
  6
CONTINUOUS
 10
720.3548975818
 20
140.9088017429
 11
91.8345929664
 21
140.9088017429
  0
LINE
  5
23B
100
AcDbEntity
  8
00_COMPONENTS_1
100
AcDbLine
 62
7
420
48875
  6
CONTINUOUS
 10
87.8347452741
 20
140.9088017429
 11
91.8345929664
 21
140.9088017429
  0
LINE
  5
23C
100
AcDbEntity
  8
00_COMPONENTS_1
100
AcDbLine
 62
7
420
48875
  6
CONTINUOUS
 10
720.3548975818
 20
140.9088017429
 11
724.3547452741
 21
140.9088017429
  0
LINE
  5
23D
100
AcDbEntity
  8
00_COMPONENTS_1
100
AcDbLine
 62
7
420
24575
  6
CONTINUOUS
 10
88.1410583336
 20
141.2151148024
 11
724.0484322147
 21
141.2151148024
  0
LINE
  5
23E
100
AcDbEntity
  8
00_COMPONENTS_1
100
AcDbLine
 62
7
  6
CONTINUOUS
 10
160.9605274141
 20
143.491954609
 11
94.4177458324
 21
143.491954609
  0
LINE
  5
23F
100
AcDbEntity
  8
00_COMPONENTS_1
100
AcDbLine
 62
7
  6
CONTINUOUS
 10
645.2328632878
 20
143.491954609
 11
717.7717447158
 21
143.491954609
  0
LINE
  5
240
100
AcDbEntity
  8
00_COMPONENTS_1
100
AcDbLine
 62
7
  6
CONTINUOUS
 10
645.1982643911
 20
143.5268620801
 11
160.9951263108
 21
143.5268620801
  0
LINE
  5
241
100
AcDbEntity
  8
00_COMPONENTS_1
100
AcDbLine
 62
7
  6
CONTINUOUS
 10
92.9197115012
 20
268.100032845
 11
95.1965513078
 21
265.84297602
  0
LINE
  5
242
100
AcDbEntity
  8
00_COMPONENTS_1
100
AcDbLine
 62
7
  6
CONTINUOUS
 10
95.1965513079
 20
870.4088017429
 11
95.4323236443
 21
870.8803823305
  0
LINE
  5
243
100
AcDbEntity
  8
00_COMPONENTS_1
100
AcDbLine
 62
7
  6
CONTINUOUS
 10
719.269779047
 20
145.9919619363
 11
645.255061357
 21
145.9919619363
  0
LINE
  5
244
100
AcDbEntity
  8
00_COMPONENTS_1
100
AcDbLine
 62
7
  6
CONTINUOUS
 10
160.9383284571
 20
145.9920619363
 11
92.9197115012
 21
145.9920619363
  0
LINE
  5
245
100
AcDbEntity
  8
00_COMPONENTS_1
100
AcDbLine
 62
7
  6
CONTINUOUS
 10
716.9929392404
 20
148.2688017429
 11
647.5522074348
 21
148.2688017429
  0
LINE
  5
246
100
AcDbEntity
  8
00_COMPONENTS_1
100
AcDbLine
 62
7
  6
CONTINUOUS
 10
158.6411823792
 20
148.2689017429
 11
95.1965513078
 21
148.2689017429
  0
LINE
  5
247
100
AcDbEntity
  8
00_COMPONENTS_1
100
AcDbLine
 62
7
  6
CONTINUOUS
 10
120.1447452741
 20
171.5357517429
 11
158.4345913267
 21
171.5357517429
  0
LINE
  5
248
100
AcDbEntity
  8
00_COMPONENTS_1
100
AcDbLine
 62
7
  6
CONTINUOUS
 10
647.7587993753
 20
171.5357517429
 11
686.0447452741
 21
171.5357517429
  0
LINE
  5
249
100
AcDbEntity
  8
00_COMPONENTS_1
100
AcDbLine
 62
7
  6
CONTINUOUS
 10
122.4564925519
 20
173.8474990207
 11
160.7259032617
 21
173.8474990207
  0
LINE
  5
24A
100
AcDbEntity
  8
00_COMPONENTS_1
100
AcDbLine
 62
7
  6
CONTINUOUS
 10
645.4674874402
 20
173.8474990207
 11
683.7329979964
 21
173.8474990207
  0
LINE
  5
24B
100
AcDbEntity
  8
00_COMPONENTS_1
100
AcDbLine
 62
7
  6
CONTINUOUS
 10
129.5947452741
 20
175.9088017429
 11
151.5947452741
 21
175.9088017429
  0
LINE
  5
24C
100
AcDbEntity
  8
00_COMPONENTS_1
100
AcDbLine
 62
7
  6
CONTINUOUS
 10
659.5947452741
 20
175.9088017429
 11
681.5947452741
 21
175.9088017429
  0
LINE
  5
24D
100
AcDbEntity
  8
00_COMPONENTS_1
100
AcDbLine
 62
7
  6
CONTINUOUS
 10
129.8567841705
 20
176.1708406393
 11
151.3327063777
 21
176.1708406393
  0
LINE
  5
24E
100
AcDbEntity
  8
00_COMPONENTS_1
100
AcDbLine
 62
7
  6
CONTINUOUS
 10
659.8567841705
 20
176.1708406393
 11
681.3327063777
 21
176.1708406393
  0
LINE
  5
24F
100
AcDbEntity
  8
00_COMPONENTS_1
100
AcDbLine
 62
7
  6
CONTINUOUS
 10
104.4750698881
 20
213.9516542622
 11
106.9247524668
 21
213.4629124442
  0
LINE
  5
250
100
AcDbEntity
  8
00_COMPONENTS_1
100
AcDbLine
 62
7
  6
CONTINUOUS
 10
95.1965513078
 20
258.4088017429
 11
95.4323236443
 21
257.9372211553
  0
LINE
  5
251
100
AcDbEntity
  8
00_COMPONENTS_1
100
AcDbLine
 62
7
  6
CONTINUOUS
 10
681.3327063777
 20
197.6467628465
 11
659.8567841705
 21
197.6467628465
  0
LINE
  5
252
100
AcDbEntity
  8
00_COMPONENTS_1
100
AcDbLine
 62
7
  6
CONTINUOUS
 10
151.3327063777
 20
197.6467628465
 11
129.8567841705
 21
197.6467628465
  0
LINE
  5
253
100
AcDbEntity
  8
00_COMPONENTS_1
100
AcDbLine
 62
7
  6
CONTINUOUS
 10
681.5947452741
 20
197.9088017429
 11
659.5947452741
 21
197.9088017429
  0
LINE
  5
254
100
AcDbEntity
  8
00_COMPONENTS_1
100
AcDbLine
 62
7
  6
CONTINUOUS
 10
151.5947452741
 20
197.9088017429
 11
129.5947452741
 21
197.9088017429
  0
LINE
  5
255
100
AcDbEntity
  8
00_COMPONENTS_1
100
AcDbLine
 62
7
  6
CONTINUOUS
 10
120.1447452741
 20
213.4088017429
 11
95.1965513079
 21
213.4088017429
  0
LINE
  5
256
100
AcDbEntity
  8
00_COMPONENTS_1
100
AcDbLine
 62
7
  6
CONTINUOUS
 10
96.4592681067
 20
213.9516542622
 11
104.4750698881
 21
213.9516542622
  0
LINE
  5
257
100
AcDbEntity
  8
00_COMPONENTS_1
100
AcDbLine
 62
7
  6
CONTINUOUS
 10
87.8347452741
 20
983.9089540506
 11
87.8347452741
 21
981.9088017429
  0
LINE
  5
258
100
AcDbEntity
  8
00_COMPONENTS_1
100
AcDbLine
 62
7
420
48875
  6
CONTINUOUS
 10
87.8347452741
 20
144.9086494352
 11
87.8347452741
 21
140.9088017429
  0
LINE
  5
259
100
AcDbEntity
  8
00_COMPONENTS_1
100
AcDbLine
 62
7
  6
CONTINUOUS
 10
87.8347452741
 20
144.9086494352
 11
87.8347452741
 21
146.9088017429
  0
LINE
  5
25A
100
AcDbEntity
  8
00_COMPONENTS_1
100
AcDbLine
 62
7
420
48875
  6
CONTINUOUS
 10
87.8347452741
 20
146.9088017429
 11
87.8347452741
 21
981.9088017429
  0
LINE
  5
25B
100
AcDbEntity
  8
00_COMPONENTS_1
100
AcDbLine
 62
7
420
48875
  6
CONTINUOUS
 10
87.8347452741
 20
983.9089540506
 11
87.8347452741
 21
987.9088017429
  0
LINE
  5
25C
100
AcDbEntity
  8
00_COMPONENTS_1
100
AcDbLine
 62
7
  6
CONTINUOUS
 10
88.0965513078
 20
147.4324536908
 11
88.0965513078
 21
981.3851497951
  0
LINE
  5
25D
100
AcDbEntity
  8
00_COMPONENTS_1
100
AcDbLine
 62
7
420
24575
  6
CONTINUOUS
 10
88.1410583336
 20
141.2151148024
 11
88.1410583336
 21
987.6024886834
  0
LINE
  5
25E
100
AcDbEntity
  8
00_COMPONENTS_1
100
AcDbLine
 62
7
  6
CONTINUOUS
 10
90.4178981402
 20
981.3258011845
 11
90.4178981402
 21
860.7394036352
  0
LINE
  5
25F
100
AcDbEntity
  8
00_COMPONENTS_1
100
AcDbLine
 62
7
  6
CONTINUOUS
 10
90.4178981402
 20
147.4918023012
 11
90.4178981402
 21
268.0781998506
  0
LINE
  5
260
100
AcDbEntity
  8
00_COMPONENTS_1
100
AcDbLine
 62
7
  6
CONTINUOUS
 10
90.4528056113
 20
268.1134132839
 11
90.4528056113
 21
860.704190202
  0
LINE
  5
261
100
AcDbEntity
  8
00_COMPONENTS_1
100
AcDbLine
 62
7
  6
CONTINUOUS
 10
92.9197115012
 20
982.8255415495
 11
92.9197115012
 21
860.7175706408
  0
LINE
  5
262
100
AcDbEntity
  8
00_COMPONENTS_1
100
AcDbLine
 62
7
  6
CONTINUOUS
 10
92.9197115012
 20
145.9920619363
 11
92.9197115012
 21
268.100032845
  0
LINE
  5
263
100
AcDbEntity
  8
00_COMPONENTS_1_1
100
AcDbLine
 62
7
  6
CONTINUOUS
 10
707.4845685298
 20
242.8156588656
 11
707.7865105602
 21
242.8285783129
  0
LINE
  5
264
100
AcDbEntity
  8
00_COMPONENTS_1_1
100
AcDbLine
 62
7
  6
CONTINUOUS
 10
706.0947452741
 20
236.0338017429
 11
709.3159826388
 21
236.0900286503
  0
LINE
  5
265
100
AcDbEntity
  8
00_COMPONENTS_1_1
100
AcDbLine
 62
7
  6
CONTINUOUS
 10
706.0947452741
 20
236.2338289516
 11
709.2323837637
 21
236.2885694265
  0
LINE
  5
266
100
AcDbEntity
  8
00_COMPONENTS_1_1
100
AcDbLine
 62
7
  6
CONTINUOUS
 10
709.1946890348
 20
236.3766305704
 11
706.0947452741
 21
236.3224915375
  0
LINE
  5
267
100
AcDbEntity
  8
00_COMPONENTS_1_1
100
AcDbLine
 62
7
  6
CONTINUOUS
 10
706.0947452741
 20
236.4338017429
 11
709.1466505557
 21
236.4870729478
  0
LINE
  5
268
100
AcDbEntity
  8
00_COMPONENTS_1_1
100
AcDbLine
 62
7
  6
CONTINUOUS
 10
709.1170451715
 20
236.5545461925
 11
706.0947452741
 21
236.5017645428
  0
LINE
  5
269
100
AcDbEntity
  8
00_COMPONENTS_1_1
100
AcDbLine
 62
7
  6
CONTINUOUS
 10
709.0136882689
 20
236.7847977808
 11
706.0947452741
 21
236.733816978
  0
LINE
  5
26A
100
AcDbEntity
  8
00_COMPONENTS_1_1
100
AcDbLine
 62
7
  6
CONTINUOUS
 10
709.1254100372
 20
236.8367021931
 11
706.0947452741
 21
236.7838017429
  0
LINE
  5
26B
100
AcDbEntity
  8
00_COMPONENTS_1_1
100
AcDbLine
 62
7
  6
CONTINUOUS
 10
704.9546827542
 20
242.7841555347
 11
706.0947452741
 21
242.8040657591
  0
LINE
  5
26C
100
AcDbEntity
  8
00_COMPONENTS_1_1
100
AcDbLine
 62
7
  6
CONTINUOUS
 10
704.9923687543
 20
242.8546435856
 11
704.5164478079
 21
242.8463374314
  0
LINE
  5
26D
100
AcDbEntity
  8
00_COMPONENTS_1_1
100
AcDbLine
 62
7
  6
CONTINUOUS
 10
701.2909215552
 20
237.8045156348
 11
698.4510187227
 21
237.8040713533
  0
LINE
  5
26E
100
AcDbEntity
  8
00_COMPONENTS_1_1
100
AcDbLine
 62
7
  6
CONTINUOUS
 10
710.8269343063
 20
237.908350035
 11
712.4193005945
 21
237.9088017429
  0
LINE
  5
26F
100
AcDbEntity
  8
00_COMPONENTS_1_1
100
AcDbLine
 62
7
  6
CONTINUOUS
 10
701.3625562419
 20
240.9092534508
 11
699.7701899538
 21
240.9088017429
  0
LINE
  5
270
100
AcDbEntity
  8
00_COMPONENTS_1_1
100
AcDbLine
 62
7
  6
CONTINUOUS
 10
710.898568993
 20
241.013087851
 11
713.7384718255
 21
241.0135321325
  0
LINE
  5
271
100
AcDbEntity
  8
00_COMPONENTS_1_1
100
AcDbLine
 62
7
  6
CONTINUOUS
 10
691.2623550621
 20
233.408783724
 11
698.7292851432
 21
233.4088020121
  0
LINE
  5
272
100
AcDbEntity
  8
00_COMPONENTS_1_1
100
AcDbLine
 62
7
  6
CONTINUOUS
 10
699.4803398357
 20
234.9089002838
 11
692.3107184412
 21
234.908812571
  0
LINE
  5
273
100
AcDbEntity
  8
00_COMPONENTS_1_1
100
AcDbLine
 62
7
  6
CONTINUOUS
 10
698.6785609078
 20
236.4088017429
 11
693.4456346335
 21
236.4088017429
  0
LINE
  5
274
100
AcDbEntity
  8
00_COMPONENTS_1_1
100
AcDbLine
 62
7
  6
CONTINUOUS
 10
698.5034577811
 20
237.8459635092
 11
699.3740654979
 21
237.8459635092
  0
LINE
  5
275
100
AcDbEntity
  8
00_COMPONENTS_1_1
100
AcDbLine
 62
7
  6
CONTINUOUS
 10
712.8154250504
 20
237.8459635092
 11
713.6860327671
 21
237.8459635092
  0
LINE
  5
276
100
AcDbEntity
  8
00_COMPONENTS_1_1
100
AcDbLine
 62
7
  6
CONTINUOUS
 10
713.7898991008
 20
240.9716399767
 11
712.8154250504
 21
240.9716399767
  0
LINE
  5
277
100
AcDbEntity
  8
00_COMPONENTS_1_1
100
AcDbLine
 62
7
  6
CONTINUOUS
 10
699.3740654979
 20
240.9716399767
 11
698.3995914474
 21
240.9716399767
  0
LINE
  5
278
100
AcDbEntity
  8
00_COMPONENTS_1_1
100
AcDbLine
 62
7
  6
CONTINUOUS
 10
693.4456346335
 20
242.4088017429
 11
698.6785609078
 21
242.4088017429
  0
LINE
  5
279
100
AcDbEntity
  8
00_COMPONENTS_1_1
100
AcDbLine
 62
7
  6
CONTINUOUS
 10
692.3107184412
 20
243.9087909148
 11
699.4803398911
 21
243.908703202
  0
LINE
  5
27A
100
AcDbEntity
  8
00_COMPONENTS_1_1
100
AcDbLine
 62
7
  6
CONTINUOUS
 10
698.7292851432
 20
245.4088014738
 11
691.2623550621
 21
245.4088197618
  0
LINE
  5
27B
100
AcDbEntity
  8
00_COMPONENTS_1_1
100
AcDbLine
 62
7
  6
CONTINUOUS
 10
713.7384718255
 20
237.8040713533
 11
710.898568993
 21
237.8045156348
  0
LINE
  5
27C
100
AcDbEntity
  8
00_COMPONENTS_1_1
100
AcDbLine
 62
7
  6
CONTINUOUS
 10
698.4510187227
 20
241.0135321325
 11
701.2909215552
 21
241.013087851
  0
LINE
  5
27D
100
AcDbEntity
  8
00_COMPONENTS_1_1
100
AcDbLine
 62
7
  6
CONTINUOUS
 10
699.7701899538
 20
237.9088017429
 11
701.3625562419
 21
237.908350035
  0
LINE
  5
27E
100
AcDbEntity
  8
00_COMPONENTS_1_1
100
AcDbLine
 62
7
  6
CONTINUOUS
 10
712.4193005945
 20
240.9088017429
 11
710.8269343063
 21
240.9092534508
  0
LINE
  5
27F
100
AcDbEntity
  8
00_COMPONENTS_1_1
100
AcDbLine
 62
7
  6
CONTINUOUS
 10
706.0947449864
 20
236.0338072442
 11
702.8735073399
 21
236.0900286602
  0
LINE
  5
280
100
AcDbEntity
  8
00_COMPONENTS_1_1
100
AcDbLine
 62
7
  6
CONTINUOUS
 10
702.9571067845
 20
236.2885694265
 11
706.0947452741
 21
236.2338289516
  0
LINE
  5
281
100
AcDbEntity
  8
00_COMPONENTS_1_1
100
AcDbLine
 62
7
  6
CONTINUOUS
 10
706.0947452741
 20
236.3224915375
 11
702.9948015135
 21
236.3766305704
  0
LINE
  5
282
100
AcDbEntity
  8
00_COMPONENTS_1_1
100
AcDbLine
 62
7
  6
CONTINUOUS
 10
706.0947450748
 20
236.4338131701
 11
703.0428391946
 21
236.4870729617
  0
LINE
  5
283
100
AcDbEntity
  8
00_COMPONENTS_1_1
100
AcDbLine
 62
7
  6
CONTINUOUS
 10
706.0947452741
 20
236.5017645428
 11
703.0724453768
 21
236.5545461925
  0
LINE
  5
284
100
AcDbEntity
  8
00_COMPONENTS_1_1
100
AcDbLine
 62
7
  6
CONTINUOUS
 10
706.0947452741
 20
236.7338017429
 11
703.1758440158
 21
236.7847513539
  0
LINE
  5
285
100
AcDbEntity
  8
00_COMPONENTS_1_1
100
AcDbLine
 62
7
  6
CONTINUOUS
 10
706.0947452741
 20
236.7838017429
 11
703.0640805111
 21
236.8367021931
  0
LINE
  5
286
100
AcDbEntity
  8
00_COMPONENTS_1_1
100
AcDbLine
 62
7
  6
CONTINUOUS
 10
706.0947452741
 20
242.8040657591
 11
707.234807794
 21
242.7841555347
  0
LINE
  5
287
100
AcDbEntity
  8
00_COMPONENTS_1
100
AcDbLine
 62
7
  6
CONTINUOUS
 10
95.1965513078
 20
980.5487017429
 11
95.1965513078
 21
915.4088017429
  0
LINE
  5
288
100
AcDbEntity
  8
00_COMPONENTS_1
100
AcDbLine
 62
7
  6
CONTINUOUS
 10
95.1965513078
 20
870.4088017429
 11
95.1965513078
 21
862.9746274658
  0
LINE
  5
289
100
AcDbEntity
  8
00_COMPONENTS_1
100
AcDbLine
 62
7
  6
CONTINUOUS
 10
95.1965513078
 20
148.2689017429
 11
95.1965513078
 21
213.4088017429
  0
LINE
  5
28A
100
AcDbEntity
  8
00_COMPONENTS_1
100
AcDbLine
 62
7
  6
CONTINUOUS
 10
95.1965513078
 20
258.4088017429
 11
95.1965513078
 21
265.8429760201
  0
LINE
  5
28B
100
AcDbEntity
  8
00_COMPONENTS_1
100
AcDbLine
 62
7
  6
CONTINUOUS
 10
95.4323236443
 20
213.8803823305
 11
95.4323236443
 21
257.9372211553
  0
LINE
  5
28C
100
AcDbEntity
  8
00_COMPONENTS_1
100
AcDbLine
 62
7
  6
CONTINUOUS
 10
95.4323236443
 20
870.8803823305
 11
95.4323236443
 21
914.9372211553
  0
LINE
  5
28D
100
AcDbEntity
  8
00_COMPONENTS_1
100
AcDbLine
 62
7
  6
CONTINUOUS
 10
95.4428793832
 20
914.9161080695
 11
95.4428793832
 21
870.9014954163
  0
LINE
  5
28E
100
AcDbEntity
  8
00_COMPONENTS_1
100
AcDbLine
 62
7
  6
CONTINUOUS
 10
95.4428793832
 20
257.9161080695
 11
95.4428793832
 21
213.9014954163
  0
LINE
  5
28F
100
AcDbEntity
  8
00_COMPONENTS_1
100
AcDbLine
 62
7
  6
CONTINUOUS
 10
96.4592681067
 20
914.8659492236
 11
96.4592681067
 21
870.9516542622
  0
LINE
  5
290
100
AcDbEntity
  8
00_COMPONENTS_1
100
AcDbLine
 62
7
  6
CONTINUOUS
 10
96.4592681067
 20
257.8659492236
 11
96.4592681067
 21
213.9516542622
  0
LINE
  5
291
100
AcDbEntity
  8
00_COMPONENTS_5
100
AcDbLine
 62
7
420
3604575
  6
CONTINUOUS
 10
97.9147452741
 20
213.8460510453
 11
97.9147452741
 21
257.9715524399
  0
LINE
  5
292
100
AcDbEntity
  8
00_COMPONENTS_1
100
AcDbLine
 62
7
420
3604575
  6
CONTINUOUS
 10
97.9147452741
 20
213.8460510453
 11
97.9147452741
 21
257.9715524399
  0
LINE
  5
293
100
AcDbEntity
  8
00_COMPONENTS_5
100
AcDbLine
 62
7
420
3604575
  6
CONTINUOUS
 10
97.9147452741
 20
870.8460510453
 11
97.9147452741
 21
914.9715524399
  0
LINE
  5
294
100
AcDbEntity
  8
00_COMPONENTS_1
100
AcDbLine
 62
7
420
3604575
  6
CONTINUOUS
 10
97.9147452741
 20
870.8460510453
 11
97.9147452741
 21
914.9715524399
  0
LINE
  5
295
100
AcDbEntity
  8
00_COMPONENTS_1
100
AcDbLine
 62
7
  6
CONTINUOUS
 10
104.4750698881
 20
914.8659492236
 11
104.4750698881
 21
870.9516542622
  0
LINE
  5
296
100
AcDbEntity
  8
00_COMPONENTS_1
100
AcDbLine
 62
7
  6
CONTINUOUS
 10
104.4750698881
 20
213.9516542622
 11
104.4750698881
 21
257.8659492236
  0
LINE
  5
297
100
AcDbEntity
  8
00_COMPONENTS_1
100
AcDbLine
 62
7
  6
CONTINUOUS
 10
106.9247524668
 20
915.3546910416
 11
106.9247524668
 21
870.4629124442
  0
LINE
  5
298
100
AcDbEntity
  8
00_COMPONENTS_1
100
AcDbLine
 62
7
  6
CONTINUOUS
 10
106.9247524668
 20
213.4629124442
 11
106.9247524668
 21
258.3546910416
  0
LINE
  5
299
100
AcDbEntity
  8
00_COMPONENTS_1
100
AcDbLine
 62
7
  6
CONTINUOUS
 10
120.1447452741
 20
171.5357517429
 11
120.1447452741
 21
266.0606956104
  0
LINE
  5
29A
100
AcDbEntity
  8
00_COMPONENTS_1
100
AcDbLine
 62
7
  6
CONTINUOUS
 10
120.1447452741
 20
862.7569078754
 11
120.1447452741
 21
957.2818517429
  0
LINE
  5
29B
100
AcDbEntity
  8
00_COMPONENTS_1
100
AcDbLine
 62
7
  6
CONTINUOUS
 10
122.4564925519
 20
268.3927052286
 11
122.4564925519
 21
173.8474990207
  0
LINE
  5
29C
100
AcDbEntity
  8
00_COMPONENTS_1
100
AcDbLine
 62
7
  6
CONTINUOUS
 10
122.4564925519
 20
860.4248982572
 11
122.4564925519
 21
954.9701044651
  0
LINE
  5
29D
100
AcDbEntity
  8
00_COMPONENTS_1
100
AcDbLine
 62
7
  6
CONTINUOUS
 10
686.0447452741
 20
265.5335825141
 11
716.9929392404
 21
265.8036633112
  0
LINE
  5
29E
100
AcDbEntity
  8
00_COMPONENTS_1
100
AcDbLine
 62
7
  6
CONTINUOUS
 10
721.7366849369
 20
268.1568966581
 11
683.7329979963
 21
267.8252435066
  0
LINE
  5
29F
100
AcDbEntity
  8
00_COMPONENTS_1
100
AcDbLine
 62
7
  6
CONTINUOUS
 10
95.1965513078
 20
265.8429760201
 11
120.1447452741
 21
266.0606956104
  0
LINE
  5
2A0
100
AcDbEntity
  8
00_COMPONENTS_1
100
AcDbLine
 62
7
  6
CONTINUOUS
 10
92.9197115012
 20
268.100032845
 11
90.4178981402
 21
268.0781998506
  0
LINE
  5
2A1
100
AcDbEntity
  8
00_COMPONENTS_1
100
AcDbLine
 62
7
  6
CONTINUOUS
 10
122.4564925519
 20
268.3927052286
 11
90.4528056113
 21
268.1134132839
  0
LINE
  5
2A2
100
AcDbEntity
  8
00_COMPONENTS_1
100
AcDbLine
 62
7
  6
CONTINUOUS
 10
96.4592681067
 20
257.8659492236
 11
104.4750698881
 21
257.8659492236
  0
LINE
  5
2A3
100
AcDbEntity
  8
00_COMPONENTS_1
100
AcDbLine
 62
7
  6
CONTINUOUS
 10
120.1447452741
 20
258.4088017429
 11
95.1965513078
 21
258.4088017429
  0
LINE
  5
2A4
100
AcDbEntity
  8
00_COMPONENTS_1_1
100
AcDbLine
 62
7
  6
CONTINUOUS
 10
704.402979988
 20
242.8285783129
 11
704.7049220184
 21
242.8156588656
  0
LINE
  5
2A5
100
AcDbEntity
  8
00_COMPONENTS_1
100
AcDbLine
 62
7
  6
CONTINUOUS
 10
158.4345913267
 20
171.5357517429
 11
158.6411823792
 21
148.2689017429
  0
LINE
  5
2A6
100
AcDbEntity
  8
00_COMPONENTS_1
100
AcDbLine
 62
7
  6
CONTINUOUS
 10
160.9605274141
 20
143.4919546089
 11
160.938328457
 21
145.9920619363
  0
LINE
  5
2A7
100
AcDbEntity
  8
00_COMPONENTS_1
100
AcDbLine
 62
7
  6
CONTINUOUS
 10
160.9951263108
 20
143.5268620801
 11
160.7259032617
 21
173.8474990207
  0
LINE
  5
2A8
100
AcDbEntity
  8
00_COMPONENTS_1
100
AcDbLine
 62
7
  6
CONTINUOUS
 10
129.5947452741
 20
197.9088017429
 11
129.5947452741
 21
175.9088017429
  0
LINE
  5
2A9
100
AcDbEntity
  8
00_COMPONENTS_1
100
AcDbLine
 62
7
  6
CONTINUOUS
 10
129.5947452741
 20
930.9088017429
 11
129.5947452741
 21
952.9088017429
  0
LINE
  5
2AA
100
AcDbEntity
  8
00_COMPONENTS_1
100
AcDbLine
 62
7
  6
CONTINUOUS
 10
129.8567841705
 20
197.6467628465
 11
129.8567841705
 21
176.1708406393
  0
LINE
  5
2AB
100
AcDbEntity
  8
00_COMPONENTS_1
100
AcDbLine
 62
7
  6
CONTINUOUS
 10
129.8567841705
 20
931.1708406393
 11
129.8567841705
 21
952.6467628465
  0
LINE
  5
2AC
100
AcDbEntity
  8
00_COMPONENTS_1
100
AcDbLine
 62
7
  6
CONTINUOUS
 10
151.3327063777
 20
952.6467628465
 11
151.3327063777
 21
931.1708406393
  0
LINE
  5
2AD
100
AcDbEntity
  8
00_COMPONENTS_1
100
AcDbLine
 62
7
  6
CONTINUOUS
 10
151.3327063777
 20
176.1708406393
 11
151.3327063777
 21
197.6467628465
  0
LINE
  5
2AE
100
AcDbEntity
  8
00_COMPONENTS_1
100
AcDbLine
 62
7
  6
CONTINUOUS
 10
151.5947452741
 20
952.9088017429
 11
151.5947452741
 21
930.9088017429
  0
LINE
  5
2AF
100
AcDbEntity
  8
00_COMPONENTS_1
100
AcDbLine
 62
7
  6
CONTINUOUS
 10
151.5947452741
 20
175.9088017429
 11
151.5947452741
 21
197.9088017429
  0
LINE
  5
2B0
100
AcDbEntity
  8
00_COMPONENTS_1
100
AcDbLine
 62
7
  6
CONTINUOUS
 10
158.4345913266
 20
957.2818517429
 11
158.6411823792
 21
980.5487017429
  0
LINE
  5
2B1
100
AcDbEntity
  8
00_COMPONENTS_1
100
AcDbLine
 62
7
  6
CONTINUOUS
 10
160.9605274141
 20
985.3256488768
 11
160.938328457
 21
982.8255415495
  0
LINE
  5
2B2
100
AcDbEntity
  8
00_COMPONENTS_1
100
AcDbLine
 62
7
  6
CONTINUOUS
 10
160.7259032617
 20
954.9701044651
 11
160.9951263108
 21
985.2907414057
  0
LINE
  5
2B3
100
AcDbEntity
  8
00_COMPONENTS_1
100
AcDbLine
 62
7
  6
CONTINUOUS
 10
104.4750698881
 20
257.8659492236
 11
106.9247524668
 21
258.3546910416
  0
LINE
  5
2B4
100
AcDbEntity
  8
00_COMPONENTS_1
100
AcDbLine
 62
7
  6
CONTINUOUS
 10
95.1965513079
 20
213.4088017429
 11
95.4323236443
 21
213.8803823305
  0
LINE
  5
2B5
100
AcDbEntity
  8
00_COMPONENTS_1
100
AcDbLine
 62
7
  6
CONTINUOUS
 10
645.4674874402
 20
954.9701044651
 11
647.7587993753
 21
957.2818517429
  0
LINE
  5
2B6
100
AcDbEntity
  8
00_COMPONENTS_1
100
AcDbLine
 62
7
  6
CONTINUOUS
 10
645.2328632878
 20
143.4919546089
 11
645.1982643911
 21
143.5268620801
  0
LINE
  5
2B7
100
AcDbEntity
  8
00_COMPONENTS_1
100
AcDbLine
 62
7
  6
CONTINUOUS
 10
645.4674874402
 20
173.8474990207
 11
647.7587993753
 21
171.5357517429
  0
LINE
  5
2B8
100
AcDbEntity
  8
00_COMPONENTS_1
100
AcDbLine
 62
7
  6
CONTINUOUS
 10
95.1965513078
 20
915.4088017429
 11
95.4323236443
 21
914.9372211553
  0
LINE
  5
2B9
100
AcDbEntity
  8
00_COMPONENTS_1
100
AcDbLine
 62
7
  6
CONTINUOUS
 10
88.0965513078
 20
147.4324536908
 11
87.8347452741
 21
146.9088017429
  0
LINE
  5
2BA
100
AcDbEntity
  8
00_COMPONENTS_1
100
AcDbLine
 62
7
  6
CONTINUOUS
 10
681.5947452741
 20
952.9088017429
 11
681.3327063777
 21
952.6467628465
  0
LINE
  5
2BB
100
AcDbEntity
  8
00_COMPONENTS_1
100
AcDbLine
 62
7
  6
CONTINUOUS
 10
659.5947452741
 20
930.9088017429
 11
659.8567841705
 21
931.1708406393
  0
LINE
  5
2BC
100
AcDbEntity
  8
00_COMPONENTS_1
100
AcDbLine
 62
7
  6
CONTINUOUS
 10
683.7329979964
 20
954.9701044651
 11
686.0447452741
 21
957.2818517429
  0
LINE
  5
2BD
100
AcDbEntity
  8
00_COMPONENTS_1
100
AcDbLine
 62
7
  6
CONTINUOUS
 10
720.3548975818
 20
987.9088017429
 11
717.7717447158
 21
985.3256488768
  0
LINE
  5
2BE
100
AcDbEntity
  8
00_COMPONENTS_1
100
AcDbLine
 62
7
  6
CONTINUOUS
 10
719.269779047
 20
982.8256415495
 11
716.9929392404
 21
980.5488017429
  0
LINE
  5
2BF
100
AcDbEntity
  8
00_COMPONENTS_1
100
AcDbLine
 62
7
  6
CONTINUOUS
 10
721.7715924081
 20
981.3258011845
 11
724.3547452741
 21
983.9089540506
  0
LINE
  5
2C0
100
AcDbEntity
  8
00_COMPONENTS_1
100
AcDbLine
 62
7
  6
CONTINUOUS
 10
681.5947452741
 20
175.9088017429
 11
681.3327063777
 21
176.1708406393
  0
LINE
  5
2C1
100
AcDbEntity
  8
00_COMPONENTS_1
100
AcDbLine
 62
7
  6
CONTINUOUS
 10
659.5947452741
 20
197.9088017429
 11
659.8567841705
 21
197.6467628465
  0
LINE
  5
2C2
100
AcDbEntity
  8
00_COMPONENTS_1
100
AcDbLine
 62
7
  6
CONTINUOUS
 10
683.7329979964
 20
173.8474990207
 11
686.0447452741
 21
171.5357517429
  0
LINE
  5
2C3
100
AcDbEntity
  8
00_COMPONENTS_1
100
AcDbLine
 62
7
  6
CONTINUOUS
 10
717.7717447158
 20
143.491954609
 11
720.3548975818
 21
140.9088017429
  0
LINE
  5
2C4
100
AcDbEntity
  8
00_COMPONENTS_1
100
AcDbLine
 62
7
  6
CONTINUOUS
 10
719.269779047
 20
145.9919619363
 11
716.9929392404
 21
148.2688017429
  0
LINE
  5
2C5
100
AcDbEntity
  8
00_COMPONENTS_1
100
AcDbLine
 62
7
  6
CONTINUOUS
 10
724.3547452741
 20
144.9086494352
 11
721.7715924081
 21
147.4918023013
  0
LINE
  5
2C6
100
AcDbEntity
  8
00_COMPONENTS_1
100
AcDbLine
 62
7
  6
CONTINUOUS
 10
88.0965513078
 20
981.3851497951
 11
87.8347452741
 21
981.9088017429
  0
LINE
  5
2C7
100
AcDbEntity
  8
00_COMPONENTS_1
100
AcDbLine
 62
7
  6
CONTINUOUS
 10
90.4178981402
 20
268.0781998506
 11
90.4528056113
 21
268.1134132839
  0
LINE
  5
2C8
100
AcDbEntity
  8
00_COMPONENTS_1
100
AcDbLine
 62
7
  6
CONTINUOUS
 10
683.7329979964
 20
860.9923599792
 11
686.0447452741
 21
863.2840209717
  0
LINE
  5
2C9
100
AcDbEntity
  8
00_COMPONENTS_1
100
AcDbLine
 62
7
420
48875
  6
CONTINUOUS
 10
724.3547452741
 20
564.4088017429
 11
724.0929392404
 21
564.4088017429
  0
LINE
  5
2CA
100
AcDbEntity
  8
00_COMPONENTS_1
100
AcDbLine
 62
7
420
48875
  6
CONTINUOUS
 10
88.0965513078
 20
564.4088017429
 11
87.8347452741
 21
564.4088017429
  0
LINE
  5
2CB
100
AcDbEntity
  8
00_COMPONENTS_1
100
AcDbLine
 62
7
  6
CONTINUOUS
 10
683.7329979964
 20
267.8252435066
 11
686.0447452741
 21
265.5335825141
  0
LINE
  5
2CC
100
AcDbEntity
  8
00_COMPONENTS_1
100
AcDbLine
 62
7
  6
CONTINUOUS
 10
90.4178981402
 20
860.7394036352
 11
90.4528056114
 21
860.7041902019
  0
LINE
  5
2CD
100
AcDbEntity
  8
00_COMPONENTS_1
100
AcDbLine
 62
7
  6
CONTINUOUS
 10
122.4564925519
 20
268.3927052286
 11
120.1447452741
 21
266.0606956104
  0
LINE
  5
2CE
100
AcDbEntity
  8
00_COMPONENTS_1
100
AcDbLine
 62
7
  6
CONTINUOUS
 10
122.4564925519
 20
860.4248982572
 11
120.1447452741
 21
862.7569078754
  0
LINE
  5
2CF
100
AcDbEntity
  8
00_COMPONENTS_1_1
100
AcDbLine
 62
7
  6
CONTINUOUS
 10
691.2623622941
 20
883.4088217661
 11
692.3107040897
 21
884.9088125709
  0
LINE
  5
2D0
100
AcDbEntity
  8
00_COMPONENTS_1_1
100
AcDbLine
 62
7
  6
CONTINUOUS
 10
701.2909244929
 20
887.8054019489
 11
701.3625593318
 21
887.9074443618
  0
LINE
  5
2D1
100
AcDbEntity
  8
00_COMPONENTS_1_1
100
AcDbLine
 62
7
  6
CONTINUOUS
 10
710.8985660553
 20
891.0122015369
 11
710.8269312164
 21
890.910159124
  0
LINE
  5
2D2
100
AcDbEntity
  8
00_COMPONENTS_1
100
AcDbLine
 62
7
  6
CONTINUOUS
 10
90.4178981402
 20
147.4918023013
 11
87.8347452741
 21
144.9086494352
  0
LINE
  5
2D3
100
AcDbEntity
  8
00_COMPONENTS_1
100
AcDbLine
 62
7
  6
CONTINUOUS
 10
92.9197115012
 20
145.9920619363
 11
95.1965513078
 21
148.2689017429
  0
LINE
  5
2D4
100
AcDbEntity
  8
00_COMPONENTS_1
100
AcDbLine
 62
7
  6
CONTINUOUS
 10
87.8347452741
 20
983.9089540506
 11
90.4178981402
 21
981.3258011845
  0
LINE
  5
2D5
100
AcDbEntity
  8
00_COMPONENTS_1
100
AcDbLine
 62
7
  6
CONTINUOUS
 10
92.9197115012
 20
982.8255415495
 11
95.1965513078
 21
980.5487017429
  0
LINE
  5
2D6
100
AcDbEntity
  8
00_COMPONENTS_1_1
100
AcDbLine
 62
7
  6
CONTINUOUS
 10
701.3625593318
 20
240.910159124
 11
701.2909244929
 21
241.0122015369
  0
LINE
  5
2D7
100
AcDbEntity
  8
00_COMPONENTS_1_1
100
AcDbLine
 62
7
  6
CONTINUOUS
 10
710.8269312164
 20
237.9074443618
 11
710.8985660553
 21
237.8054019489
  0
LINE
  5
2D8
100
AcDbEntity
  8
00_COMPONENTS_1_1
100
AcDbLine
 62
7
  6
CONTINUOUS
 10
692.3107040897
 20
243.908790915
 11
691.2623622941
 21
245.4087817197
  0
LINE
  5
2D9
100
AcDbEntity
  8
00_COMPONENTS_1
100
AcDbLine
 62
7
  6
CONTINUOUS
 10
724.0929392404
 20
981.3851497951
 11
724.3547452741
 21
981.9088017429
  0
LINE
  5
2DA
100
AcDbEntity
  8
00_COMPONENTS_1_1
100
AcDbLine
 62
7
  6
CONTINUOUS
 10
705.0308940905
 20
892.8194537829
 11
702.3289474335
 21
888.136248552
  0
LINE
  5
2DB
100
AcDbEntity
  8
00_COMPONENTS_1_1
100
AcDbLine
 62
7
  6
CONTINUOUS
 10
704.6125285771
 20
892.7933251204
 11
702.0183196979
 21
888.2982255316
  0
LINE
  5
2DC
100
AcDbEntity
  8
00_COMPONENTS_1_1
100
AcDbLine
 62
7
  6
CONTINUOUS
 10
704.9924063218
 20
892.8524913447
 11
702.3419866574
 21
888.2588331501
  0
LINE
  5
2DD
100
AcDbEntity
  8
00_COMPONENTS_1_1
100
AcDbLine
 62
7
  6
CONTINUOUS
 10
701.5907707063
 20
888.3576889554
 11
704.197220349
 21
892.872192164
  0
LINE
  5
2DE
100
AcDbEntity
  8
00_COMPONENTS_1_1
100
AcDbLine
 62
7
  6
CONTINUOUS
 10
704.402979988
 20
892.8285783129
 11
701.8040111164
 21
888.3270321799
  0
LINE
  5
2DF
100
AcDbEntity
  8
00_COMPONENTS_1_1
100
AcDbLine
 62
7
  6
CONTINUOUS
 10
701.8988934363
 20
888.3140229097
 11
704.5164237043
 21
892.8477183241
  0
LINE
  5
2E0
100
AcDbEntity
  8
00_COMPONENTS_1_1
100
AcDbLine
 62
7
  6
CONTINUOUS
 10
702.0913889426
 20
888.288886791
 11
704.7049220184
 21
892.8156588656
  0
LINE
  5
2E1
100
AcDbEntity
  8
00_COMPONENTS_1_1
100
AcDbLine
 62
7
  6
CONTINUOUS
 10
702.3419866574
 20
888.2588331501
 11
704.9864465387
 21
892.8361753489
  0
LINE
  5
2E2
100
AcDbEntity
  8
00_COMPONENTS_1_1
100
AcDbLine
 62
7
  6
CONTINUOUS
 10
702.3289474335
 20
888.136248552
 11
705.0234059875
 21
892.7998913245
  0
LINE
  5
2E3
100
AcDbEntity
  8
00_COMPONENTS_1
100
AcDbLine
 62
7
  6
CONTINUOUS
 10
160.7259032617
 20
173.8474990207
 11
158.4345913266
 21
171.5357517429
  0
LINE
  5
2E4
100
AcDbEntity
  8
00_COMPONENTS_1
100
AcDbLine
 62
7
  6
CONTINUOUS
 10
122.4564925519
 20
173.8474990207
 11
120.1447452741
 21
171.5357517429
  0
LINE
  5
2E5
100
AcDbEntity
  8
00_COMPONENTS_1
100
AcDbLine
 62
7
  6
CONTINUOUS
 10
91.8345929664
 20
140.9088017429
 11
94.4177458325
 21
143.491954609
  0
LINE
  5
2E6
100
AcDbEntity
  8
00_COMPONENTS_1
100
AcDbLine
 62
7
  6
CONTINUOUS
 10
151.5947452741
 20
197.9088017429
 11
151.3327063777
 21
197.6467628465
  0
LINE
  5
2E7
100
AcDbEntity
  8
00_COMPONENTS_1
100
AcDbLine
 62
7
  6
CONTINUOUS
 10
129.5947452741
 20
175.9088017429
 11
129.8567841705
 21
176.1708406393
  0
LINE
  5
2E8
100
AcDbEntity
  8
00_COMPONENTS_1
100
AcDbLine
 62
7
  6
CONTINUOUS
 10
122.4564925519
 20
954.9701044651
 11
120.1447452741
 21
957.2818517429
  0
LINE
  5
2E9
100
AcDbEntity
  8
00_COMPONENTS_1
100
AcDbLine
 62
7
  6
CONTINUOUS
 10
94.4177458325
 20
985.3256488768
 11
91.8345929664
 21
987.9088017429
  0
LINE
  5
2EA
100
AcDbEntity
  8
00_COMPONENTS_1
100
AcDbLine
 62
7
  6
CONTINUOUS
 10
129.5947452741
 20
952.9088017429
 11
129.8567841705
 21
952.6467628465
  0
LINE
  5
2EB
100
AcDbEntity
  8
00_COMPONENTS_1
100
AcDbLine
 62
7
  6
CONTINUOUS
 10
151.5947452741
 20
930.9088017429
 11
151.3327063777
 21
931.1708406393
  0
LINE
  5
2EC
100
AcDbEntity
  8
00_COMPONENTS_1
100
AcDbLine
 62
7
  6
CONTINUOUS
 10
160.7259032617
 20
954.9701044651
 11
158.4345913266
 21
957.2818517429
  0
LINE
  5
2ED
100
AcDbEntity
  8
00_COMPONENTS_1_1
100
AcDbLine
 62
7
  6
CONTINUOUS
 10
709.8605431147
 20
238.136248552
 11
707.1571690999
 21
242.8186296975
  0
LINE
  5
2EE
100
AcDbEntity
  8
00_COMPONENTS_1_1
100
AcDbLine
 62
7
  6
CONTINUOUS
 10
709.8475038909
 20
238.2588331501
 11
707.1957866284
 21
242.8517421761
  0
LINE
  5
2EF
100
AcDbEntity
  8
00_COMPONENTS_1_1
100
AcDbLine
 62
7
  6
CONTINUOUS
 10
707.4845685298
 20
242.8156588656
 11
710.0981016057
 21
238.288886791
  0
LINE
  5
2F0
100
AcDbEntity
  8
00_COMPONENTS_1_1
100
AcDbLine
 62
7
  6
CONTINUOUS
 10
707.6730668439
 20
242.8477183241
 11
710.2905971119
 21
238.3140229097
  0
LINE
  5
2F1
100
AcDbEntity
  8
00_COMPONENTS_1_1
100
AcDbLine
 62
7
  6
CONTINUOUS
 10
710.3854794319
 20
238.3270321799
 11
707.7865105602
 21
242.8285783129
  0
LINE
  5
2F2
100
AcDbEntity
  8
00_COMPONENTS_1_1
100
AcDbLine
 62
7
  6
CONTINUOUS
 10
710.5987186804
 20
238.3576909662
 11
707.9922702099
 21
242.8721921455
  0
LINE
  5
2F3
100
AcDbEntity
  8
00_COMPONENTS_1_1
100
AcDbLine
 62
7
  6
CONTINUOUS
 10
710.1711692081
 20
238.2982283749
 11
707.5769619712
 21
242.7933251204
  0
LINE
  5
2F4
100
AcDbEntity
  8
00_COMPONENTS_1
100
AcDbLine
 62
7
  6
CONTINUOUS
 10
724.0929392404
 20
147.4324536908
 11
724.3547452741
 21
146.9088017429
  0
LINE
  5
2F5
100
AcDbEntity
  8
00_COMPONENTS_1_1
100
AcDbLine
 62
7
  6
CONTINUOUS
 10
699.4804256799
 20
884.9088908613
 11
698.729285199
 21
883.4088017808
  0
LINE
  5
2F6
100
AcDbEntity
  8
00_COMPONENTS_1_1
100
AcDbLine
 62
7
  6
CONTINUOUS
 10
698.729285199
 20
245.4088017051
 11
699.4804256799
 21
243.9087126246
  0
LINE
  5
2F7
100
AcDbEntity
  8
00_COMPONENTS_1
100
AcDbLine
 62
7
  6
CONTINUOUS
 10
645.1982643911
 20
985.2907414057
 11
645.4674874402
 21
954.9701044651
  0
LINE
  5
2F8
100
AcDbEntity
  8
00_COMPONENTS_1
100
AcDbLine
 62
7
  6
CONTINUOUS
 10
647.5522074348
 20
980.5488017429
 11
647.7587993753
 21
957.2818517429
  0
LINE
  5
2F9
100
AcDbEntity
  8
00_COMPONENTS_1
100
AcDbLine
 62
7
  6
CONTINUOUS
 10
645.4674874402
 20
173.8474990207
 11
645.1982643911
 21
143.5268620801
  0
LINE
  5
2FA
100
AcDbEntity
  8
00_COMPONENTS_1
100
AcDbLine
 62
7
  6
CONTINUOUS
 10
645.255061357
 20
145.9919619363
 11
645.2328632878
 21
143.4919546089
  0
LINE
  5
2FB
100
AcDbEntity
  8
00_COMPONENTS_1
100
AcDbLine
 62
7
  6
CONTINUOUS
 10
647.5522074348
 20
148.2688017429
 11
647.7587993753
 21
171.5357517429
  0
LINE
  5
2FC
100
AcDbEntity
  8
00_COMPONENTS_1
100
AcDbLine
 62
7
  6
CONTINUOUS
 10
104.4750698881
 20
870.9516542622
 11
106.9247524668
 21
870.4629124442
  0
LINE
  5
2FD
100
AcDbEntity
  8
00_COMPONENTS_1
100
AcDbLine
 62
7
  6
CONTINUOUS
 10
659.5947452741
 20
197.9088017429
 11
659.5947452741
 21
175.9088017429
  0
LINE
  5
2FE
100
AcDbEntity
  8
00_COMPONENTS_1
100
AcDbLine
 62
7
  6
CONTINUOUS
 10
659.5947452741
 20
930.9088017429
 11
659.5947452741
 21
952.9088017429
  0
LINE
  5
2FF
100
AcDbEntity
  8
00_COMPONENTS_1
100
AcDbLine
 62
7
  6
CONTINUOUS
 10
659.8567841705
 20
197.6467628465
 11
659.8567841705
 21
176.1708406393
  0
LINE
  5
300
100
AcDbEntity
  8
00_COMPONENTS_1
100
AcDbLine
 62
7
  6
CONTINUOUS
 10
659.8567841705
 20
931.1708406393
 11
659.8567841705
 21
952.6467628465
  0
LINE
  5
301
100
AcDbEntity
  8
00_COMPONENTS_1
100
AcDbLine
 62
7
  6
CONTINUOUS
 10
681.3327063777
 20
952.6467628465
 11
681.3327063777
 21
931.1708406393
  0
LINE
  5
302
100
AcDbEntity
  8
00_COMPONENTS_1
100
AcDbLine
 62
7
  6
CONTINUOUS
 10
681.3327063777
 20
176.1708406393
 11
681.3327063777
 21
197.6467628465
  0
LINE
  5
303
100
AcDbEntity
  8
00_COMPONENTS_1
100
AcDbLine
 62
7
  6
CONTINUOUS
 10
681.5947452741
 20
952.9088017429
 11
681.5947452741
 21
930.9088017429
  0
LINE
  5
304
100
AcDbEntity
  8
00_COMPONENTS_1
100
AcDbLine
 62
7
  6
CONTINUOUS
 10
681.5947452741
 20
175.9088017429
 11
681.5947452741
 21
197.9088017429
  0
LINE
  5
305
100
AcDbEntity
  8
00_COMPONENTS_1
100
AcDbLine
 62
7
  6
CONTINUOUS
 10
683.7329979963
 20
954.9701044651
 11
683.7329979963
 21
860.9923599792
  0
LINE
  5
306
100
AcDbEntity
  8
00_COMPONENTS_1
100
AcDbLine
 62
7
  6
CONTINUOUS
 10
683.7329979964
 20
173.8474990207
 11
683.7329979964
 21
267.8252435066
  0
LINE
  5
307
100
AcDbEntity
  8
00_COMPONENTS_1
100
AcDbLine
 62
7
  6
CONTINUOUS
 10
686.0447452741
 20
957.2818517429
 11
686.0447452741
 21
863.2840209717
  0
LINE
  5
308
100
AcDbEntity
  8
00_COMPONENTS_1
100
AcDbLine
 62
7
  6
CONTINUOUS
 10
686.0447452741
 20
171.5357517429
 11
686.0447452741
 21
265.5335825141
  0
LINE
  5
309
100
AcDbEntity
  8
00_COMPONENTS_1
100
AcDbLine
 62
7
  6
CONTINUOUS
 10
699.0947452741
 20
881.5825638217
 11
699.0947452741
 21
872.8256777911
  0
LINE
  5
30A
100
AcDbEntity
  8
00_COMPONENTS_1
100
AcDbLine
 62
7
  6
CONTINUOUS
 10
699.0947452741
 20
231.5825638217
 11
699.0947452741
 21
222.8256777911
  0
LINE
  5
30B
100
AcDbEntity
  8
00_COMPONENTS_1_1
100
AcDbLine
 62
7
  6
CONTINUOUS
 10
706.0947450934
 20
242.9060861675
 11
706.0947454548
 21
242.8040554063
  0
LINE
  5
30C
100
AcDbEntity
  8
00_COMPONENTS_1_1
100
AcDbLine
 62
7
  6
CONTINUOUS
 10
706.0947455618
 20
886.0338072442
 11
706.0947450083
 21
886.733832205
  0
LINE
  5
30D
100
AcDbEntity
  8
00_COMPONENTS_1_1
100
AcDbLine
 62
7
  6
CONTINUOUS
 10
706.0947450083
 20
236.733832205
 11
706.0947455618
 21
236.0338072442
  0
LINE
  5
30E
100
AcDbEntity
  8
00_COMPONENTS_1_1
100
AcDbLine
 62
7
  6
CONTINUOUS
 10
706.0947450934
 20
892.9060861675
 11
706.0947454548
 21
892.8040554063
  0
LINE
  5
30F
100
AcDbEntity
  8
00_COMPONENTS_1
100
AcDbLine
 62
7
  6
CONTINUOUS
 10
713.0947452741
 20
222.8256777911
 11
713.0947452741
 21
231.5825638217
  0
LINE
  5
310
100
AcDbEntity
  8
00_COMPONENTS_1
100
AcDbLine
 62
7
  6
CONTINUOUS
 10
713.0947452741
 20
872.8256777911
 11
713.0947452741
 21
881.5825638217
  0
LINE
  5
311
100
AcDbEntity
  8
00_COMPONENTS_1
100
AcDbLine
 62
7
  6
CONTINUOUS
 10
716.9929392404
 20
265.8036633112
 11
716.9929392404
 21
148.2688017429
  0
LINE
  5
312
100
AcDbEntity
  8
00_COMPONENTS_1
100
AcDbLine
 62
7
  6
CONTINUOUS
 10
716.9929392404
 20
863.0139401746
 11
716.9929392404
 21
980.5488017429
  0
LINE
  5
313
100
AcDbEntity
  8
00_COMPONENTS_1
100
AcDbLine
 62
7
  6
CONTINUOUS
 10
719.269779047
 20
268.1004594962
 11
719.269779047
 21
145.9919619363
  0
LINE
  5
314
100
AcDbEntity
  8
00_COMPONENTS_1
100
AcDbLine
 62
7
  6
CONTINUOUS
 10
719.269779047
 20
860.7171439896
 11
719.269779047
 21
982.8256415495
  0
LINE
  5
315
100
AcDbEntity
  8
00_COMPONENTS_1
100
AcDbLine
 62
7
  6
CONTINUOUS
 10
721.7366849369
 20
860.6607068277
 11
721.7366849369
 21
268.1568966581
  0
LINE
  5
316
100
AcDbEntity
  8
00_COMPONENTS_1
100
AcDbLine
 62
7
  6
CONTINUOUS
 10
721.771592408
 20
268.1222924907
 11
721.771592408
 21
147.4918023012
  0
LINE
  5
317
100
AcDbEntity
  8
00_COMPONENTS_1
100
AcDbLine
 62
7
  6
CONTINUOUS
 10
721.7715924081
 20
860.6953109952
 11
721.7715924081
 21
981.3258011845
  0
LINE
  5
318
100
AcDbEntity
  8
00_COMPONENTS_1
100
AcDbLine
 62
7
420
24575
  6
CONTINUOUS
 10
724.0484322146
 20
141.2151148024
 11
724.0484322146
 21
987.6024886834
  0
LINE
  5
319
100
AcDbEntity
  8
00_COMPONENTS_1
100
AcDbLine
 62
7
  6
CONTINUOUS
 10
724.0929392404
 20
981.3851497951
 11
724.0929392404
 21
147.4324536908
  0
LINE
  5
31A
100
AcDbEntity
  8
00_COMPONENTS_1
100
AcDbLine
 62
7
  6
CONTINUOUS
 10
724.3547452741
 20
146.9088017429
 11
724.3547452741
 21
144.9086494352
  0
LINE
  5
31B
100
AcDbEntity
  8
00_COMPONENTS_1
100
AcDbLine
 62
7
420
48875
  6
CONTINUOUS
 10
724.3547452741
 20
140.9088017429
 11
724.3547452741
 21
144.9086494352
  0
LINE
  5
31C
100
AcDbEntity
  8
00_COMPONENTS_1
100
AcDbLine
 62
7
420
48875
  6
CONTINUOUS
 10
724.3547452741
 20
146.9088017429
 11
724.3547452741
 21
981.9088017429
  0
LINE
  5
31D
100
AcDbEntity
  8
00_COMPONENTS_1
100
AcDbLine
 62
7
420
48875
  6
CONTINUOUS
 10
724.3547452741
 20
983.9089540506
 11
724.3547452741
 21
987.9088017429
  0
LINE
  5
31E
100
AcDbEntity
  8
00_COMPONENTS_1
100
AcDbLine
 62
7
  6
CONTINUOUS
 10
724.3547452741
 20
981.9088017429
 11
724.3547452741
 21
983.9089540506
  0
LINE
  5
31F
100
AcDbEntity
  8
00_COMPONENTS_1_1
100
AcDbLine
 62
7
  6
CONTINUOUS
 10
707.4845685298
 20
892.8156588656
 11
707.7865105602
 21
892.8285783129
  0
LINE
  5
320
100
AcDbEntity
  8
00_COMPONENTS_1_1
100
AcDbLine
 62
7
  6
CONTINUOUS
 10
706.0947452741
 20
886.0338017429
 11
709.3159826388
 21
886.0900286503
  0
LINE
  5
321
100
AcDbEntity
  8
00_COMPONENTS_1_1
100
AcDbLine
 62
7
  6
CONTINUOUS
 10
706.0947452741
 20
886.2338289516
 11
709.2323837637
 21
886.2885694265
  0
LINE
  5
322
100
AcDbEntity
  8
00_COMPONENTS_1_1
100
AcDbLine
 62
7
  6
CONTINUOUS
 10
709.1946890348
 20
886.3766305704
 11
706.0947452741
 21
886.3224915375
  0
LINE
  5
323
100
AcDbEntity
  8
00_COMPONENTS_1_1
100
AcDbLine
 62
7
  6
CONTINUOUS
 10
706.0947452741
 20
886.4338017429
 11
709.1466505557
 21
886.4870729478
  0
LINE
  5
324
100
AcDbEntity
  8
00_COMPONENTS_1_1
100
AcDbLine
 62
7
  6
CONTINUOUS
 10
709.1170451715
 20
886.5545461925
 11
706.0947452741
 21
886.5017645428
  0
LINE
  5
325
100
AcDbEntity
  8
00_COMPONENTS_1_1
100
AcDbLine
 62
7
  6
CONTINUOUS
 10
709.0136882689
 20
886.7847977808
 11
706.0947452741
 21
886.733816978
  0
LINE
  5
326
100
AcDbEntity
  8
00_COMPONENTS_1_1
100
AcDbLine
 62
7
  6
CONTINUOUS
 10
709.1254100372
 20
886.8367021931
 11
706.0947452741
 21
886.7838017429
  0
LINE
  5
327
100
AcDbEntity
  8
00_COMPONENTS_1
100
AcDbLine
 62
7
  6
CONTINUOUS
 10
120.1447452741
 20
870.4088017429
 11
95.1965513079
 21
870.4088017429
  0
LINE
  5
328
100
AcDbEntity
  8
00_COMPONENTS_1
100
AcDbLine
 62
7
  6
CONTINUOUS
 10
96.4592681067
 20
870.9516542622
 11
104.4750698881
 21
870.9516542622
  0
LINE
  5
329
100
AcDbEntity
  8
00_COMPONENTS_1_1
100
AcDbLine
 62
7
  6
CONTINUOUS
 10
691.2623550621
 20
883.408783724
 11
698.7292851432
 21
883.4088020121
  0
LINE
  5
32A
100
AcDbEntity
  8
00_COMPONENTS_1_1
100
AcDbLine
 62
7
  6
CONTINUOUS
 10
699.4803398357
 20
884.9089002838
 11
692.3107184412
 21
884.908812571
  0
LINE
  5
32B
100
AcDbEntity
  8
00_COMPONENTS_1_1
100
AcDbLine
 62
7
  6
CONTINUOUS
 10
698.6785609078
 20
886.4088017429
 11
693.4456346335
 21
886.4088017429
  0
LINE
  5
32C
100
AcDbEntity
  8
00_COMPONENTS_1
100
AcDbLine
 62
7
  6
CONTINUOUS
 10
90.4528056113
 20
860.704190202
 11
122.4564925519
 21
860.4248982572
  0
LINE
  5
32D
100
AcDbEntity
  8
00_COMPONENTS_1
100
AcDbLine
 62
7
  6
CONTINUOUS
 10
95.1965513078
 20
862.9746274658
 11
120.1447452741
 21
862.7569078755
  0
LINE
  5
32E
100
AcDbEntity
  8
00_COMPONENTS_1
100
AcDbLine
 62
7
  6
CONTINUOUS
 10
683.7329979963
 20
860.9923599792
 11
721.7366849369
 21
860.6607068277
  0
LINE
  5
32F
100
AcDbEntity
  8
00_COMPONENTS_1
100
AcDbLine
 62
7
  6
CONTINUOUS
 10
716.9929392404
 20
863.0139401746
 11
686.0447452741
 21
863.2840209717
  0
LINE
  5
330
100
AcDbEntity
  8
00_COMPONENTS_1_1
100
AcDbLine
 62
7
  6
CONTINUOUS
 10
704.9546827542
 20
892.7841555347
 11
706.0947452741
 21
892.8040657591
  0
LINE
  5
331
100
AcDbEntity
  8
00_COMPONENTS_1_1
100
AcDbLine
 62
7
  6
CONTINUOUS
 10
704.9923687543
 20
892.8546435856
 11
704.5164478079
 21
892.8463374314
  0
LINE
  5
332
100
AcDbEntity
  8
00_COMPONENTS_1_1
100
AcDbLine
 62
7
  6
CONTINUOUS
 10
701.2909215552
 20
887.8045156348
 11
698.4510187227
 21
887.8040713533
  0
LINE
  5
333
100
AcDbEntity
  8
00_COMPONENTS_1_1
100
AcDbLine
 62
7
  6
CONTINUOUS
 10
710.8269343063
 20
887.908350035
 11
712.4193005945
 21
887.9088017429
  0
LINE
  5
334
100
AcDbEntity
  8
00_COMPONENTS_1_1
100
AcDbLine
 62
7
  6
CONTINUOUS
 10
701.3625562419
 20
890.9092534508
 11
699.7701899538
 21
890.9088017429
  0
LINE
  5
335
100
AcDbEntity
  8
00_COMPONENTS_1_1
100
AcDbLine
 62
7
  6
CONTINUOUS
 10
710.898568993
 20
891.013087851
 11
713.7384718255
 21
891.0135321325
  0
LINE
  5
336
100
AcDbEntity
  8
00_COMPONENTS_1_1
100
AcDbLine
 62
7
  6
CONTINUOUS
 10
698.5034577811
 20
887.8459635092
 11
699.3740654979
 21
887.8459635092
  0
LINE
  5
337
100
AcDbEntity
  8
00_COMPONENTS_1_1
100
AcDbLine
 62
7
  6
CONTINUOUS
 10
712.8154250504
 20
887.8459635092
 11
713.6860327671
 21
887.8459635092
  0
LINE
  5
338
100
AcDbEntity
  8
00_COMPONENTS_1_1
100
AcDbLine
 62
7
  6
CONTINUOUS
 10
713.7898991008
 20
890.9716399767
 11
712.8154250504
 21
890.9716399767
  0
LINE
  5
339
100
AcDbEntity
  8
00_COMPONENTS_1_1
100
AcDbLine
 62
7
  6
CONTINUOUS
 10
699.3740654979
 20
890.9716399767
 11
698.3995914474
 21
890.9716399767
  0
LINE
  5
33A
100
AcDbEntity
  8
00_COMPONENTS_1_1
100
AcDbLine
 62
7
  6
CONTINUOUS
 10
693.4456346335
 20
892.4088017429
 11
698.6785609078
 21
892.4088017429
  0
LINE
  5
33B
100
AcDbEntity
  8
00_COMPONENTS_1_1
100
AcDbLine
 62
7
  6
CONTINUOUS
 10
692.3107184412
 20
893.9087909148
 11
699.4803398911
 21
893.908703202
  0
LINE
  5
33C
100
AcDbEntity
  8
00_COMPONENTS_1_1
100
AcDbLine
 62
7
  6
CONTINUOUS
 10
698.7292851432
 20
895.4088014738
 11
691.2623550621
 21
895.4088197618
  0
LINE
  5
33D
100
AcDbEntity
  8
00_COMPONENTS_1
100
AcDbLine
 62
7
  6
CONTINUOUS
 10
96.4592681067
 20
914.8659492236
 11
104.4750698881
 21
914.8659492236
  0
LINE
  5
33E
100
AcDbEntity
  8
00_COMPONENTS_1
100
AcDbLine
 62
7
  6
CONTINUOUS
 10
106.9247524668
 20
915.3546910416
 11
120.1447452741
 21
915.3546910416
  0
LINE
  5
33F
100
AcDbEntity
  8
00_COMPONENTS_1
100
AcDbLine
 62
7
  6
CONTINUOUS
 10
120.1447452741
 20
915.4088017429
 11
95.1965513078
 21
915.4088017429
  0
LINE
  5
340
100
AcDbEntity
  8
00_COMPONENTS_1_1
100
AcDbLine
 62
7
  6
CONTINUOUS
 10
713.7384718255
 20
887.8040713533
 11
710.898568993
 21
887.8045156348
  0
LINE
  5
341
100
AcDbEntity
  8
00_COMPONENTS_1_1
100
AcDbLine
 62
7
  6
CONTINUOUS
 10
698.4510187227
 20
891.0135321325
 11
701.2909215552
 21
891.013087851
  0
LINE
  5
342
100
AcDbEntity
  8
00_COMPONENTS_1_1
100
AcDbLine
 62
7
  6
CONTINUOUS
 10
699.7701899538
 20
887.9088017429
 11
701.3625562419
 21
887.908350035
  0
LINE
  5
343
100
AcDbEntity
  8
00_COMPONENTS_1_1
100
AcDbLine
 62
7
  6
CONTINUOUS
 10
712.4193005945
 20
890.9088017429
 11
710.8269343063
 21
890.9092534508
  0
LINE
  5
344
100
AcDbEntity
  8
00_COMPONENTS_1_1
100
AcDbLine
 62
7
  6
CONTINUOUS
 10
706.0947449864
 20
886.0338072442
 11
702.8735073399
 21
886.0900286602
  0
LINE
  5
345
100
AcDbEntity
  8
00_COMPONENTS_1_1
100
AcDbLine
 62
7
  6
CONTINUOUS
 10
702.9571067845
 20
886.2885694265
 11
706.0947452741
 21
886.2338289516
  0
LINE
  5
346
100
AcDbEntity
  8
00_COMPONENTS_1_1
100
AcDbLine
 62
7
  6
CONTINUOUS
 10
706.0947452741
 20
886.3224915375
 11
702.9948015135
 21
886.3766305704
  0
LINE
  5
347
100
AcDbEntity
  8
00_COMPONENTS_1_1
100
AcDbLine
 62
7
  6
CONTINUOUS
 10
706.0947450748
 20
886.4338131701
 11
703.0428391946
 21
886.4870729617
  0
LINE
  5
348
100
AcDbEntity
  8
00_COMPONENTS_1_1
100
AcDbLine
 62
7
  6
CONTINUOUS
 10
706.0947452741
 20
886.5017645428
 11
703.0724453768
 21
886.5545461925
  0
LINE
  5
349
100
AcDbEntity
  8
00_COMPONENTS_1_1
100
AcDbLine
 62
7
  6
CONTINUOUS
 10
706.0947452741
 20
886.7338017429
 11
703.1758440158
 21
886.7847513539
  0
LINE
  5
34A
100
AcDbEntity
  8
00_COMPONENTS_1_1
100
AcDbLine
 62
7
  6
CONTINUOUS
 10
706.0947452741
 20
886.7838017429
 11
703.0640805111
 21
886.8367021931
  0
LINE
  5
34B
100
AcDbEntity
  8
00_COMPONENTS_1_1
100
AcDbLine
 62
7
  6
CONTINUOUS
 10
706.0947452741
 20
892.8040657591
 11
707.234807794
 21
892.7841555347
  0
LINE
  5
34C
100
AcDbEntity
  8
00_COMPONENTS_1_1
100
AcDbLine
 62
7
  6
CONTINUOUS
 10
704.402979988
 20
892.8285783129
 11
704.7049220184
 21
892.8156588656
  0
LINE
  5
34D
100
AcDbEntity
  8
00_COMPONENTS_1
100
AcDbLine
 62
7
  6
CONTINUOUS
 10
681.5947452741
 20
930.9088017429
 11
659.5947452741
 21
930.9088017429
  0
LINE
  5
34E
100
AcDbEntity
  8
00_COMPONENTS_1
100
AcDbLine
 62
7
  6
CONTINUOUS
 10
151.5947452741
 20
930.9088017429
 11
129.5947452741
 21
930.9088017429
  0
LINE
  5
34F
100
AcDbEntity
  8
00_COMPONENTS_1
100
AcDbLine
 62
7
  6
CONTINUOUS
 10
681.3327063777
 20
931.1708406393
 11
659.8567841705
 21
931.1708406393
  0
LINE
  5
350
100
AcDbEntity
  8
00_COMPONENTS_1
100
AcDbLine
 62
7
  6
CONTINUOUS
 10
151.3327063777
 20
931.1708406393
 11
129.8567841705
 21
931.1708406393
  0
LINE
  5
351
100
AcDbEntity
  8
00_COMPONENTS_1
100
AcDbLine
 62
7
  6
CONTINUOUS
 10
129.8567841705
 20
952.6467628465
 11
151.3327063777
 21
952.6467628465
  0
LINE
  5
352
100
AcDbEntity
  8
00_COMPONENTS_1
100
AcDbLine
 62
7
  6
CONTINUOUS
 10
659.8567841705
 20
952.6467628465
 11
681.3327063777
 21
952.6467628465
  0
LINE
  5
353
100
AcDbEntity
  8
00_COMPONENTS_1
100
AcDbLine
 62
7
  6
CONTINUOUS
 10
129.5947452741
 20
952.9088017429
 11
151.5947452741
 21
952.9088017429
  0
LINE
  5
354
100
AcDbEntity
  8
00_COMPONENTS_1
100
AcDbLine
 62
7
  6
CONTINUOUS
 10
659.5947452741
 20
952.9088017429
 11
681.5947452741
 21
952.9088017429
  0
LINE
  5
355
100
AcDbEntity
  8
00_COMPONENTS_1
100
AcDbLine
 62
7
  6
CONTINUOUS
 10
122.4564925519
 20
954.9701044651
 11
160.7259032617
 21
954.9701044651
  0
LINE
  5
356
100
AcDbEntity
  8
00_COMPONENTS_1
100
AcDbLine
 62
7
  6
CONTINUOUS
 10
645.4674874402
 20
954.9701044651
 11
683.7329979963
 21
954.9701044651
  0
LINE
  5
357
100
AcDbEntity
  8
00_COMPONENTS_1
100
AcDbLine
 62
7
  6
CONTINUOUS
 10
120.1447452741
 20
957.2818517429
 11
158.4345913266
 21
957.2818517429
  0
LINE
  5
358
100
AcDbEntity
  8
00_COMPONENTS_1
100
AcDbLine
 62
7
  6
CONTINUOUS
 10
647.7587993753
 20
957.2818517429
 11
686.0447452741
 21
957.2818517429
  0
LINE
  5
359
100
AcDbEntity
  8
00_COMPONENTS_1_1
100
AcDbLine
 62
7
  6
CONTINUOUS
 10
699.4804256799
 20
234.9088908613
 11
698.729285199
 21
233.4088017808
  0
LINE
  5
35A
100
AcDbEntity
  8
00_COMPONENTS_1_1
100
AcDbLine
 62
7
  6
CONTINUOUS
 10
705.0308940905
 20
242.8194537829
 11
702.3289474335
 21
238.136248552
  0
LINE
  5
35B
100
AcDbEntity
  8
00_COMPONENTS_1_1
100
AcDbLine
 62
7
  6
CONTINUOUS
 10
704.6125285771
 20
242.7933251204
 11
702.0183196979
 21
238.2982255316
  0
LINE
  5
35C
100
AcDbEntity
  8
00_COMPONENTS_1_1
100
AcDbLine
 62
7
  6
CONTINUOUS
 10
704.9924063218
 20
242.8524913447
 11
702.3419866574
 21
238.2588331501
  0
LINE
  5
35D
100
AcDbEntity
  8
00_COMPONENTS_1_1
100
AcDbLine
 62
7
  6
CONTINUOUS
 10
701.5907707063
 20
238.3576889554
 11
704.197220349
 21
242.872192164
  0
LINE
  5
35E
100
AcDbEntity
  8
00_COMPONENTS_1_1
100
AcDbLine
 62
7
  6
CONTINUOUS
 10
704.402979988
 20
242.8285783129
 11
701.8040111164
 21
238.3270321799
  0
LINE
  5
35F
100
AcDbEntity
  8
00_COMPONENTS_1_1
100
AcDbLine
 62
7
  6
CONTINUOUS
 10
701.8988934363
 20
238.3140229097
 11
704.5164237043
 21
242.8477183241
  0
LINE
  5
360
100
AcDbEntity
  8
00_COMPONENTS_1_1
100
AcDbLine
 62
7
  6
CONTINUOUS
 10
702.0913889426
 20
238.288886791
 11
704.7049220184
 21
242.8156588656
  0
LINE
  5
361
100
AcDbEntity
  8
00_COMPONENTS_1_1
100
AcDbLine
 62
7
  6
CONTINUOUS
 10
702.3419866574
 20
238.2588331501
 11
704.9864465387
 21
242.8361753489
  0
LINE
  5
362
100
AcDbEntity
  8
00_COMPONENTS_1_1
100
AcDbLine
 62
7
  6
CONTINUOUS
 10
702.3289474335
 20
238.136248552
 11
705.0234059875
 21
242.7998913245
  0
LINE
  5
363
100
AcDbEntity
  8
00_COMPONENTS_1_1
100
AcDbLine
 62
7
  6
CONTINUOUS
 10
691.2623622941
 20
233.4088217661
 11
692.3107040897
 21
234.9088125709
  0
LINE
  5
364
100
AcDbEntity
  8
00_COMPONENTS_1
100
AcDbLine
 62
7
  6
CONTINUOUS
 10
104.4750698881
 20
914.8659492236
 11
106.9247524668
 21
915.3546910416
  0
LINE
  5
365
100
AcDbEntity
  8
00_COMPONENTS_1
100
AcDbLine
 62
7
  6
CONTINUOUS
 10
158.6411823792
 20
980.5487017429
 11
95.1965513078
 21
980.5487017429
  0
LINE
  5
366
100
AcDbEntity
  8
00_COMPONENTS_1
100
AcDbLine
 62
7
  6
CONTINUOUS
 10
716.9929392404
 20
980.5488017429
 11
647.5522074348
 21
980.5488017429
  0
LINE
  5
367
100
AcDbEntity
  8
00_COMPONENTS_1
100
AcDbLine
 62
7
  6
CONTINUOUS
 10
160.938328457
 20
982.8255415495
 11
92.9197115012
 21
982.8255415495
  0
LINE
  5
368
100
AcDbEntity
  8
00_COMPONENTS_1
100
AcDbLine
 62
7
  6
CONTINUOUS
 10
719.269779047
 20
982.8256415495
 11
645.255061357
 21
982.8256415495
  0
LINE
  5
369
100
AcDbEntity
  8
00_COMPONENTS_1
100
AcDbLine
 62
7
  6
CONTINUOUS
 10
645.1982643911
 20
985.2907414057
 11
160.9951263108
 21
985.2907414057
  0
LINE
  5
36A
100
AcDbEntity
  8
00_COMPONENTS_1
100
AcDbLine
 62
7
  6
CONTINUOUS
 10
160.9605274141
 20
985.3256488768
 11
94.4177458325
 21
985.3256488768
  0
LINE
  5
36B
100
AcDbEntity
  8
00_COMPONENTS_1
100
AcDbLine
 62
7
  6
CONTINUOUS
 10
645.2328632878
 20
985.3256488768
 11
717.7717447158
 21
985.3256488768
  0
LINE
  5
36C
100
AcDbEntity
  8
00_COMPONENTS_1
100
AcDbLine
 62
7
420
24575
  6
CONTINUOUS
 10
88.1410583336
 20
987.6024886834
 11
724.0484322147
 21
987.6024886834
  0
LINE
  5
36D
100
AcDbEntity
  8
00_COMPONENTS_1
100
AcDbLine
 62
7
  6
CONTINUOUS
 10
720.3548975818
 20
987.9088017429
 11
91.8345929664
 21
987.9088017429
  0
LINE
  5
36E
100
AcDbEntity
  8
00_COMPONENTS_1
100
AcDbLine
 62
7
420
48875
  6
CONTINUOUS
 10
87.8347452741
 20
987.9088017429
 11
91.8345929664
 21
987.9088017429
  0
LINE
  5
36F
100
AcDbEntity
  8
00_COMPONENTS_1
100
AcDbLine
 62
7
420
48875
  6
CONTINUOUS
 10
720.3548975818
 20
987.9088017429
 11
724.3547452741
 21
987.9088017429
  0
LINE
  5
370
100
AcDbEntity
  8
00_COMPONENTS_1_1
100
AcDbLine
 62
7
  6
CONTINUOUS
 10
692.3107040897
 20
893.908790915
 11
691.2623622941
 21
895.4087817197
  0
LINE
  5
371
100
AcDbEntity
  8
00_COMPONENTS_1_1
100
AcDbLine
 62
7
  6
CONTINUOUS
 10
709.8605431147
 20
888.136248552
 11
707.1571690999
 21
892.8186296975
  0
LINE
  5
372
100
AcDbEntity
  8
00_COMPONENTS_1_1
100
AcDbLine
 62
7
  6
CONTINUOUS
 10
709.8475038909
 20
888.2588331501
 11
707.1957866284
 21
892.8517421761
  0
LINE
  5
373
100
AcDbEntity
  8
00_COMPONENTS_1_1
100
AcDbLine
 62
7
  6
CONTINUOUS
 10
707.4845685298
 20
892.8156588656
 11
710.0981016057
 21
888.288886791
  0
LINE
  5
374
100
AcDbEntity
  8
00_COMPONENTS_1_1
100
AcDbLine
 62
7
  6
CONTINUOUS
 10
707.6730668439
 20
892.8477183241
 11
710.2905971119
 21
888.3140229097
  0
LINE
  5
375
100
AcDbEntity
  8
00_COMPONENTS_1_1
100
AcDbLine
 62
7
  6
CONTINUOUS
 10
710.3854794319
 20
888.3270321799
 11
707.7865105602
 21
892.8285783129
  0
LINE
  5
376
100
AcDbEntity
  8
00_COMPONENTS_1_1
100
AcDbLine
 62
7
  6
CONTINUOUS
 10
710.5987186804
 20
888.3576909662
 11
707.9922702099
 21
892.8721921455
  0
LINE
  5
377
100
AcDbEntity
  8
00_COMPONENTS_1_1
100
AcDbLine
 62
7
  6
CONTINUOUS
 10
710.1711692081
 20
888.2982283749
 11
707.5769619712
 21
892.7933251204
  0
LINE
  5
378
100
AcDbEntity
  8
00_COMPONENTS_1_1
100
AcDbLine
 62
7
  6
CONTINUOUS
 10
698.729285199
 20
895.4088017051
 11
699.4804256799
 21
893.9087126246
  0
LINE
  5
379
100
AcDbEntity
  8
00_COMPONENTS_1_1
100
AcDbLine
 62
7
  6
CONTINUOUS
 10
701.2909244929
 20
237.8054019489
 11
701.3625593318
 21
237.9074443618
  0
LINE
  5
37A
100
AcDbEntity
  8
00_COMPONENTS_1_1
100
AcDbLine
 62
7
  6
CONTINUOUS
 10
710.8985660553
 20
241.0122015369
 11
710.8269312164
 21
240.910159124
  0
LINE
  5
37B
100
AcDbEntity
  8
00_COMPONENTS_1
100
AcDbLine
 62
7
  6
CONTINUOUS
 10
719.269779047
 20
268.1004594962
 11
716.9929392404
 21
265.8036633113
  0
LINE
  5
37C
100
AcDbEntity
  8
00_COMPONENTS_1
100
AcDbLine
 62
7
  6
CONTINUOUS
 10
681.5947452741
 20
197.9088017429
 11
681.3327063777
 21
197.6467628465
  0
LINE
  5
37D
100
AcDbEntity
  8
00_COMPONENTS_1
100
AcDbLine
 62
7
  6
CONTINUOUS
 10
659.5947452741
 20
175.9088017429
 11
659.8567841705
 21
176.1708406393
  0
LINE
  5
37E
100
AcDbEntity
  8
00_COMPONENTS_1
100
AcDbLine
 62
7
  6
CONTINUOUS
 10
681.5947452741
 20
930.9088017429
 11
681.3327063777
 21
931.1708406393
  0
LINE
  5
37F
100
AcDbEntity
  8
00_COMPONENTS_1
100
AcDbLine
 62
7
  6
CONTINUOUS
 10
659.5947452741
 20
952.9088017429
 11
659.8567841705
 21
952.6467628465
  0
LINE
  5
380
100
AcDbEntity
  8
00_COMPONENTS_1
100
AcDbLine
 62
7
  6
CONTINUOUS
 10
719.269779047
 20
860.7171439896
 11
716.9929392404
 21
863.0139401746
  0
LINE
  5
381
100
AcDbEntity
  8
00_COMPONENTS_1_1
100
AcDbLine
 62
7
  6
CONTINUOUS
 10
701.3625593318
 20
890.910159124
 11
701.2909244929
 21
891.0122015369
  0
LINE
  5
382
100
AcDbEntity
  8
00_COMPONENTS_1_1
100
AcDbLine
 62
7
  6
CONTINUOUS
 10
710.8269312164
 20
887.9074443618
 11
710.8985660553
 21
887.8054019489
  0
LINE
  5
383
100
AcDbEntity
  8
00_COMPONENTS_1
100
AcDbLine
 62
7
  6
CONTINUOUS
 10
645.255061357
 20
145.9919619363
 11
647.5522074348
 21
148.2688017429
  0
LINE
  5
384
100
AcDbEntity
  8
00_COMPONENTS_1
100
AcDbLine
 62
7
  6
CONTINUOUS
 10
645.255061357
 20
982.8256415495
 11
647.5522074348
 21
980.5488017429
  0
CIRCLE
  5
385
100
AcDbEntity
  8
00_COMPONENTS_1
100
AcDbCircle
 62
7
  6
CONTINUOUS
 10
178.0947452741
 20
176.9088017429
 40
7.935
  0
CIRCLE
  5
386
100
AcDbEntity
  8
00_COMPONENTS_1
100
AcDbCircle
 62
7
  6
CONTINUOUS
 10
178.0947452741
 20
176.9088017429
 40
7.4975566824
  0
CIRCLE
  5
387
100
AcDbEntity
  8
00_COMPONENTS_1
100
AcDbCircle
 62
7
  6
CONTINUOUS
 10
140.5947452741
 20
186.9088017429
 40
5.5
  0
CIRCLE
  5
388
100
AcDbEntity
  8
00_COMPONENTS_1
100
AcDbCircle
 62
7
  6
CONTINUOUS
 10
178.0947452741
 20
176.9088017429
 40
4.1
  0
CIRCLE
  5
389
100
AcDbEntity
  8
00_COMPONENTS_1
100
AcDbCircle
 62
7
  6
CONTINUOUS
 10
178.0947452741
 20
951.9088017429
 40
7.935
  0
CIRCLE
  5
38A
100
AcDbEntity
  8
00_COMPONENTS_1
100
AcDbCircle
 62
7
  6
CONTINUOUS
 10
178.0947452741
 20
951.9088017429
 40
7.4975566824
  0
CIRCLE
  5
38B
100
AcDbEntity
  8
00_COMPONENTS_1
100
AcDbCircle
 62
7
  6
CONTINUOUS
 10
140.5947452741
 20
941.9088017429
 40
5.5
  0
CIRCLE
  5
38C
100
AcDbEntity
  8
00_COMPONENTS_1
100
AcDbCircle
 62
7
  6
CONTINUOUS
 10
178.0947452741
 20
951.9088017429
 40
4.1
  0
CIRCLE
  5
38D
100
AcDbEntity
  8
00_COMPONENTS_1
100
AcDbCircle
 62
7
  6
CONTINUOUS
 10
628.0947452741
 20
176.9088017429
 40
7.935
  0
CIRCLE
  5
38E
100
AcDbEntity
  8
00_COMPONENTS_1
100
AcDbCircle
 62
7
  6
CONTINUOUS
 10
628.0947452741
 20
176.9088017429
 40
7.4975566824
  0
CIRCLE
  5
38F
100
AcDbEntity
  8
00_COMPONENTS_1
100
AcDbCircle
 62
7
  6
CONTINUOUS
 10
670.5947452741
 20
186.9088017429
 40
5.5
  0
CIRCLE
  5
390
100
AcDbEntity
  8
00_COMPONENTS_1
100
AcDbCircle
 62
7
  6
CONTINUOUS
 10
628.0947452741
 20
176.9088017429
 40
4.1
  0
ARC
  5
391
100
AcDbEntity
  8
00_COMPONENTS_1_1
100
AcDbCircle
 62
7
  6
CONTINUOUS
 10
687.3201607506
 20
226.9502023824
 40
23.8191624346
100
AcDbArc
 50
22.5641356647
 51
23.3127435861
  0
ARC
  5
392
100
AcDbEntity
  8
00_COMPONENTS_1_1
100
AcDbCircle
 62
7
  6
CONTINUOUS
 10
688.6977428608
 20
227.5419998647
 40
22.3198087649
100
AcDbArc
 50
23.0712022677
 51
23.8154104498
  0
ARC
  5
393
100
AcDbEntity
  8
00_COMPONENTS_1_1
100
AcDbCircle
 62
7
  6
CONTINUOUS
 10
690.0047900948
 20
228.1171583094
 40
20.891776004
100
AcDbArc
 50
23.6176951723
 51
24.5119389336
  0
ARC
  5
394
100
AcDbEntity
  8
00_COMPONENTS_1_1
100
AcDbCircle
 62
7
  6
CONTINUOUS
 10
700.4632767673
 20
224.6642431153
 40
21.0601532572
100
AcDbArc
 50
50.7438476414
 51
50.9243046168
  0
ARC
  5
395
100
AcDbEntity
  8
00_COMPONENTS_1
100
AcDbCircle
 62
7
  6
CONTINUOUS
 10
706.0947452741
 20
239.4088017429
 40
18.0
100
AcDbArc
 50
247.1146195238
 51
292.8853804762
  0
ARC
  5
396
100
AcDbEntity
  8
00_COMPONENTS_1_1
100
AcDbCircle
 62
7
  6
CONTINUOUS
 10
706.0947452741
 20
239.4088017429
 40
16.0
100
AcDbArc
 50
157.975687163
 51
202.024312837
  0
ARC
  5
397
100
AcDbEntity
  8
00_COMPONENTS_1_1
100
AcDbCircle
 62
7
  6
CONTINUOUS
 10
706.0948864304
 20
239.4088017429
 40
14.5001099893
100
AcDbArc
 50
161.9201742694
 51
198.0798257307
  0
ARC
  5
398
100
AcDbEntity
  8
00_COMPONENTS_1_1
100
AcDbCircle
 62
7
  6
CONTINUOUS
 10
706.0947452741
 20
239.4088017429
 40
13.0
100
AcDbArc
 50
166.6576362029
 51
193.3423637971
  0
ARC
  5
399
100
AcDbEntity
  8
00_COMPONENTS_1_1
100
AcDbCircle
 62
7
  6
CONTINUOUS
 10
706.0947452741
 20
239.4088017429
 40
12.9
100
AcDbArc
 50
236.9133574742
 51
303.0799763802
  0
ARC
  5
39A
100
AcDbEntity
  8
00_COMPONENTS_1
100
AcDbCircle
 62
7
  6
CONTINUOUS
 10
706.0947452741
 20
239.4088017429
 40
10.5
100
AcDbArc
 50
311.8103148958
 51
144.9141907917
  0
ARC
  5
39B
100
AcDbEntity
  8
00_COMPONENTS_1
100
AcDbCircle
 62
7
  6
CONTINUOUS
 10
706.0947452741
 20
239.4088017429
 40
10.5
100
AcDbArc
 50
215.0706532767
 51
228.1896851042
  0
ARC
  5
39C
100
AcDbEntity
  8
00_COMPONENTS_1_1
100
AcDbCircle
 62
7
  6
CONTINUOUS
 10
706.0947452741
 20
239.4088017429
 40
9.5
100
AcDbArc
 50
219.1667107161
 51
140.8332892839
  0
ARC
  5
39D
100
AcDbEntity
  8
00_COMPONENTS_1_1
100
AcDbCircle
 62
7
  6
CONTINUOUS
 10
706.0947067753
 20
239.4088017429
 40
9.4999557173
100
AcDbArc
 50
161.5914309411
 51
198.4085690588
  0
ARC
  5
39E
100
AcDbEntity
  8
00_COMPONENTS_1_1
100
AcDbCircle
 62
7
  6
CONTINUOUS
 10
706.0947535559
 20
239.4087953451
 40
7.9999708907
100
AcDbArc
 50
214.2282164482
 51
145.7718218599
  0
CIRCLE
  5
39F
100
AcDbEntity
  8
00_COMPONENTS_1_1
100
AcDbCircle
 62
7
  6
CONTINUOUS
 10
706.0947452741
 20
239.4088017429
 40
7.9482849568
  0
CIRCLE
  5
3A0
100
AcDbEntity
  8
00_COMPONENTS_1_1
100
AcDbCircle
 62
7
  6
CONTINUOUS
 10
706.0947452741
 20
239.4088017429
 40
7.9150898701
  0
CIRCLE
  5
3A1
100
AcDbEntity
  8
00_COMPONENTS_1_1
100
AcDbCircle
 62
7
  6
CONTINUOUS
 10
706.0947452741
 20
239.4088017429
 40
7.851790137
  0
ARC
  5
3A2
100
AcDbEntity
  8
00_COMPONENTS_1_1
100
AcDbCircle
 62
7
  6
CONTINUOUS
 10
706.0947452741
 20
239.4088017429
 40
7.8103594806
100
AcDbArc
 50
11.8565327519
 51
168.1434672481
  0
ARC
  5
3A3
100
AcDbEntity
  8
00_COMPONENTS_1_1
100
AcDbCircle
 62
7
  6
CONTINUOUS
 10
706.0947452741
 20
239.4088017429
 40
7.8103594806
100
AcDbArc
 50
191.8565327519
 51
348.1434672481
  0
ARC
  5
3A4
100
AcDbEntity
  8
00_COMPONENTS_1_1
100
AcDbCircle
 62
7
  6
CONTINUOUS
 10
706.0947452741
 20
239.4088017429
 40
7.7504908971
100
AcDbArc
 50
191.6330989339
 51
348.3669010661
  0
CIRCLE
  5
3A5
100
AcDbEntity
  8
00_COMPONENTS_1_1
100
AcDbCircle
 62
7
  6
CONTINUOUS
 10
706.0947452741
 20
239.4088017429
 40
7.0
  0
CIRCLE
  5
3A6
100
AcDbEntity
  8
00_COMPONENTS_1_1
100
AcDbCircle
 62
7
  6
CONTINUOUS
 10
706.0947452741
 20
239.4088017429
 40
6.9
  0
CIRCLE
  5
3A7
100
AcDbEntity
  8
00_COMPONENTS_1_1
100
AcDbCircle
 62
7
  6
CONTINUOUS
 10
706.0947452741
 20
239.4088017429
 40
6.65
  0
ARC
  5
3A8
100
AcDbEntity
  8
00_COMPONENTS_1_1
100
AcDbCircle
 62
7
  6
CONTINUOUS
 10
706.0947452741
 20
239.4088017429
 40
6.5
100
AcDbArc
 50
13.3423637971
 51
166.6576362029
  0
ARC
  5
3A9
100
AcDbEntity
  8
00_COMPONENTS_1_1
100
AcDbCircle
 62
7
  6
CONTINUOUS
 10
706.0947452741
 20
239.4088017429
 40
6.5
100
AcDbArc
 50
193.3423637971
 51
346.6576362029
  0
ARC
  5
3AA
100
AcDbEntity
  8
00_COMPONENTS_1_1
100
AcDbCircle
 62
7
  6
CONTINUOUS
 10
706.0947452741
 20
239.4088017429
 40
4.8047303896
100
AcDbArc
 50
22.6554233351
 51
157.3432920004
  0
ARC
  5
3AB
100
AcDbEntity
  8
00_COMPONENTS_1_1
100
AcDbCircle
 62
7
  6
CONTINUOUS
 10
706.0947452741
 20
239.4088017429
 40
4.8047303896
100
AcDbArc
 50
202.6554233351
 51
337.3432920004
  0
ARC
  5
3AC
100
AcDbEntity
  8
00_COMPONENTS_1_1
100
AcDbCircle
 62
7
  6
CONTINUOUS
 10
706.0947452741
 20
239.4088017429
 40
4.7
100
AcDbArc
 50
21.8692257177
 51
158.1291644111
  0
ARC
  5
3AD
100
AcDbEntity
  8
00_COMPONENTS_1_1
100
AcDbCircle
 62
7
  6
CONTINUOUS
 10
706.0947452741
 20
239.4088017429
 40
4.7
100
AcDbArc
 50
201.8692257177
 51
338.1291644111
  0
ARC
  5
3AE
100
AcDbEntity
  8
00_COMPONENTS_1_1
100
AcDbCircle
 62
7
  6
CONTINUOUS
 10
706.0947452741
 20
239.4088017429
 40
4.625
100
AcDbArc
 50
314.1455715037
 51
346.8637411287
  0
ARC
  5
3AF
100
AcDbEntity
  8
00_COMPONENTS_1_1
100
AcDbCircle
 62
7
  6
CONTINUOUS
 10
706.0947452741
 20
239.4088017429
 40
4.625
100
AcDbArc
 50
193.1362588713
 51
225.8544284963
  0
ARC
  5
3B0
100
AcDbEntity
  8
00_COMPONENTS_1_1
100
AcDbCircle
 62
7
  6
CONTINUOUS
 10
706.0947452741
 20
239.4088017429
 40
4.425
100
AcDbArc
 50
194.1503785181
 51
224.8406330654
  0
ARC
  5
3B1
100
AcDbEntity
  8
00_COMPONENTS_1_1
100
AcDbCircle
 62
7
  6
CONTINUOUS
 10
706.0947452741
 20
239.4088017429
 40
4.425
100
AcDbArc
 50
315.1593669346
 51
345.8496214818
  0
ARC
  5
3B2
100
AcDbEntity
  8
00_COMPONENTS_1_1
100
AcDbCircle
 62
7
  6
CONTINUOUS
 10
706.0947452741
 20
239.4088017429
 40
4.3363248654
100
AcDbArc
 50
315.6332114155
 51
345.3764566262
  0
ARC
  5
3B3
100
AcDbEntity
  8
00_COMPONENTS_1_1
100
AcDbCircle
 62
7
  6
CONTINUOUS
 10
706.0947452741
 20
239.4088017429
 40
4.3363248654
100
AcDbArc
 50
194.6235433738
 51
224.3667885845
  0
ARC
  5
3B4
100
AcDbEntity
  8
00_COMPONENTS_1_1
100
AcDbCircle
 62
7
  6
CONTINUOUS
 10
706.0947452741
 20
239.4088017429
 40
4.225
100
AcDbArc
 50
195.2397298961
 51
223.7516170473
  0
ARC
  5
3B5
100
AcDbEntity
  8
00_COMPONENTS_1_1
100
AcDbCircle
 62
7
  6
CONTINUOUS
 10
706.0947452741
 20
239.4088017429
 40
4.225
100
AcDbArc
 50
316.2483829527
 51
344.7602701039
  0
ARC
  5
3B6
100
AcDbEntity
  8
00_COMPONENTS_1_1
100
AcDbCircle
 62
7
  6
CONTINUOUS
 10
706.0947452741
 20
239.4088017429
 40
4.1570508076
100
AcDbArc
 50
316.6379678258
 51
344.3713553106
  0
ARC
  5
3B7
100
AcDbEntity
  8
00_COMPONENTS_1_1
100
AcDbCircle
 62
7
  6
CONTINUOUS
 10
706.0947452741
 20
239.4088017429
 40
4.1570508076
100
AcDbArc
 50
195.6286446894
 51
223.3620321742
  0
ARC
  5
3B8
100
AcDbEntity
  8
00_COMPONENTS_1_1
100
AcDbCircle
 62
7
  6
CONTINUOUS
 10
706.0947452741
 20
239.4088017429
 40
3.975
100
AcDbArc
 50
198.6713413537
 51
220.3209850097
  0
ARC
  5
3B9
100
AcDbEntity
  8
00_COMPONENTS_1_1
100
AcDbCircle
 62
7
  6
CONTINUOUS
 10
706.0947452741
 20
239.4088017429
 40
3.975
100
AcDbArc
 50
319.6790149903
 51
341.3286586463
  0
ARC
  5
3BA
100
AcDbEntity
  8
00_COMPONENTS_1_1
100
AcDbCircle
 62
7
  6
CONTINUOUS
 10
706.0947452741
 20
239.4088017429
 40
3.925
100
AcDbArc
 50
318.0449126042
 51
342.9632139133
  0
ARC
  5
3BB
100
AcDbEntity
  8
00_COMPONENTS_1_1
100
AcDbCircle
 62
7
  6
CONTINUOUS
 10
706.0947452741
 20
239.4088017429
 40
3.925
100
AcDbArc
 50
197.0367860867
 51
221.9550873958
  0
CIRCLE
  5
3BC
100
AcDbEntity
  8
00_COMPONENTS_1_1
100
AcDbCircle
 62
7
  6
CONTINUOUS
 10
706.0947452741
 20
239.4088017429
 40
3.55
  0
CIRCLE
  5
3BD
100
AcDbEntity
  8
00_COMPONENTS_1_1
100
AcDbCircle
 62
7
  6
CONTINUOUS
 10
706.0947452741
 20
239.4088017429
 40
3.05
  0
CIRCLE
  5
3BE
100
AcDbEntity
  8
00_COMPONENTS_1_1
100
AcDbCircle
 62
7
  6
CONTINUOUS
 10
706.0947452741
 20
239.4088017429
 40
2.5
  0
CIRCLE
  5
3BF
100
AcDbEntity
  8
00_COMPONENTS_1_1
100
AcDbCircle
 62
7
  6
CONTINUOUS
 10
706.0947452741
 20
239.4088017429
 40
2.3
  0
CIRCLE
  5
3C0
100
AcDbEntity
  8
00_COMPONENTS_1_1
100
AcDbCircle
 62
7
  6
CONTINUOUS
 10
706.0947452741
 20
239.4088017429
 40
1.5
  0
CIRCLE
  5
3C1
100
AcDbEntity
  8
00_COMPONENTS_1_1
100
AcDbCircle
 62
7
  6
CONTINUOUS
 10
706.0947452741
 20
239.4088017429
 40
1.3952696104
  0
ARC
  5
3C2
100
AcDbEntity
  8
00_COMPONENTS_1_1
100
AcDbCircle
 62
7
  6
CONTINUOUS
 10
705.1222398144
 20
262.1669392957
 40
24.069725375
100
AcDbArc
 50
261.5632048391
 51
262.3039950163
  0
ARC
  5
3C3
100
AcDbEntity
  8
00_COMPONENTS_1_1
100
AcDbCircle
 62
7
  6
CONTINUOUS
 10
704.8851909287
 20
260.4375223592
 40
22.3241428101
100
AcDbArc
 50
262.0667102926
 51
262.8107494457
  0
ARC
  5
3C4
100
AcDbEntity
  8
00_COMPONENTS_1_1
100
AcDbCircle
 62
7
  6
CONTINUOUS
 10
700.465389615
 20
254.1508578896
 40
21.05687872
100
AcDbArc
 50
309.0755244969
 51
309.2483727957
  0
ARC
  5
3C5
100
AcDbEntity
  8
00_COMPONENTS_1_1
100
AcDbCircle
 62
7
  6
CONTINUOUS
 10
704.7047427846
 20
259.0203997099
 40
20.8955828658
100
AcDbArc
 50
262.6133704783
 51
263.507421942
  0
ARC
  5
3C6
100
AcDbEntity
  8
00_COMPONENTS_1_1
100
AcDbCircle
 62
7
  6
CONTINUOUS
 10
725.1618318648
 20
226.8264137431
 40
24.1367765496
100
AcDbArc
 50
156.692185354
 51
157.4309422547
  0
ARC
  5
3C7
100
AcDbEntity
  8
00_COMPONENTS_1_1
100
AcDbCircle
 62
7
  6
CONTINUOUS
 10
723.7732361451
 20
227.4199361942
 40
22.6266199745
100
AcDbArc
 50
156.1896377476
 51
156.9237545198
  0
ARC
  5
3C8
100
AcDbEntity
  8
00_COMPONENTS_1_1
100
AcDbCircle
 62
7
  6
CONTINUOUS
 10
711.7256251215
 20
224.6649657656
 40
21.0592211938
100
AcDbArc
 50
129.0756913991
 51
129.2561563613
  0
ARC
  5
3C9
100
AcDbEntity
  8
00_COMPONENTS_1_1
100
AcDbCircle
 62
7
  6
CONTINUOUS
 10
722.2307584037
 20
228.0965533991
 40
20.9422317738
100
AcDbArc
 50
155.489048075
 51
156.3811373152
  0
ARC
  5
3CA
100
AcDbEntity
  8
00_COMPONENTS_1_1
100
AcDbCircle
 62
7
  6
CONTINUOUS
 10
707.0915895919
 20
261.9952009737
 40
23.8962724921
100
AcDbArc
 50
277.6933146971
 51
278.439482056
  0
ARC
  5
3CB
100
AcDbEntity
  8
00_COMPONENTS_1_1
100
AcDbCircle
 62
7
  6
CONTINUOUS
 10
707.2638154241
 20
260.7425113414
 40
22.631803439
100
AcDbArc
 50
277.1943100094
 51
277.9282344308
  0
ARC
  5
3CC
100
AcDbEntity
  8
00_COMPONENTS_1_1
100
AcDbCircle
 62
7
  6
CONTINUOUS
 10
711.724655572
 20
254.1515390042
 40
21.0577570936
100
AcDbArc
 50
230.7516310455
 51
230.9244721343
  0
ARC
  5
3CD
100
AcDbEntity
  8
00_COMPONENTS_1_1
100
AcDbCircle
 62
7
  6
CONTINUOUS
 10
707.5082930697
 20
258.8269499859
 40
20.7007083185
100
AcDbArc
 50
276.4883662483
 51
277.3908344518
  0
CIRCLE
  5
3CE
100
AcDbEntity
  8
00_COMPONENTS_1
100
AcDbCircle
 62
7
  6
CONTINUOUS
 10
628.0947452741
 20
951.9088017429
 40
7.935
  0
CIRCLE
  5
3CF
100
AcDbEntity
  8
00_COMPONENTS_1
100
AcDbCircle
 62
7
  6
CONTINUOUS
 10
628.0947452741
 20
951.9088017429
 40
7.4975566824
  0
CIRCLE
  5
3D0
100
AcDbEntity
  8
00_COMPONENTS_1
100
AcDbCircle
 62
7
  6
CONTINUOUS
 10
670.5947452741
 20
941.9088017429
 40
5.5
  0
CIRCLE
  5
3D1
100
AcDbEntity
  8
00_COMPONENTS_1
100
AcDbCircle
 62
7
  6
CONTINUOUS
 10
628.0947452741
 20
951.9088017429
 40
4.1
  0
ARC
  5
3D2
100
AcDbEntity
  8
00_COMPONENTS_1_1
100
AcDbCircle
 62
7
  6
CONTINUOUS
 10
687.3201607513
 20
876.9502023827
 40
23.8191624339
100
AcDbArc
 50
22.5641356647
 51
23.3127435861
  0
ARC
  5
3D3
100
AcDbEntity
  8
00_COMPONENTS_1_1
100
AcDbCircle
 62
7
  6
CONTINUOUS
 10
688.6977428615
 20
877.541999865
 40
22.3198087641
100
AcDbArc
 50
23.0712022677
 51
23.8154104499
  0
ARC
  5
3D4
100
AcDbEntity
  8
00_COMPONENTS_1_1
100
AcDbCircle
 62
7
  6
CONTINUOUS
 10
690.0047900959
 20
878.1171583098
 40
20.8917760028
100
AcDbArc
 50
23.6176951722
 51
24.5119389336
  0
ARC
  5
3D5
100
AcDbEntity
  8
00_COMPONENTS_1_1
100
AcDbCircle
 62
7
  6
CONTINUOUS
 10
700.4632767786
 20
874.6642431292
 40
21.0601532393
100
AcDbArc
 50
50.7438476413
 51
50.9243046168
  0
ARC
  5
3D6
100
AcDbEntity
  8
00_COMPONENTS_1
100
AcDbCircle
 62
7
  6
CONTINUOUS
 10
706.0947452741
 20
889.4088017429
 40
18.0
100
AcDbArc
 50
247.1146195238
 51
292.8853804762
  0
ARC
  5
3D7
100
AcDbEntity
  8
00_COMPONENTS_1_1
100
AcDbCircle
 62
7
  6
CONTINUOUS
 10
706.0947452741
 20
889.4088017429
 40
16.0
100
AcDbArc
 50
157.975687163
 51
202.024312837
  0
ARC
  5
3D8
100
AcDbEntity
  8
00_COMPONENTS_1_1
100
AcDbCircle
 62
7
  6
CONTINUOUS
 10
706.0948864304
 20
889.4088017429
 40
14.5001099893
100
AcDbArc
 50
161.9201742694
 51
198.0798257307
  0
ARC
  5
3D9
100
AcDbEntity
  8
00_COMPONENTS_1_1
100
AcDbCircle
 62
7
  6
CONTINUOUS
 10
706.0947452741
 20
889.4088017429
 40
13.0
100
AcDbArc
 50
166.6576362029
 51
193.3423637971
  0
ARC
  5
3DA
100
AcDbEntity
  8
00_COMPONENTS_1_1
100
AcDbCircle
 62
7
  6
CONTINUOUS
 10
706.0947452741
 20
889.4088017429
 40
12.9
100
AcDbArc
 50
236.9133574742
 51
303.0799763802
  0
ARC
  5
3DB
100
AcDbEntity
  8
00_COMPONENTS_1
100
AcDbCircle
 62
7
  6
CONTINUOUS
 10
706.0947452741
 20
889.4088017429
 40
10.5
100
AcDbArc
 50
215.0706532767
 51
228.1896851042
  0
ARC
  5
3DC
100
AcDbEntity
  8
00_COMPONENTS_1
100
AcDbCircle
 62
7
  6
CONTINUOUS
 10
706.0947452741
 20
889.4088017429
 40
10.5
100
AcDbArc
 50
311.8103148958
 51
144.9141907917
  0
ARC
  5
3DD
100
AcDbEntity
  8
00_COMPONENTS_1_1
100
AcDbCircle
 62
7
  6
CONTINUOUS
 10
706.0947452741
 20
889.4088017429
 40
9.5
100
AcDbArc
 50
219.1667107161
 51
140.8332892839
  0
ARC
  5
3DE
100
AcDbEntity
  8
00_COMPONENTS_1_1
100
AcDbCircle
 62
7
  6
CONTINUOUS
 10
706.0947067753
 20
889.4088017429
 40
9.4999557173
100
AcDbArc
 50
161.5914309411
 51
198.4085690588
  0
ARC
  5
3DF
100
AcDbEntity
  8
00_COMPONENTS_1_1
100
AcDbCircle
 62
7
  6
CONTINUOUS
 10
706.094753556
 20
889.4087953451
 40
7.9999708906
100
AcDbArc
 50
214.2282164482
 51
145.7718218602
  0
CIRCLE
  5
3E0
100
AcDbEntity
  8
00_COMPONENTS_1_1
100
AcDbCircle
 62
7
  6
CONTINUOUS
 10
706.0947452741
 20
889.4088017429
 40
7.9482849568
  0
CIRCLE
  5
3E1
100
AcDbEntity
  8
00_COMPONENTS_1_1
100
AcDbCircle
 62
7
  6
CONTINUOUS
 10
706.0947452741
 20
889.4088017429
 40
7.9150898701
  0
CIRCLE
  5
3E2
100
AcDbEntity
  8
00_COMPONENTS_1_1
100
AcDbCircle
 62
7
  6
CONTINUOUS
 10
706.0947452741
 20
889.4088017429
 40
7.851790137
  0
ARC
  5
3E3
100
AcDbEntity
  8
00_COMPONENTS_1_1
100
AcDbCircle
 62
7
  6
CONTINUOUS
 10
706.0947452741
 20
889.4088017429
 40
7.8103594806
100
AcDbArc
 50
11.8565327519
 51
168.1434672481
  0
ARC
  5
3E4
100
AcDbEntity
  8
00_COMPONENTS_1_1
100
AcDbCircle
 62
7
  6
CONTINUOUS
 10
706.0947452741
 20
889.4088017429
 40
7.8103594806
100
AcDbArc
 50
191.8565327519
 51
348.1434672481
  0
ARC
  5
3E5
100
AcDbEntity
  8
00_COMPONENTS_1_1
100
AcDbCircle
 62
7
  6
CONTINUOUS
 10
706.0947452741
 20
889.4088017429
 40
7.7504908971
100
AcDbArc
 50
191.6330989339
 51
348.3669010661
  0
CIRCLE
  5
3E6
100
AcDbEntity
  8
00_COMPONENTS_1_1
100
AcDbCircle
 62
7
  6
CONTINUOUS
 10
706.0947452741
 20
889.4088017429
 40
7.0
  0
CIRCLE
  5
3E7
100
AcDbEntity
  8
00_COMPONENTS_1_1
100
AcDbCircle
 62
7
  6
CONTINUOUS
 10
706.0947452741
 20
889.4088017429
 40
6.9
  0
CIRCLE
  5
3E8
100
AcDbEntity
  8
00_COMPONENTS_1_1
100
AcDbCircle
 62
7
  6
CONTINUOUS
 10
706.0947452741
 20
889.4088017429
 40
6.65
  0
ARC
  5
3E9
100
AcDbEntity
  8
00_COMPONENTS_1_1
100
AcDbCircle
 62
7
  6
CONTINUOUS
 10
706.0947452741
 20
889.4088017429
 40
6.5
100
AcDbArc
 50
13.3423637971
 51
166.6576362029
  0
ARC
  5
3EA
100
AcDbEntity
  8
00_COMPONENTS_1_1
100
AcDbCircle
 62
7
  6
CONTINUOUS
 10
706.0947452741
 20
889.4088017429
 40
6.5
100
AcDbArc
 50
193.3423637971
 51
346.6576362029
  0
ARC
  5
3EB
100
AcDbEntity
  8
00_COMPONENTS_1_1
100
AcDbCircle
 62
7
  6
CONTINUOUS
 10
706.0947452741
 20
889.4088017429
 40
4.8047303896
100
AcDbArc
 50
22.6554233351
 51
157.3432920004
  0
ARC
  5
3EC
100
AcDbEntity
  8
00_COMPONENTS_1_1
100
AcDbCircle
 62
7
  6
CONTINUOUS
 10
706.0947452741
 20
889.4088017429
 40
4.8047303896
100
AcDbArc
 50
202.6554233351
 51
337.3432920004
  0
ARC
  5
3ED
100
AcDbEntity
  8
00_COMPONENTS_1_1
100
AcDbCircle
 62
7
  6
CONTINUOUS
 10
706.0947452741
 20
889.4088017429
 40
4.7
100
AcDbArc
 50
21.8692257177
 51
158.1291644111
  0
ARC
  5
3EE
100
AcDbEntity
  8
00_COMPONENTS_1_1
100
AcDbCircle
 62
7
  6
CONTINUOUS
 10
706.0947452741
 20
889.4088017429
 40
4.7
100
AcDbArc
 50
201.8692257177
 51
338.1291644111
  0
ARC
  5
3EF
100
AcDbEntity
  8
00_COMPONENTS_1_1
100
AcDbCircle
 62
7
  6
CONTINUOUS
 10
706.0947452741
 20
889.4088017429
 40
4.625
100
AcDbArc
 50
314.1455715037
 51
346.8637411287
  0
ARC
  5
3F0
100
AcDbEntity
  8
00_COMPONENTS_1_1
100
AcDbCircle
 62
7
  6
CONTINUOUS
 10
706.0947452741
 20
889.4088017429
 40
4.625
100
AcDbArc
 50
193.1362588713
 51
225.8544284963
  0
ARC
  5
3F1
100
AcDbEntity
  8
00_COMPONENTS_1_1
100
AcDbCircle
 62
7
  6
CONTINUOUS
 10
706.0947452741
 20
889.4088017429
 40
4.425
100
AcDbArc
 50
194.1503785181
 51
224.8406330654
  0
ARC
  5
3F2
100
AcDbEntity
  8
00_COMPONENTS_1_1
100
AcDbCircle
 62
7
  6
CONTINUOUS
 10
706.0947452741
 20
889.4088017429
 40
4.425
100
AcDbArc
 50
315.1593669346
 51
345.8496214818
  0
ARC
  5
3F3
100
AcDbEntity
  8
00_COMPONENTS_1_1
100
AcDbCircle
 62
7
  6
CONTINUOUS
 10
706.0947452741
 20
889.4088017429
 40
4.3363248654
100
AcDbArc
 50
315.6332114155
 51
345.3764566262
  0
ARC
  5
3F4
100
AcDbEntity
  8
00_COMPONENTS_1_1
100
AcDbCircle
 62
7
  6
CONTINUOUS
 10
706.0947452741
 20
889.4088017429
 40
4.3363248654
100
AcDbArc
 50
194.6235433738
 51
224.3667885845
  0
ARC
  5
3F5
100
AcDbEntity
  8
00_COMPONENTS_1_1
100
AcDbCircle
 62
7
  6
CONTINUOUS
 10
706.0947452741
 20
889.4088017429
 40
4.225
100
AcDbArc
 50
195.2397298961
 51
223.7516170473
  0
ARC
  5
3F6
100
AcDbEntity
  8
00_COMPONENTS_1_1
100
AcDbCircle
 62
7
  6
CONTINUOUS
 10
706.0947452741
 20
889.4088017429
 40
4.225
100
AcDbArc
 50
316.2483829527
 51
344.7602701039
  0
ARC
  5
3F7
100
AcDbEntity
  8
00_COMPONENTS_1_1
100
AcDbCircle
 62
7
  6
CONTINUOUS
 10
706.0947452741
 20
889.4088017429
 40
4.1570508076
100
AcDbArc
 50
316.6379678258
 51
344.3713553106
  0
ARC
  5
3F8
100
AcDbEntity
  8
00_COMPONENTS_1_1
100
AcDbCircle
 62
7
  6
CONTINUOUS
 10
706.0947452741
 20
889.4088017429
 40
4.1570508076
100
AcDbArc
 50
195.6286446894
 51
223.3620321742
  0
ARC
  5
3F9
100
AcDbEntity
  8
00_COMPONENTS_1_1
100
AcDbCircle
 62
7
  6
CONTINUOUS
 10
706.0947452741
 20
889.4088017429
 40
3.975
100
AcDbArc
 50
198.6713413537
 51
220.3209850097
  0
ARC
  5
3FA
100
AcDbEntity
  8
00_COMPONENTS_1_1
100
AcDbCircle
 62
7
  6
CONTINUOUS
 10
706.0947452741
 20
889.4088017429
 40
3.975
100
AcDbArc
 50
319.6790149903
 51
341.3286586463
  0
ARC
  5
3FB
100
AcDbEntity
  8
00_COMPONENTS_1_1
100
AcDbCircle
 62
7
  6
CONTINUOUS
 10
706.0947452741
 20
889.4088017429
 40
3.925
100
AcDbArc
 50
318.0449126042
 51
342.9632139133
  0
ARC
  5
3FC
100
AcDbEntity
  8
00_COMPONENTS_1_1
100
AcDbCircle
 62
7
  6
CONTINUOUS
 10
706.0947452741
 20
889.4088017429
 40
3.925
100
AcDbArc
 50
197.0367860867
 51
221.9550873958
  0
CIRCLE
  5
3FD
100
AcDbEntity
  8
00_COMPONENTS_1_1
100
AcDbCircle
 62
7
  6
CONTINUOUS
 10
706.0947452741
 20
889.4088017429
 40
3.55
  0
CIRCLE
  5
3FE
100
AcDbEntity
  8
00_COMPONENTS_1_1
100
AcDbCircle
 62
7
  6
CONTINUOUS
 10
706.0947452741
 20
889.4088017429
 40
3.05
  0
CIRCLE
  5
3FF
100
AcDbEntity
  8
00_COMPONENTS_1_1
100
AcDbCircle
 62
7
  6
CONTINUOUS
 10
706.0947452741
 20
889.4088017429
 40
2.5
  0
CIRCLE
  5
400
100
AcDbEntity
  8
00_COMPONENTS_1_1
100
AcDbCircle
 62
7
  6
CONTINUOUS
 10
706.0947452741
 20
889.4088017429
 40
2.3
  0
CIRCLE
  5
401
100
AcDbEntity
  8
00_COMPONENTS_1_1
100
AcDbCircle
 62
7
  6
CONTINUOUS
 10
706.0947452741
 20
889.4088017429
 40
1.5
  0
CIRCLE
  5
402
100
AcDbEntity
  8
00_COMPONENTS_1_1
100
AcDbCircle
 62
7
  6
CONTINUOUS
 10
706.0947452741
 20
889.4088017429
 40
1.3952696104
  0
ARC
  5
403
100
AcDbEntity
  8
00_COMPONENTS_1_1
100
AcDbCircle
 62
7
  6
CONTINUOUS
 10
705.1222398142
 20
912.1669392943
 40
24.0697253736
100
AcDbArc
 50
261.5632048391
 51
262.3039950164
  0
ARC
  5
404
100
AcDbEntity
  8
00_COMPONENTS_1_1
100
AcDbCircle
 62
7
  6
CONTINUOUS
 10
704.8851909281
 20
910.4375223552
 40
22.3241428061
100
AcDbArc
 50
262.0667102925
 51
262.8107494458
  0
ARC
  5
405
100
AcDbEntity
  8
00_COMPONENTS_1_1
100
AcDbCircle
 62
7
  6
CONTINUOUS
 10
700.4653895965
 20
904.1508579124
 40
21.0568787492
100
AcDbArc
 50
309.0755244969
 51
309.2483727955
  0
ARC
  5
406
100
AcDbEntity
  8
00_COMPONENTS_1_1
100
AcDbCircle
 62
7
  6
CONTINUOUS
 10
704.7047427848
 20
909.0203997117
 40
20.8955828677
100
AcDbArc
 50
262.6133704783
 51
263.507421942
  0
ARC
  5
407
100
AcDbEntity
  8
00_COMPONENTS_1_1
100
AcDbCircle
 62
7
  6
CONTINUOUS
 10
725.1618318656
 20
876.8264137427
 40
24.1367765504
100
AcDbArc
 50
156.692185354
 51
157.4309422546
  0
ARC
  5
408
100
AcDbEntity
  8
00_COMPONENTS_1_1
100
AcDbCircle
 62
7
  6
CONTINUOUS
 10
723.7732361451
 20
877.4199361942
 40
22.6266199745
100
AcDbArc
 50
156.1896377476
 51
156.9237545198
  0
ARC
  5
409
100
AcDbEntity
  8
00_COMPONENTS_1_1
100
AcDbCircle
 62
7
  6
CONTINUOUS
 10
711.7256250819
 20
874.6649658142
 40
21.0592211312
100
AcDbArc
 50
129.0756913988
 51
129.2561563616
  0
ARC
  5
40A
100
AcDbEntity
  8
00_COMPONENTS_1_1
100
AcDbCircle
 62
7
  6
CONTINUOUS
 10
722.2307584015
 20
878.0965534001
 40
20.9422317715
100
AcDbArc
 50
155.4890480749
 51
156.3811373152
  0
ARC
  5
40B
100
AcDbEntity
  8
00_COMPONENTS_1_1
100
AcDbCircle
 62
7
  6
CONTINUOUS
 10
707.0915895913
 20
911.9952009784
 40
23.8962724967
100
AcDbArc
 50
277.6933146971
 51
278.4394820559
  0
ARC
  5
40C
100
AcDbEntity
  8
00_COMPONENTS_1_1
100
AcDbCircle
 62
7
  6
CONTINUOUS
 10
707.2638154249
 20
910.7425113353
 40
22.6318034327
100
AcDbArc
 50
277.1943100093
 51
277.9282344309
  0
ARC
  5
40D
100
AcDbEntity
  8
00_COMPONENTS_1_1
100
AcDbCircle
 62
7
  6
CONTINUOUS
 10
711.7246556274
 20
904.1515390723
 40
21.0577571815
100
AcDbArc
 50
230.751631046
 51
230.924472134
  0
ARC
  5
40E
100
AcDbEntity
  8
00_COMPONENTS_1_1
100
AcDbCircle
 62
7
  6
CONTINUOUS
 10
707.5082930702
 20
908.8269499823
 40
20.7007083149
100
AcDbArc
 50
276.4883662482
 51
277.3908344519
  0
SPLINE
  5
40F
100
AcDbEntity
  8
00_COMPONENTS_1_1
100
AcDbSpline
 62
7
  6
CONTINUOUS
 70
0
 71
3
 72
9
 73
5
 74
0
 42
0.0000001
 43
0.0000001
 44
0.0000000001
 40
0.0
 40
0.0
 40
0.0
 40
0.0
 40
0.5
 40
1.0
 40
1.0
 40
1.0
 40
1.0
 10
698.6785609079
 20
886.4088017429
 30
0.0
 10
698.2965233182
 20
887.3532142337
 30
0.0
 10
697.8930214256
 20
889.4088017433
 30
0.0
 10
698.29652332
 20
891.4643892514
 30
0.0
 10
698.6785609078
 20
892.4088017429
 30
0.0
  0
SPLINE
  5
410
100
AcDbEntity
  8
00_COMPONENTS_1_1
100
AcDbSpline
 62
7
  6
CONTINUOUS
 70
0
 71
3
 72
9
 73
5
 74
0
 42
0.0000001
 43
0.0000001
 44
0.0000000001
 40
0.0
 40
0.0
 40
0.0
 40
0.0
 40
0.5
 40
1.0
 40
1.0
 40
1.0
 40
1.0
 10
698.6785609079
 20
236.4088017429
 30
0.0
 10
698.2965233182
 20
237.3532142337
 30
0.0
 10
697.8930214256
 20
239.4088017433
 30
0.0
 10
698.29652332
 20
241.4643892514
 30
0.0
 10
698.6785609078
 20
242.4088017429
 30
0.0
  0
SPLINE
  5
411
100
AcDbEntity
  8
00_COMPONENTS_1
100
AcDbSpline
 62
7
  6
CONTINUOUS
 70
0
 71
3
 72
13
 73
9
 74
0
 42
0.0000001
 43
0.0000001
 44
0.0000000001
 40
0.0
 40
0.0
 40
0.0
 40
0.0
 40
0.0194164505
 40
0.0764848299
 40
0.1688104884
 40
0.2929842446
 40
0.6175081973
 40
1.0
 40
1.0
 40
1.0
 40
1.0
 10
100.4644809887
 20
914.9270419509
 30
0.0
 10
100.4644809886
 20
914.9435522954
 30
0.0
 10
100.361543342
 20
914.9238251083
 30
0.0
 10
100.2541849074
 20
914.9551528237
 30
0.0
 10
100.0019985032
 20
914.9489205284
 30
0.0
 10
99.5530393353
 20
914.9656821278
 30
0.0
 10
98.8388628506
 20
914.9679760898
 30
0.0
 10
98.240007087
 20
914.9715524399
 30
0.0
 10
97.9147637366
 20
914.9715524399
 30
0.0
  0
SPLINE
  5
412
100
AcDbEntity
  8
00_COMPONENTS_1
100
AcDbSpline
 62
7
  6
CONTINUOUS
 70
0
 71
3
 72
13
 73
9
 74
0
 42
0.0000001
 43
0.0000001
 44
0.0000000001
 40
0.0
 40
0.0
 40
0.0
 40
0.0
 40
0.0194179304
 40
0.0765073822
 40
0.168874551
 40
0.2930794378
 40
0.6175858903
 40
1.0
 40
1.0
 40
1.0
 40
1.0
 10
100.464519281
 20
870.8905615349
 30
0.0
 10
100.4645193076
 20
870.8740496834
 30
0.0
 10
100.3615520663
 20
870.893777548
 30
0.0
 10
100.254152463
 20
870.8624421339
 30
0.0
 10
100.0018737234
 20
870.8686784085
 30
0.0
 10
99.5528624052
 20
870.8519163785
 30
0.0
 10
98.8387306724
 20
870.8496224889
 30
0.0
 10
98.2399461388
 20
870.8460510453
 30
0.0
 10
97.9147639547
 20
870.8460510453
 30
0.0
  0
SPLINE
  5
413
100
AcDbEntity
  8
00_COMPONENTS_1
100
AcDbSpline
 62
7
  6
CONTINUOUS
 70
0
 71
3
 72
13
 73
9
 74
0
 42
0.0000001
 43
0.0000001
 44
0.0000000001
 40
0.0
 40
0.0
 40
0.0
 40
0.0
 40
0.0194179304
 40
0.0765073822
 40
0.168874551
 40
0.2930794378
 40
0.6175858903
 40
1.0
 40
1.0
 40
1.0
 40
1.0
 10
100.464519281
 20
213.8905615349
 30
0.0
 10
100.4645193076
 20
213.8740496834
 30
0.0
 10
100.3615520663
 20
213.893777548
 30
0.0
 10
100.254152463
 20
213.8624421339
 30
0.0
 10
100.0018737234
 20
213.8686784085
 30
0.0
 10
99.5528624052
 20
213.8519163785
 30
0.0
 10
98.8387306724
 20
213.8496224889
 30
0.0
 10
98.2399461388
 20
213.8460510453
 30
0.0
 10
97.9147639547
 20
213.8460510453
 30
0.0
  0
SPLINE
  5
414
100
AcDbEntity
  8
00_COMPONENTS_1
100
AcDbSpline
 62
7
  6
CONTINUOUS
 70
0
 71
3
 72
13
 73
9
 74
0
 42
0.0000001
 43
0.0000001
 44
0.0000000001
 40
0.0
 40
0.0
 40
0.0
 40
0.0
 40
0.0194164505
 40
0.0764848299
 40
0.1688104884
 40
0.2929842446
 40
0.6175081973
 40
1.0
 40
1.0
 40
1.0
 40
1.0
 10
100.4644809887
 20
257.9270419509
 30
0.0
 10
100.4644809886
 20
257.9435522954
 30
0.0
 10
100.361543342
 20
257.9238251083
 30
0.0
 10
100.2541849074
 20
257.9551528237
 30
0.0
 10
100.0019985032
 20
257.9489205284
 30
0.0
 10
99.5530393353
 20
257.9656821278
 30
0.0
 10
98.8388628506
 20
257.9679760898
 30
0.0
 10
98.240007087
 20
257.9715524399
 30
0.0
 10
97.9147637366
 20
257.9715524399
 30
0.0
  0
SPLINE
  5
415
100
AcDbEntity
  8
00_COMPONENTS_1
100
AcDbSpline
 62
7
  6
CONTINUOUS
 70
0
 71
3
 72
9
 73
5
 74
0
 42
0.0000001
 43
0.0000001
 44
0.0000000001
 40
0.0
 40
0.0
 40
0.0
 40
0.0
 40
0.3374032662
 40
1.0
 40
1.0
 40
1.0
 40
1.0
 10
97.9147637366
 20
257.9715524399
 30
0.0
 10
97.6355341771
 20
257.9715524399
 30
0.0
 10
96.8082627103
 20
257.9644004478
 30
0.0
 10
95.9791706647
 20
257.9778533704
 30
0.0
 10
95.4323236443
 20
257.9372211553
 30
0.0
  0
SPLINE
  5
416
100
AcDbEntity
  8
00_COMPONENTS_1
100
AcDbSpline
 62
7
  6
CONTINUOUS
 70
0
 71
3
 72
9
 73
5
 74
0
 42
0.0000001
 43
0.0000001
 44
0.0000000001
 40
0.0
 40
0.0
 40
0.0
 40
0.0
 40
0.3374013611
 40
1.0
 40
1.0
 40
1.0
 40
1.0
 10
97.9147639547
 20
213.8460510453
 30
0.0
 10
97.6355359448
 20
213.8460510453
 30
0.0
 10
96.8082643807
 20
213.8531998046
 30
0.0
 10
95.9791722902
 20
213.8397499947
 30
0.0
 10
95.4323236443
 20
213.8803823305
 30
0.0
  0
SPLINE
  5
417
100
AcDbEntity
  8
00_COMPONENTS_1
100
AcDbSpline
 62
7
  6
CONTINUOUS
 70
0
 71
3
 72
9
 73
5
 74
0
 42
0.0000001
 43
0.0000001
 44
0.0000000001
 40
0.0
 40
0.0
 40
0.0
 40
0.0
 40
0.3374032662
 40
1.0
 40
1.0
 40
1.0
 40
1.0
 10
97.9147637366
 20
914.9715524399
 30
0.0
 10
97.6355341771
 20
914.9715524399
 30
0.0
 10
96.8082627103
 20
914.9644004478
 30
0.0
 10
95.9791706647
 20
914.9778533704
 30
0.0
 10
95.4323236443
 20
914.9372211553
 30
0.0
  0
SPLINE
  5
418
100
AcDbEntity
  8
00_COMPONENTS_1
100
AcDbSpline
 62
7
  6
CONTINUOUS
 70
0
 71
3
 72
9
 73
5
 74
0
 42
0.0000001
 43
0.0000001
 44
0.0000000001
 40
0.0
 40
0.0
 40
0.0
 40
0.0
 40
0.3374013611
 40
1.0
 40
1.0
 40
1.0
 40
1.0
 10
97.9147639547
 20
870.8460510453
 30
0.0
 10
97.6355359448
 20
870.8460510453
 30
0.0
 10
96.8082643807
 20
870.8531998046
 30
0.0
 10
95.9791722902
 20
870.8397499947
 30
0.0
 10
95.4323236443
 20
870.8803823305
 30
0.0
  0
SPLINE
  5
419
100
AcDbEntity
  8
00_COMPONENTS_1
100
AcDbSpline
 62
7
  6
CONTINUOUS
 70
0
 71
3
 72
13
 73
9
 74
0
 42
0.0000001
 43
0.0000001
 44
0.0000000001
 40
0.0
 40
0.0
 40
0.0
 40
0.0
 40
0.3824918073
 40
0.707015759
 40
0.8311895138
 40
0.9235151712
 40
0.9805835498
 40
1.0
 40
1.0
 40
1.0
 40
1.0
 10
97.9147638585
 20
914.8825314624
 30
0.0
 10
98.2400071972
 20
914.8825314624
 30
0.0
 10
98.8388629353
 20
914.8861078125
 30
0.0
 10
99.5530393879
 20
914.8884017749
 30
0.0
 10
100.0019985312
 20
914.9051633738
 30
0.0
 10
100.2541849204
 20
914.8989310794
 30
0.0
 10
100.3615433483
 20
914.9302587927
 30
0.0
 10
100.4644809887
 20
914.9105316075
 30
0.0
 10
100.4644809887
 20
914.9270419509
 30
0.0
  0
SPLINE
  5
41A
100
AcDbEntity
  8
00_COMPONENTS_1
100
AcDbSpline
 62
7
  6
CONTINUOUS
 70
0
 71
3
 72
9
 73
5
 74
0
 42
0.0000001
 43
0.0000001
 44
0.0000000001
 40
0.0
 40
0.0
 40
0.0
 40
0.0
 40
0.1365557766
 40
1.0
 40
1.0
 40
1.0
 40
1.0
 10
95.4428793831
 20
914.9161080696
 30
0.0
 10
95.5551465283
 20
914.9083751024
 30
0.0
 10
96.3792356699
 20
914.8863812115
 30
0.0
 10
97.2032150402
 20
914.8825314624
 30
0.0
 10
97.9147638585
 20
914.8825314624
 30
0.0
  0
SPLINE
  5
41B
100
AcDbEntity
  8
00_COMPONENTS_1
100
AcDbSpline
 62
7
  6
CONTINUOUS
 70
0
 71
3
 72
9
 73
5
 74
0
 42
0.0000001
 43
0.0000001
 44
0.0000000001
 40
0.0
 40
0.0
 40
0.0
 40
0.0
 40
0.1365347437
 40
1.0
 40
1.0
 40
1.0
 40
1.0
 10
95.4428793831
 20
870.9014954163
 30
0.0
 10
95.5551292484
 20
870.9092271932
 30
0.0
 10
96.37921813
 20
870.9312296391
 30
0.0
 10
97.2031978545
 20
870.9350720241
 30
0.0
 10
97.914764081
 20
870.9350720241
 30
0.0
  0
SPLINE
  5
41C
100
AcDbEntity
  8
00_COMPONENTS_1
100
AcDbSpline
 62
7
  6
CONTINUOUS
 70
0
 71
3
 72
13
 73
9
 74
0
 42
0.0000001
 43
0.0000001
 44
0.0000000001
 40
0.0
 40
0.0
 40
0.0
 40
0.0
 40
0.3824141176
 40
0.7069205722
 40
0.8311254601
 40
0.9234926286
 40
0.9805820666
 40
1.0
 40
1.0
 40
1.0
 40
1.0
 10
97.914764081
 20
870.9350720241
 30
0.0
 10
98.2399462557
 20
870.9350720241
 30
0.0
 10
98.838730776
 20
870.9315005806
 30
0.0
 10
99.5528624582
 20
870.9292066908
 30
0.0
 10
100.0018737932
 20
870.9124446592
 30
0.0
 10
100.2541524427
 20
870.9186809369
 30
0.0
 10
100.3615521582
 20
870.8873455238
 30
0.0
 10
100.4645192545
 20
870.9070733882
 30
0.0
 10
100.464519281
 20
870.8905615349
 30
0.0
  0
SPLINE
  5
41D
100
AcDbEntity
  8
00_COMPONENTS_1
100
AcDbSpline
 62
7
  6
CONTINUOUS
 70
0
 71
3
 72
9
 73
5
 74
0
 42
0.0000001
 43
0.0000001
 44
0.0000000001
 40
0.0
 40
0.0
 40
0.0
 40
0.0
 40
0.1365557766
 40
1.0
 40
1.0
 40
1.0
 40
1.0
 10
95.4428793831
 20
257.9161080696
 30
0.0
 10
95.5551465283
 20
257.9083751024
 30
0.0
 10
96.3792356699
 20
257.8863812115
 30
0.0
 10
97.2032150402
 20
257.8825314624
 30
0.0
 10
97.9147638585
 20
257.8825314624
 30
0.0
  0
SPLINE
  5
41E
100
AcDbEntity
  8
00_COMPONENTS_1
100
AcDbSpline
 62
7
  6
CONTINUOUS
 70
0
 71
3
 72
13
 73
9
 74
0
 42
0.0000001
 43
0.0000001
 44
0.0000000001
 40
0.0
 40
0.0
 40
0.0
 40
0.0
 40
0.3824918073
 40
0.707015759
 40
0.8311895138
 40
0.9235151712
 40
0.9805835498
 40
1.0
 40
1.0
 40
1.0
 40
1.0
 10
97.9147638585
 20
257.8825314624
 30
0.0
 10
98.2400071972
 20
257.8825314624
 30
0.0
 10
98.8388629353
 20
257.8861078125
 30
0.0
 10
99.5530393879
 20
257.8884017749
 30
0.0
 10
100.0019985312
 20
257.9051633738
 30
0.0
 10
100.2541849204
 20
257.8989310794
 30
0.0
 10
100.3615433483
 20
257.9302587927
 30
0.0
 10
100.4644809887
 20
257.9105316075
 30
0.0
 10
100.4644809887
 20
257.9270419509
 30
0.0
  0
SPLINE
  5
41F
100
AcDbEntity
  8
00_COMPONENTS_1
100
AcDbSpline
 62
7
  6
CONTINUOUS
 70
0
 71
3
 72
9
 73
5
 74
0
 42
0.0000001
 43
0.0000001
 44
0.0000000001
 40
0.0
 40
0.0
 40
0.0
 40
0.0
 40
0.1365347437
 40
1.0
 40
1.0
 40
1.0
 40
1.0
 10
95.4428793831
 20
213.9014954163
 30
0.0
 10
95.5551292484
 20
213.9092271932
 30
0.0
 10
96.37921813
 20
213.9312296391
 30
0.0
 10
97.2031978545
 20
213.9350720241
 30
0.0
 10
97.914764081
 20
213.9350720241
 30
0.0
  0
SPLINE
  5
420
100
AcDbEntity
  8
00_COMPONENTS_1
100
AcDbSpline
 62
7
  6
CONTINUOUS
 70
0
 71
3
 72
13
 73
9
 74
0
 42
0.0000001
 43
0.0000001
 44
0.0000000001
 40
0.0
 40
0.0
 40
0.0
 40
0.0
 40
0.3824141176
 40
0.7069205722
 40
0.8311254601
 40
0.9234926286
 40
0.9805820666
 40
1.0
 40
1.0
 40
1.0
 40
1.0
 10
97.914764081
 20
213.9350720241
 30
0.0
 10
98.2399462557
 20
213.9350720241
 30
0.0
 10
98.838730776
 20
213.9315005806
 30
0.0
 10
99.5528624582
 20
213.9292066908
 30
0.0
 10
100.0018737932
 20
213.9124446592
 30
0.0
 10
100.2541524427
 20
213.9186809369
 30
0.0
 10
100.3615521582
 20
213.8873455238
 30
0.0
 10
100.4645192545
 20
213.9070733882
 30
0.0
 10
100.464519281
 20
213.8905615349
 30
0.0
  0
SPLINE
  5
421
100
AcDbEntity
  8
00_COMPONENTS_1_1
100
AcDbSpline
 62
7
  6
CONTINUOUS
 70
0
 71
3
 72
11
 73
7
 74
0
 42
0.0000001
 43
0.0000001
 44
0.0000000001
 40
0.0
 40
0.0
 40
0.0
 40
0.0
 40
0.2503429056
 40
0.4990849887
 40
0.7480601342
 40
1.0
 40
1.0
 40
1.0
 40
1.0
 10
710.8269343063
 20
890.9092534508
 30
0.0
 10
710.7874742559
 20
890.9091188234
 30
0.0
 10
710.7082257569
 20
890.9206936274
 30
0.0
 10
710.6004548216
 20
890.9725543622
 30
0.0
 10
710.5120248915
 20
891.0534124008
 30
0.0
 10
710.4713120185
 20
891.1226495855
 30
0.0
 10
710.4563070738
 20
891.1594177054
 30
0.0
  0
SPLINE
  5
422
100
AcDbEntity
  8
00_COMPONENTS_1_1
100
AcDbSpline
 62
7
  6
CONTINUOUS
 70
0
 71
3
 72
11
 73
7
 74
0
 42
0.0000001
 43
0.0000001
 44
0.0000000001
 40
0.0
 40
0.0
 40
0.0
 40
0.0
 40
0.2539991189
 40
0.5045254669
 40
0.7530005602
 40
1.0
 40
1.0
 40
1.0
 40
1.0
 10
701.7332326659
 20
891.1595402532
 30
0.0
 10
701.7181008942
 20
891.1224613566
 30
0.0
 10
701.6770212858
 20
891.0527177807
 30
0.0
 10
701.5878947805
 20
890.9717442777
 30
0.0
 10
701.4801812506
 20
890.9204473291
 30
0.0
 10
701.4015000466
 20
890.9091205847
 30
0.0
 10
701.3625562419
 20
890.9092534508
 30
0.0
  0
SPLINE
  5
423
100
AcDbEntity
  8
00_COMPONENTS_1_1
100
AcDbSpline
 62
7
  6
CONTINUOUS
 70
0
 71
3
 72
11
 73
7
 74
0
 42
0.0000001
 43
0.0000001
 44
0.0000000001
 40
0.0
 40
0.0
 40
0.0
 40
0.0
 40
0.2503429056
 40
0.4990849887
 40
0.7480601341
 40
1.0
 40
1.0
 40
1.0
 40
1.0
 10
701.3625562419
 20
887.908350035
 30
0.0
 10
701.4020162924
 20
887.9084846625
 30
0.0
 10
701.4812647913
 20
887.8969098584
 30
0.0
 10
701.5890357266
 20
887.8450491236
 30
0.0
 10
701.6774656567
 20
887.764191085
 30
0.0
 10
701.7181785297
 20
887.6949539004
 30
0.0
 10
701.7331834744
 20
887.6581857804
 30
0.0
  0
SPLINE
  5
424
100
AcDbEntity
  8
00_COMPONENTS_1_1
100
AcDbSpline
 62
7
  6
CONTINUOUS
 70
0
 71
3
 72
11
 73
7
 74
0
 42
0.0000001
 43
0.0000001
 44
0.0000000001
 40
0.0
 40
0.0
 40
0.0
 40
0.0
 40
0.253999119
 40
0.5045254669
 40
0.7530005603
 40
1.0
 40
1.0
 40
1.0
 40
1.0
 10
710.4562578824
 20
887.6580632326
 30
0.0
 10
710.471389654
 20
887.6951421293
 30
0.0
 10
710.5124692625
 20
887.7648857051
 30
0.0
 10
710.6015957678
 20
887.8458592082
 30
0.0
 10
710.7093092976
 20
887.8971561568
 30
0.0
 10
710.7879905017
 20
887.9084829011
 30
0.0
 10
710.8269343063
 20
887.908350035
 30
0.0
  0
LINE
  5
425
100
AcDbEntity
  8
00_COMPONENTS_1_1
100
AcDbLine
 62
7
  6
CONTINUOUS
 10
707.6730427404
 20
892.8463374314
 11
707.1971217939
 21
892.8546435856
  0
LINE
  5
426
100
AcDbEntity
  8
00_COMPONENTS_1_1
100
AcDbLine
 62
7
  6
CONTINUOUS
 10
707.4845520017
 20
892.8147119695
 11
707.1586129859
 21
892.820400679
  0
SPLINE
  5
427
100
AcDbEntity
  8
00_COMPONENTS_1_1
100
AcDbSpline
 62
7
  6
CONTINUOUS
 70
0
 71
3
 72
8
 73
4
 74
0
 42
0.0000001
 43
0.0000001
 44
0.0000000001
 40
0.0
 40
0.0
 40
0.0
 40
0.0
 40
1.0
 40
1.0
 40
1.0
 40
1.0
 10
707.5769719152
 20
892.7938948155
 30
0.0
 10
707.5787813337
 20
892.7907608107
 30
0.0
 10
707.5777829804
 20
892.7864933138
 30
0.0
 10
707.5795923989
 20
892.783359309
 30
0.0
  0
LINE
  5
428
100
AcDbEntity
  8
00_COMPONENTS_1_1
100
AcDbLine
 62
7
  6
CONTINUOUS
 10
706.0947454548
 20
892.906087497
 11
707.9922876389
 21
892.8732425343
  0
SPLINE
  5
429
100
AcDbEntity
  8
00_COMPONENTS_1_1
100
AcDbSpline
 62
7
  6
CONTINUOUS
 70
0
 71
3
 72
10
 73
6
 74
0
 42
0.0000001
 43
0.0000001
 44
0.0000000001
 40
0.0
 40
0.0
 40
0.0
 40
0.0
 40
0.3325377512
 40
0.6674622488
 40
1.0
 40
1.0
 40
1.0
 40
1.0
 10
707.6730668439
 20
892.8477183241
 30
0.0
 10
707.7097510382
 20
892.84804355
 30
0.0
 10
707.7833850093
 20
892.8484267609
 30
0.0
 10
707.8937045971
 20
892.8487375557
 30
0.0
 10
707.9673385681
 20
892.8491207666
 30
0.0
 10
708.0040227624
 20
892.8494459925
 30
0.0
  0
LINE
  5
42A
100
AcDbEntity
  8
00_COMPONENTS_1_1
100
AcDbLine
 62
7
  6
CONTINUOUS
 10
704.1972018652
 20
892.8732412037
 11
706.0947450934
 21
892.9060861675
  0
SPLINE
  5
42B
100
AcDbEntity
  8
00_COMPONENTS_1_1
100
AcDbSpline
 62
7
  6
CONTINUOUS
 70
0
 71
3
 72
8
 73
4
 74
0
 42
0.0000001
 43
0.0000001
 44
0.0000000001
 40
0.0
 40
0.0
 40
0.0
 40
0.0
 40
1.0
 40
1.0
 40
1.0
 40
1.0
 10
704.6098981493
 20
892.783359309
 30
0.0
 10
704.6117075678
 20
892.7864933138
 30
0.0
 10
704.6107092145
 20
892.7907608107
 30
0.0
 10
704.612518633
 20
892.7938948155
 30
0.0
  0
LINE
  5
42C
100
AcDbEntity
  8
00_COMPONENTS_1_1
100
AcDbLine
 62
7
  6
CONTINUOUS
 10
705.0308775623
 20
892.820400679
 11
704.7049385466
 21
892.8147119695
  0
SPLINE
  5
42D
100
AcDbEntity
  8
00_COMPONENTS_1_1
100
AcDbSpline
 62
7
  6
CONTINUOUS
 70
0
 71
3
 72
10
 73
6
 74
0
 42
0.0000001
 43
0.0000001
 44
0.0000000001
 40
0.0
 40
0.0
 40
0.0
 40
0.0
 40
0.3325377512
 40
0.6674622488
 40
1.0
 40
1.0
 40
1.0
 40
1.0
 10
704.1854677858
 20
892.8494459925
 30
0.0
 10
704.2221519801
 20
892.8491207666
 30
0.0
 10
704.2957859512
 20
892.8487375557
 30
0.0
 10
704.4061055389
 20
892.8484267609
 30
0.0
 10
704.47973951
 20
892.84804355
 30
0.0
 10
704.5164237043
 20
892.8477183241
 30
0.0
  0
SPLINE
  5
42E
100
AcDbEntity
  8
00_COMPONENTS_1_1
100
AcDbSpline
 62
7
  6
CONTINUOUS
 70
0
 71
3
 72
9
 73
5
 74
0
 42
0.0000001
 43
0.0000001
 44
0.0000000001
 40
0.0
 40
0.0
 40
0.0
 40
0.0
 40
0.5
 40
1.0
 40
1.0
 40
1.0
 40
1.0
 10
707.234807794
 20
892.7841555347
 30
0.0
 10
707.2922770283
 20
892.7840200909
 30
0.0
 10
707.4072153235
 20
892.7846297764
 30
0.0
 10
707.5221536186
 20
892.7852394618
 30
0.0
 10
707.5796228529
 20
892.785104018
 30
0.0
  0
LINE
  5
42F
100
AcDbEntity
  8
00_COMPONENTS_1_1
100
AcDbLine
 62
7
  6
CONTINUOUS
 10
707.5769619712
 20
892.7933251204
 11
707.1660845608
 21
892.7998913245
  0
LINE
  5
430
100
AcDbEntity
  8
00_COMPONENTS_1_1
100
AcDbLine
 62
7
  6
CONTINUOUS
 10
705.0234059875
 20
892.7998913245
 11
704.6125285771
 21
892.7933251204
  0
SPLINE
  5
431
100
AcDbEntity
  8
00_COMPONENTS_1_1
100
AcDbSpline
 62
7
  6
CONTINUOUS
 70
0
 71
3
 72
10
 73
6
 74
0
 42
0.0000001
 43
0.0000001
 44
0.0000000001
 40
0.0
 40
0.0
 40
0.0
 40
0.0
 40
0.3325451808
 40
0.6674548192
 40
1.0
 40
1.0
 40
1.0
 40
1.0
 10
707.7865105602
 20
892.8285783129
 30
0.0
 10
707.7218385375
 20
892.8297071673
 30
0.0
 10
707.5920248433
 20
892.8313949371
 30
0.0
 10
707.3975297265
 20
892.8333587248
 30
0.0
 10
707.2677160322
 20
892.8350464945
 30
0.0
 10
707.2030440095
 20
892.8361753489
 30
0.0
  0
SPLINE
  5
432
100
AcDbEntity
  8
00_COMPONENTS_1_1
100
AcDbSpline
 62
7
  6
CONTINUOUS
 70
0
 71
3
 72
10
 73
6
 74
0
 42
0.0000001
 43
0.0000001
 44
0.0000000001
 40
0.0
 40
0.0
 40
0.0
 40
0.0
 40
0.3325451808
 40
0.6674548192
 40
1.0
 40
1.0
 40
1.0
 40
1.0
 10
704.9864465387
 20
892.8361753489
 30
0.0
 10
704.921774516
 20
892.8350464945
 30
0.0
 10
704.7919608218
 20
892.8333587248
 30
0.0
 10
704.597465705
 20
892.8313949371
 30
0.0
 10
704.4676520108
 20
892.8297071673
 30
0.0
 10
704.402979988
 20
892.8285783129
 30
0.0
  0
SPLINE
  5
433
100
AcDbEntity
  8
00_COMPONENTS_1_1
100
AcDbSpline
 62
7
  6
CONTINUOUS
 70
0
 71
3
 72
9
 73
5
 74
0
 42
0.0000001
 43
0.0000001
 44
0.0000000001
 40
0.0
 40
0.0
 40
0.0
 40
0.0
 40
0.5
 40
1.0
 40
1.0
 40
1.0
 40
1.0
 10
704.6098676953
 20
892.785104018
 30
0.0
 10
704.6673369296
 20
892.7852394618
 30
0.0
 10
704.7822752248
 20
892.7846297764
 30
0.0
 10
704.8972135199
 20
892.7840200909
 30
0.0
 10
704.9546827542
 20
892.7841555347
 30
0.0
  0
SPLINE
  5
434
100
AcDbEntity
  8
00_COMPONENTS_1_1
100
AcDbSpline
 62
7
  6
CONTINUOUS
 70
0
 71
3
 72
12
 73
8
 74
0
 42
0.0000001
 43
0.0000001
 44
0.0000000001
 40
0.0
 40
0.0
 40
0.0
 40
0.0
 40
0.3098232348
 40
0.5910230701
 40
0.8137777035
 40
0.953873725
 40
1.0
 40
1.0
 40
1.0
 40
1.0
 10
712.8154250504
 20
890.9716399767
 30
0.0
 10
712.7731028832
 20
890.9716399767
 30
0.0
 10
712.6913902658
 20
890.9720275246
 30
0.0
 10
712.5840217578
 20
890.9688108352
 30
0.0
 10
712.4863888488
 20
890.9733067125
 30
0.0
 10
712.4486048841
 20
890.9607384731
 30
0.0
 10
712.4042838561
 20
890.9707756812
 30
0.0
 10
712.4057920542
 20
890.9646579507
 30
0.0
  0
SPLINE
  5
435
100
AcDbEntity
  8
00_COMPONENTS_1_1
100
AcDbSpline
 62
7
  6
CONTINUOUS
 70
0
 71
3
 72
12
 73
8
 74
0
 42
0.0000001
 43
0.0000001
 44
0.0000000001
 40
0.0
 40
0.0
 40
0.0
 40
0.0
 40
0.046909619
 40
0.1870520666
 40
0.4069025961
 40
0.6866367291
 40
1.0
 40
1.0
 40
1.0
 40
1.0
 10
699.783698494
 20
890.9646579507
 30
0.0
 10
699.7852323035
 20
890.9708795688
 30
0.0
 10
699.7406626289
 20
890.960726584
 30
0.0
 10
699.7030454807
 20
890.9732411977
 30
0.0
 10
699.6061597654
 20
890.968820275
 30
0.0
 10
699.498873969
 20
890.9720303319
 30
0.0
 10
699.4168711874
 20
890.9716399767
 30
0.0
 10
699.3740654979
 20
890.9716399767
 30
0.0
  0
SPLINE
  5
436
100
AcDbEntity
  8
00_COMPONENTS_1_1
100
AcDbSpline
 62
7
  6
CONTINUOUS
 70
0
 71
3
 72
11
 73
7
 74
0
 42
0.0000001
 43
0.0000001
 44
0.0000000001
 40
0.0
 40
0.0
 40
0.0
 40
0.0
 40
0.248777325
 40
0.4985464762
 40
0.7487029981
 40
1.0
 40
1.0
 40
1.0
 40
1.0
 10
710.5289423956
 20
891.2596143862
 30
0.0
 10
710.5437316048
 20
891.2236218097
 30
0.0
 10
710.5845697809
 20
891.1555962212
 30
0.0
 10
710.6726709301
 20
891.0759670024
 30
0.0
 10
710.7804039889
 20
891.0251180845
 30
0.0
 10
710.8592625468
 20
891.0132181343
 30
0.0
 10
710.898568993
 20
891.013087851
 30
0.0
  0
SPLINE
  5
437
100
AcDbEntity
  8
00_COMPONENTS_1_1
100
AcDbSpline
 62
7
  6
CONTINUOUS
 70
0
 71
3
 72
10
 73
6
 74
0
 42
0.0000001
 43
0.0000001
 44
0.0000000001
 40
0.0
 40
0.0
 40
0.0
 40
0.0
 40
0.3328170634
 40
0.667473692
 40
1.0
 40
1.0
 40
1.0
 40
1.0
 10
710.4552581655
 20
891.1589910582
 30
0.0
 10
710.4636354104
 20
891.1701450057
 30
0.0
 10
710.4803697648
 20
891.1925656907
 30
0.0
 10
710.5048484332
 20
891.2265898146
 30
0.0
 10
710.5215755395
 20
891.2490007061
 30
0.0
 10
710.5299459199
 20
891.2601445683
 30
0.0
  0
SPLINE
  5
438
100
AcDbEntity
  8
00_COMPONENTS_1_1
100
AcDbSpline
 62
7
  6
CONTINUOUS
 70
0
 71
3
 72
10
 73
6
 74
0
 42
0.0000001
 43
0.0000001
 44
0.0000000001
 40
0.0
 40
0.0
 40
0.0
 40
0.0
 40
0.332526308
 40
0.6671829366
 40
1.0
 40
1.0
 40
1.0
 40
1.0
 10
701.6595446283
 20
891.2601445683
 30
0.0
 10
701.6679150088
 20
891.2490007061
 30
0.0
 10
701.684642115
 20
891.2265898146
 30
0.0
 10
701.7091207835
 20
891.1925656907
 30
0.0
 10
701.7258551378
 20
891.1701450057
 30
0.0
 10
701.7342323828
 20
891.1589910582
 30
0.0
  0
SPLINE
  5
439
100
AcDbEntity
  8
00_COMPONENTS_1_1
100
AcDbSpline
 62
7
  6
CONTINUOUS
 70
0
 71
3
 72
11
 73
7
 74
0
 42
0.0000001
 43
0.0000001
 44
0.0000000001
 40
0.0
 40
0.0
 40
0.0
 40
0.0
 40
0.249075792
 40
0.4999689718
 40
0.7508377627
 40
1.0
 40
1.0
 40
1.0
 40
1.0
 10
701.6605896509
 20
891.2597138081
 30
0.0
 10
701.6457796934
 20
891.2236707365
 30
0.0
 10
701.6037682008
 20
891.1560908837
 30
0.0
 10
701.5163343051
 20
891.0755680304
 30
0.0
 10
701.4087230585
 20
891.0238363272
 30
0.0
 10
701.3299020033
 20
891.0132170537
 30
0.0
 10
701.2909215552
 20
891.013087851
 30
0.0
  0
SPLINE
  5
43A
100
AcDbEntity
  8
00_COMPONENTS_1_1
100
AcDbSpline
 62
7
  6
CONTINUOUS
 70
0
 71
3
 72
10
 73
6
 74
0
 42
0.0000001
 43
0.0000001
 44
0.0000000001
 40
0.0
 40
0.0
 40
0.0
 40
0.0
 40
0.1287000535
 40
0.4846784592
 40
1.0
 40
1.0
 40
1.0
 40
1.0
 10
713.787725879
 20
887.8441875394
 30
0.0
 10
713.7911053922
 20
887.8469489076
 30
0.0
 10
713.75672437
 20
887.8425184551
 30
0.0
 10
713.7389585044
 20
887.8474809473
 30
0.0
 10
713.7035072556
 20
887.8459635092
 30
0.0
 10
713.6860327671
 20
887.8459635092
 30
0.0
  0
SPLINE
  5
43B
100
AcDbEntity
  8
00_COMPONENTS_1_1
100
AcDbSpline
 62
7
  6
CONTINUOUS
 70
0
 71
3
 72
12
 73
8
 74
0
 42
0.0000001
 43
0.0000001
 44
0.0000000001
 40
0.0
 40
0.0
 40
0.0
 40
0.0
 40
0.3098232348
 40
0.5910230701
 40
0.8137777035
 40
0.953873725
 40
1.0
 40
1.0
 40
1.0
 40
1.0
 10
699.3740654979
 20
887.8459635092
 30
0.0
 10
699.4163876651
 20
887.8459635092
 30
0.0
 10
699.4981002824
 20
887.8455759612
 30
0.0
 10
699.6054687905
 20
887.8487926507
 30
0.0
 10
699.7031016995
 20
887.8442967733
 30
0.0
 10
699.7408856641
 20
887.8568650127
 30
0.0
 10
699.7852066921
 20
887.8468278046
 30
0.0
 10
699.783698494
 20
887.8529455351
 30
0.0
  0
SPLINE
  5
43C
100
AcDbEntity
  8
00_COMPONENTS_1_1
100
AcDbSpline
 62
7
  6
CONTINUOUS
 70
0
 71
3
 72
12
 73
8
 74
0
 42
0.0000001
 43
0.0000001
 44
0.0000000001
 40
0.0
 40
0.0
 40
0.0
 40
0.0
 40
0.046909619
 40
0.1870520666
 40
0.4069025961
 40
0.686636729
 40
1.0
 40
1.0
 40
1.0
 40
1.0
 10
712.4057920542
 20
887.8529455351
 30
0.0
 10
712.4042582448
 20
887.846723917
 30
0.0
 10
712.4488279194
 20
887.8568769018
 30
0.0
 10
712.4864450675
 20
887.8443622882
 30
0.0
 10
712.5833307829
 20
887.8487832108
 30
0.0
 10
712.6906165793
 20
887.8455731539
 30
0.0
 10
712.7726193608
 20
887.8459635092
 30
0.0
 10
712.8154250504
 20
887.8459635092
 30
0.0
  0
SPLINE
  5
43D
100
AcDbEntity
  8
00_COMPONENTS_1_1
100
AcDbSpline
 62
7
  6
CONTINUOUS
 70
0
 71
3
 72
10
 73
6
 74
0
 42
0.0000001
 43
0.0000001
 44
0.0000000001
 40
0.0
 40
0.0
 40
0.0
 40
0.0
 40
0.5148831604
 40
0.8725908952
 40
1.0
 40
1.0
 40
1.0
 40
1.0
 10
698.5034577811
 20
887.8459635092
 30
0.0
 10
698.4859981424
 20
887.8459635092
 30
0.0
 10
698.4504882654
 20
887.8474816623
 30
0.0
 10
698.4327925103
 20
887.8425085676
 30
0.0
 10
698.3984190518
 20
887.8469212117
 30
0.0
 10
698.4017646693
 20
887.8441875394
 30
0.0
  0
SPLINE
  5
43E
100
AcDbEntity
  8
00_COMPONENTS_1_1
100
AcDbSpline
 62
7
  6
CONTINUOUS
 70
0
 71
3
 72
11
 73
7
 74
0
 42
0.0000001
 43
0.0000001
 44
0.0000000001
 40
0.0
 40
0.0
 40
0.0
 40
0.0
 40
0.248777325
 40
0.4985464762
 40
0.7487029981
 40
1.0
 40
1.0
 40
1.0
 40
1.0
 10
701.6605481527
 20
887.5579890996
 30
0.0
 10
701.6457589434
 20
887.5939816761
 30
0.0
 10
701.6049207674
 20
887.6620072646
 30
0.0
 10
701.5168196182
 20
887.7416364835
 30
0.0
 10
701.4090865594
 20
887.7924854013
 30
0.0
 10
701.3302280014
 20
887.8043853516
 30
0.0
 10
701.2909215552
 20
887.8045156348
 30
0.0
  0
SPLINE
  5
43F
100
AcDbEntity
  8
00_COMPONENTS_1_1
100
AcDbSpline
 62
7
  6
CONTINUOUS
 70
0
 71
3
 72
11
 73
7
 74
0
 42
0.0000001
 43
0.0000001
 44
0.0000000001
 40
0.0
 40
0.0
 40
0.0
 40
0.0
 40
0.249075792
 40
0.4999689718
 40
0.7508377627
 40
1.0
 40
1.0
 40
1.0
 40
1.0
 10
710.5289008974
 20
887.5578896777
 30
0.0
 10
710.5437108549
 20
887.5939327493
 30
0.0
 10
710.5857223475
 20
887.6615126022
 30
0.0
 10
710.6731562432
 20
887.7420354555
 30
0.0
 10
710.7807674898
 20
887.7937671586
 30
0.0
 10
710.8595885449
 20
887.8043864321
 30
0.0
 10
710.898568993
 20
887.8045156348
 30
0.0
  0
SPLINE
  5
440
100
AcDbEntity
  8
00_COMPONENTS_1_1
100
AcDbSpline
 62
7
  6
CONTINUOUS
 70
0
 71
3
 72
10
 73
6
 74
0
 42
0.0000001
 43
0.0000001
 44
0.0000000001
 40
0.0
 40
0.0
 40
0.0
 40
0.0
 40
0.332526308
 40
0.6671829366
 40
1.0
 40
1.0
 40
1.0
 40
1.0
 10
710.5299459199
 20
887.5574589175
 30
0.0
 10
710.5215755395
 20
887.5686027797
 30
0.0
 10
710.5048484332
 20
887.5910136713
 30
0.0
 10
710.4803697648
 20
887.6250377951
 30
0.0
 10
710.4636354104
 20
887.6474584801
 30
0.0
 10
710.4552581655
 20
887.6586124276
 30
0.0
  0
SPLINE
  5
441
100
AcDbEntity
  8
00_COMPONENTS_1_1
100
AcDbSpline
 62
7
  6
CONTINUOUS
 70
0
 71
3
 72
10
 73
6
 74
0
 42
0.0000001
 43
0.0000001
 44
0.0000000001
 40
0.0
 40
0.0
 40
0.0
 40
0.0
 40
0.3328170634
 40
0.667473692
 40
1.0
 40
1.0
 40
1.0
 40
1.0
 10
701.7342323828
 20
887.6586124276
 30
0.0
 10
701.7258551378
 20
887.6474584801
 30
0.0
 10
701.7091207835
 20
887.6250377951
 30
0.0
 10
701.684642115
 20
887.5910136712
 30
0.0
 10
701.6679150088
 20
887.5686027797
 30
0.0
 10
701.6595446283
 20
887.5574589175
 30
0.0
  0
SPLINE
  5
442
100
AcDbEntity
  8
00_COMPONENTS_1_1
100
AcDbSpline
 62
7
  6
CONTINUOUS
 70
0
 71
3
 72
11
 73
7
 74
0
 42
0.0000001
 43
0.0000001
 44
0.0000000001
 40
0.0
 40
0.0
 40
0.0
 40
0.0
 40
0.2503429056
 40
0.4990849887
 40
0.7480601342
 40
1.0
 40
1.0
 40
1.0
 40
1.0
 10
710.8269343063
 20
240.9092534508
 30
0.0
 10
710.7874742559
 20
240.9091188234
 30
0.0
 10
710.7082257569
 20
240.9206936274
 30
0.0
 10
710.6004548216
 20
240.9725543622
 30
0.0
 10
710.5120248915
 20
241.0534124008
 30
0.0
 10
710.4713120185
 20
241.1226495855
 30
0.0
 10
710.4563070738
 20
241.1594177054
 30
0.0
  0
SPLINE
  5
443
100
AcDbEntity
  8
00_COMPONENTS_1_1
100
AcDbSpline
 62
7
  6
CONTINUOUS
 70
0
 71
3
 72
11
 73
7
 74
0
 42
0.0000001
 43
0.0000001
 44
0.0000000001
 40
0.0
 40
0.0
 40
0.0
 40
0.0
 40
0.2539991189
 40
0.5045254669
 40
0.7530005602
 40
1.0
 40
1.0
 40
1.0
 40
1.0
 10
701.7332326659
 20
241.1595402532
 30
0.0
 10
701.7181008942
 20
241.1224613566
 30
0.0
 10
701.6770212858
 20
241.0527177807
 30
0.0
 10
701.5878947805
 20
240.9717442777
 30
0.0
 10
701.4801812506
 20
240.9204473291
 30
0.0
 10
701.4015000466
 20
240.9091205847
 30
0.0
 10
701.3625562419
 20
240.9092534508
 30
0.0
  0
SPLINE
  5
444
100
AcDbEntity
  8
00_COMPONENTS_1_1
100
AcDbSpline
 62
7
  6
CONTINUOUS
 70
0
 71
3
 72
11
 73
7
 74
0
 42
0.0000001
 43
0.0000001
 44
0.0000000001
 40
0.0
 40
0.0
 40
0.0
 40
0.0
 40
0.2503429056
 40
0.4990849887
 40
0.7480601341
 40
1.0
 40
1.0
 40
1.0
 40
1.0
 10
701.3625562419
 20
237.908350035
 30
0.0
 10
701.4020162924
 20
237.9084846625
 30
0.0
 10
701.4812647913
 20
237.8969098584
 30
0.0
 10
701.5890357266
 20
237.8450491236
 30
0.0
 10
701.6774656567
 20
237.764191085
 30
0.0
 10
701.7181785297
 20
237.6949539004
 30
0.0
 10
701.7331834744
 20
237.6581857804
 30
0.0
  0
SPLINE
  5
445
100
AcDbEntity
  8
00_COMPONENTS_1_1
100
AcDbSpline
 62
7
  6
CONTINUOUS
 70
0
 71
3
 72
11
 73
7
 74
0
 42
0.0000001
 43
0.0000001
 44
0.0000000001
 40
0.0
 40
0.0
 40
0.0
 40
0.0
 40
0.253999119
 40
0.5045254669
 40
0.7530005603
 40
1.0
 40
1.0
 40
1.0
 40
1.0
 10
710.4562578824
 20
237.6580632326
 30
0.0
 10
710.471389654
 20
237.6951421293
 30
0.0
 10
710.5124692625
 20
237.7648857051
 30
0.0
 10
710.6015957678
 20
237.8458592082
 30
0.0
 10
710.7093092976
 20
237.8971561568
 30
0.0
 10
710.7879905017
 20
237.9084829011
 30
0.0
 10
710.8269343063
 20
237.908350035
 30
0.0
  0
LINE
  5
446
100
AcDbEntity
  8
00_COMPONENTS_1_1
100
AcDbLine
 62
7
  6
CONTINUOUS
 10
707.6730427404
 20
242.8463374314
 11
707.1971217939
 21
242.8546435856
  0
LINE
  5
447
100
AcDbEntity
  8
00_COMPONENTS_1_1
100
AcDbLine
 62
7
  6
CONTINUOUS
 10
707.4845520017
 20
242.8147119695
 11
707.1586129859
 21
242.820400679
  0
SPLINE
  5
448
100
AcDbEntity
  8
00_COMPONENTS_1_1
100
AcDbSpline
 62
7
  6
CONTINUOUS
 70
0
 71
3
 72
8
 73
4
 74
0
 42
0.0000001
 43
0.0000001
 44
0.0000000001
 40
0.0
 40
0.0
 40
0.0
 40
0.0
 40
1.0
 40
1.0
 40
1.0
 40
1.0
 10
707.5769719152
 20
242.7938948155
 30
0.0
 10
707.5787813337
 20
242.7907608107
 30
0.0
 10
707.5777829804
 20
242.7864933138
 30
0.0
 10
707.5795923989
 20
242.783359309
 30
0.0
  0
LINE
  5
449
100
AcDbEntity
  8
00_COMPONENTS_1_1
100
AcDbLine
 62
7
  6
CONTINUOUS
 10
706.0947454548
 20
242.906087497
 11
707.9922876389
 21
242.8732425343
  0
SPLINE
  5
44A
100
AcDbEntity
  8
00_COMPONENTS_1_1
100
AcDbSpline
 62
7
  6
CONTINUOUS
 70
0
 71
3
 72
10
 73
6
 74
0
 42
0.0000001
 43
0.0000001
 44
0.0000000001
 40
0.0
 40
0.0
 40
0.0
 40
0.0
 40
0.3325377512
 40
0.6674622488
 40
1.0
 40
1.0
 40
1.0
 40
1.0
 10
707.6730668439
 20
242.8477183241
 30
0.0
 10
707.7097510382
 20
242.84804355
 30
0.0
 10
707.7833850093
 20
242.8484267609
 30
0.0
 10
707.8937045971
 20
242.8487375557
 30
0.0
 10
707.9673385681
 20
242.8491207666
 30
0.0
 10
708.0040227624
 20
242.8494459925
 30
0.0
  0
LINE
  5
44B
100
AcDbEntity
  8
00_COMPONENTS_1_1
100
AcDbLine
 62
7
  6
CONTINUOUS
 10
704.1972018652
 20
242.8732412037
 11
706.0947450934
 21
242.9060861675
  0
SPLINE
  5
44C
100
AcDbEntity
  8
00_COMPONENTS_1_1
100
AcDbSpline
 62
7
  6
CONTINUOUS
 70
0
 71
3
 72
8
 73
4
 74
0
 42
0.0000001
 43
0.0000001
 44
0.0000000001
 40
0.0
 40
0.0
 40
0.0
 40
0.0
 40
1.0
 40
1.0
 40
1.0
 40
1.0
 10
704.6098981493
 20
242.783359309
 30
0.0
 10
704.6117075678
 20
242.7864933138
 30
0.0
 10
704.6107092145
 20
242.7907608107
 30
0.0
 10
704.612518633
 20
242.7938948155
 30
0.0
  0
LINE
  5
44D
100
AcDbEntity
  8
00_COMPONENTS_1_1
100
AcDbLine
 62
7
  6
CONTINUOUS
 10
705.0308775623
 20
242.820400679
 11
704.7049385466
 21
242.8147119695
  0
SPLINE
  5
44E
100
AcDbEntity
  8
00_COMPONENTS_1_1
100
AcDbSpline
 62
7
  6
CONTINUOUS
 70
0
 71
3
 72
10
 73
6
 74
0
 42
0.0000001
 43
0.0000001
 44
0.0000000001
 40
0.0
 40
0.0
 40
0.0
 40
0.0
 40
0.3325377512
 40
0.6674622488
 40
1.0
 40
1.0
 40
1.0
 40
1.0
 10
704.1854677858
 20
242.8494459925
 30
0.0
 10
704.2221519801
 20
242.8491207666
 30
0.0
 10
704.2957859512
 20
242.8487375557
 30
0.0
 10
704.4061055389
 20
242.8484267609
 30
0.0
 10
704.47973951
 20
242.84804355
 30
0.0
 10
704.5164237043
 20
242.8477183241
 30
0.0
  0
SPLINE
  5
44F
100
AcDbEntity
  8
00_COMPONENTS_1_1
100
AcDbSpline
 62
7
  6
CONTINUOUS
 70
0
 71
3
 72
9
 73
5
 74
0
 42
0.0000001
 43
0.0000001
 44
0.0000000001
 40
0.0
 40
0.0
 40
0.0
 40
0.0
 40
0.5
 40
1.0
 40
1.0
 40
1.0
 40
1.0
 10
707.234807794
 20
242.7841555347
 30
0.0
 10
707.2922770283
 20
242.7840200909
 30
0.0
 10
707.4072153235
 20
242.7846297764
 30
0.0
 10
707.5221536186
 20
242.7852394618
 30
0.0
 10
707.5796228529
 20
242.785104018
 30
0.0
  0
LINE
  5
450
100
AcDbEntity
  8
00_COMPONENTS_1_1
100
AcDbLine
 62
7
  6
CONTINUOUS
 10
707.5769619712
 20
242.7933251204
 11
707.1660845608
 21
242.7998913245
  0
LINE
  5
451
100
AcDbEntity
  8
00_COMPONENTS_1_1
100
AcDbLine
 62
7
  6
CONTINUOUS
 10
705.0234059875
 20
242.7998913245
 11
704.6125285771
 21
242.7933251204
  0
SPLINE
  5
452
100
AcDbEntity
  8
00_COMPONENTS_1_1
100
AcDbSpline
 62
7
  6
CONTINUOUS
 70
0
 71
3
 72
10
 73
6
 74
0
 42
0.0000001
 43
0.0000001
 44
0.0000000001
 40
0.0
 40
0.0
 40
0.0
 40
0.0
 40
0.3325451808
 40
0.6674548192
 40
1.0
 40
1.0
 40
1.0
 40
1.0
 10
707.7865105602
 20
242.8285783129
 30
0.0
 10
707.7218385375
 20
242.8297071673
 30
0.0
 10
707.5920248433
 20
242.8313949371
 30
0.0
 10
707.3975297265
 20
242.8333587248
 30
0.0
 10
707.2677160322
 20
242.8350464945
 30
0.0
 10
707.2030440095
 20
242.8361753489
 30
0.0
  0
SPLINE
  5
453
100
AcDbEntity
  8
00_COMPONENTS_1_1
100
AcDbSpline
 62
7
  6
CONTINUOUS
 70
0
 71
3
 72
10
 73
6
 74
0
 42
0.0000001
 43
0.0000001
 44
0.0000000001
 40
0.0
 40
0.0
 40
0.0
 40
0.0
 40
0.3325451808
 40
0.6674548192
 40
1.0
 40
1.0
 40
1.0
 40
1.0
 10
704.9864465387
 20
242.8361753489
 30
0.0
 10
704.921774516
 20
242.8350464945
 30
0.0
 10
704.7919608218
 20
242.8333587248
 30
0.0
 10
704.597465705
 20
242.8313949371
 30
0.0
 10
704.4676520108
 20
242.8297071673
 30
0.0
 10
704.402979988
 20
242.8285783129
 30
0.0
  0
SPLINE
  5
454
100
AcDbEntity
  8
00_COMPONENTS_1_1
100
AcDbSpline
 62
7
  6
CONTINUOUS
 70
0
 71
3
 72
9
 73
5
 74
0
 42
0.0000001
 43
0.0000001
 44
0.0000000001
 40
0.0
 40
0.0
 40
0.0
 40
0.0
 40
0.5
 40
1.0
 40
1.0
 40
1.0
 40
1.0
 10
704.6098676953
 20
242.785104018
 30
0.0
 10
704.6673369296
 20
242.7852394618
 30
0.0
 10
704.7822752248
 20
242.7846297764
 30
0.0
 10
704.8972135199
 20
242.7840200909
 30
0.0
 10
704.9546827542
 20
242.7841555347
 30
0.0
  0
SPLINE
  5
455
100
AcDbEntity
  8
00_COMPONENTS_1_1
100
AcDbSpline
 62
7
  6
CONTINUOUS
 70
0
 71
3
 72
12
 73
8
 74
0
 42
0.0000001
 43
0.0000001
 44
0.0000000001
 40
0.0
 40
0.0
 40
0.0
 40
0.0
 40
0.3098232348
 40
0.5910230701
 40
0.8137777035
 40
0.953873725
 40
1.0
 40
1.0
 40
1.0
 40
1.0
 10
712.8154250504
 20
240.9716399767
 30
0.0
 10
712.7731028832
 20
240.9716399767
 30
0.0
 10
712.6913902658
 20
240.9720275246
 30
0.0
 10
712.5840217578
 20
240.9688108352
 30
0.0
 10
712.4863888488
 20
240.9733067125
 30
0.0
 10
712.4486048841
 20
240.9607384731
 30
0.0
 10
712.4042838561
 20
240.9707756812
 30
0.0
 10
712.4057920542
 20
240.9646579507
 30
0.0
  0
SPLINE
  5
456
100
AcDbEntity
  8
00_COMPONENTS_1_1
100
AcDbSpline
 62
7
  6
CONTINUOUS
 70
0
 71
3
 72
12
 73
8
 74
0
 42
0.0000001
 43
0.0000001
 44
0.0000000001
 40
0.0
 40
0.0
 40
0.0
 40
0.0
 40
0.046909619
 40
0.1870520666
 40
0.4069025961
 40
0.6866367291
 40
1.0
 40
1.0
 40
1.0
 40
1.0
 10
699.783698494
 20
240.9646579507
 30
0.0
 10
699.7852323035
 20
240.9708795688
 30
0.0
 10
699.7406626289
 20
240.960726584
 30
0.0
 10
699.7030454807
 20
240.9732411977
 30
0.0
 10
699.6061597654
 20
240.968820275
 30
0.0
 10
699.498873969
 20
240.9720303319
 30
0.0
 10
699.4168711874
 20
240.9716399767
 30
0.0
 10
699.3740654979
 20
240.9716399767
 30
0.0
  0
SPLINE
  5
457
100
AcDbEntity
  8
00_COMPONENTS_1_1
100
AcDbSpline
 62
7
  6
CONTINUOUS
 70
0
 71
3
 72
11
 73
7
 74
0
 42
0.0000001
 43
0.0000001
 44
0.0000000001
 40
0.0
 40
0.0
 40
0.0
 40
0.0
 40
0.248777325
 40
0.4985464762
 40
0.7487029981
 40
1.0
 40
1.0
 40
1.0
 40
1.0
 10
710.5289423956
 20
241.2596143862
 30
0.0
 10
710.5437316048
 20
241.2236218097
 30
0.0
 10
710.5845697809
 20
241.1555962212
 30
0.0
 10
710.6726709301
 20
241.0759670024
 30
0.0
 10
710.7804039889
 20
241.0251180845
 30
0.0
 10
710.8592625468
 20
241.0132181343
 30
0.0
 10
710.898568993
 20
241.013087851
 30
0.0
  0
SPLINE
  5
458
100
AcDbEntity
  8
00_COMPONENTS_1_1
100
AcDbSpline
 62
7
  6
CONTINUOUS
 70
0
 71
3
 72
10
 73
6
 74
0
 42
0.0000001
 43
0.0000001
 44
0.0000000001
 40
0.0
 40
0.0
 40
0.0
 40
0.0
 40
0.3328170634
 40
0.667473692
 40
1.0
 40
1.0
 40
1.0
 40
1.0
 10
710.4552581655
 20
241.1589910582
 30
0.0
 10
710.4636354104
 20
241.1701450057
 30
0.0
 10
710.4803697648
 20
241.1925656907
 30
0.0
 10
710.5048484332
 20
241.2265898146
 30
0.0
 10
710.5215755395
 20
241.2490007061
 30
0.0
 10
710.5299459199
 20
241.2601445683
 30
0.0
  0
SPLINE
  5
459
100
AcDbEntity
  8
00_COMPONENTS_1_1
100
AcDbSpline
 62
7
  6
CONTINUOUS
 70
0
 71
3
 72
10
 73
6
 74
0
 42
0.0000001
 43
0.0000001
 44
0.0000000001
 40
0.0
 40
0.0
 40
0.0
 40
0.0
 40
0.332526308
 40
0.6671829366
 40
1.0
 40
1.0
 40
1.0
 40
1.0
 10
701.6595446283
 20
241.2601445683
 30
0.0
 10
701.6679150088
 20
241.2490007061
 30
0.0
 10
701.684642115
 20
241.2265898146
 30
0.0
 10
701.7091207835
 20
241.1925656907
 30
0.0
 10
701.7258551378
 20
241.1701450057
 30
0.0
 10
701.7342323828
 20
241.1589910582
 30
0.0
  0
SPLINE
  5
45A
100
AcDbEntity
  8
00_COMPONENTS_1_1
100
AcDbSpline
 62
7
  6
CONTINUOUS
 70
0
 71
3
 72
11
 73
7
 74
0
 42
0.0000001
 43
0.0000001
 44
0.0000000001
 40
0.0
 40
0.0
 40
0.0
 40
0.0
 40
0.249075792
 40
0.4999689718
 40
0.7508377627
 40
1.0
 40
1.0
 40
1.0
 40
1.0
 10
701.6605896509
 20
241.2597138081
 30
0.0
 10
701.6457796934
 20
241.2236707365
 30
0.0
 10
701.6037682008
 20
241.1560908837
 30
0.0
 10
701.5163343051
 20
241.0755680304
 30
0.0
 10
701.4087230585
 20
241.0238363272
 30
0.0
 10
701.3299020033
 20
241.0132170537
 30
0.0
 10
701.2909215552
 20
241.013087851
 30
0.0
  0
SPLINE
  5
45B
100
AcDbEntity
  8
00_COMPONENTS_1_1
100
AcDbSpline
 62
7
  6
CONTINUOUS
 70
0
 71
3
 72
10
 73
6
 74
0
 42
0.0000001
 43
0.0000001
 44
0.0000000001
 40
0.0
 40
0.0
 40
0.0
 40
0.0
 40
0.1287000535
 40
0.4846784592
 40
1.0
 40
1.0
 40
1.0
 40
1.0
 10
713.787725879
 20
237.8441875394
 30
0.0
 10
713.7911053922
 20
237.8469489076
 30
0.0
 10
713.75672437
 20
237.8425184551
 30
0.0
 10
713.7389585044
 20
237.8474809473
 30
0.0
 10
713.7035072556
 20
237.8459635092
 30
0.0
 10
713.6860327671
 20
237.8459635092
 30
0.0
  0
SPLINE
  5
45C
100
AcDbEntity
  8
00_COMPONENTS_1_1
100
AcDbSpline
 62
7
  6
CONTINUOUS
 70
0
 71
3
 72
12
 73
8
 74
0
 42
0.0000001
 43
0.0000001
 44
0.0000000001
 40
0.0
 40
0.0
 40
0.0
 40
0.0
 40
0.3098232348
 40
0.5910230701
 40
0.8137777035
 40
0.953873725
 40
1.0
 40
1.0
 40
1.0
 40
1.0
 10
699.3740654979
 20
237.8459635092
 30
0.0
 10
699.4163876651
 20
237.8459635092
 30
0.0
 10
699.4981002824
 20
237.8455759612
 30
0.0
 10
699.6054687905
 20
237.8487926507
 30
0.0
 10
699.7031016995
 20
237.8442967733
 30
0.0
 10
699.7408856641
 20
237.8568650127
 30
0.0
 10
699.7852066921
 20
237.8468278046
 30
0.0
 10
699.783698494
 20
237.8529455351
 30
0.0
  0
SPLINE
  5
45D
100
AcDbEntity
  8
00_COMPONENTS_1_1
100
AcDbSpline
 62
7
  6
CONTINUOUS
 70
0
 71
3
 72
12
 73
8
 74
0
 42
0.0000001
 43
0.0000001
 44
0.0000000001
 40
0.0
 40
0.0
 40
0.0
 40
0.0
 40
0.046909619
 40
0.1870520666
 40
0.4069025961
 40
0.686636729
 40
1.0
 40
1.0
 40
1.0
 40
1.0
 10
712.4057920542
 20
237.8529455351
 30
0.0
 10
712.4042582448
 20
237.846723917
 30
0.0
 10
712.4488279194
 20
237.8568769018
 30
0.0
 10
712.4864450675
 20
237.8443622882
 30
0.0
 10
712.5833307829
 20
237.8487832108
 30
0.0
 10
712.6906165793
 20
237.8455731539
 30
0.0
 10
712.7726193608
 20
237.8459635092
 30
0.0
 10
712.8154250504
 20
237.8459635092
 30
0.0
  0
SPLINE
  5
45E
100
AcDbEntity
  8
00_COMPONENTS_1_1
100
AcDbSpline
 62
7
  6
CONTINUOUS
 70
0
 71
3
 72
10
 73
6
 74
0
 42
0.0000001
 43
0.0000001
 44
0.0000000001
 40
0.0
 40
0.0
 40
0.0
 40
0.0
 40
0.5148831604
 40
0.8725908952
 40
1.0
 40
1.0
 40
1.0
 40
1.0
 10
698.5034577811
 20
237.8459635092
 30
0.0
 10
698.4859981424
 20
237.8459635092
 30
0.0
 10
698.4504882654
 20
237.8474816623
 30
0.0
 10
698.4327925103
 20
237.8425085676
 30
0.0
 10
698.3984190518
 20
237.8469212117
 30
0.0
 10
698.4017646693
 20
237.8441875394
 30
0.0
  0
SPLINE
  5
45F
100
AcDbEntity
  8
00_COMPONENTS_1_1
100
AcDbSpline
 62
7
  6
CONTINUOUS
 70
0
 71
3
 72
11
 73
7
 74
0
 42
0.0000001
 43
0.0000001
 44
0.0000000001
 40
0.0
 40
0.0
 40
0.0
 40
0.0
 40
0.248777325
 40
0.4985464762
 40
0.7487029981
 40
1.0
 40
1.0
 40
1.0
 40
1.0
 10
701.6605481527
 20
237.5579890996
 30
0.0
 10
701.6457589434
 20
237.5939816761
 30
0.0
 10
701.6049207674
 20
237.6620072646
 30
0.0
 10
701.5168196182
 20
237.7416364835
 30
0.0
 10
701.4090865594
 20
237.7924854013
 30
0.0
 10
701.3302280014
 20
237.8043853516
 30
0.0
 10
701.2909215552
 20
237.8045156348
 30
0.0
  0
SPLINE
  5
460
100
AcDbEntity
  8
00_COMPONENTS_1_1
100
AcDbSpline
 62
7
  6
CONTINUOUS
 70
0
 71
3
 72
11
 73
7
 74
0
 42
0.0000001
 43
0.0000001
 44
0.0000000001
 40
0.0
 40
0.0
 40
0.0
 40
0.0
 40
0.249075792
 40
0.4999689718
 40
0.7508377627
 40
1.0
 40
1.0
 40
1.0
 40
1.0
 10
710.5289008974
 20
237.5578896777
 30
0.0
 10
710.5437108549
 20
237.5939327493
 30
0.0
 10
710.5857223475
 20
237.6615126022
 30
0.0
 10
710.6731562432
 20
237.7420354555
 30
0.0
 10
710.7807674898
 20
237.7937671586
 30
0.0
 10
710.8595885449
 20
237.8043864321
 30
0.0
 10
710.898568993
 20
237.8045156348
 30
0.0
  0
SPLINE
  5
461
100
AcDbEntity
  8
00_COMPONENTS_1_1
100
AcDbSpline
 62
7
  6
CONTINUOUS
 70
0
 71
3
 72
10
 73
6
 74
0
 42
0.0000001
 43
0.0000001
 44
0.0000000001
 40
0.0
 40
0.0
 40
0.0
 40
0.0
 40
0.332526308
 40
0.6671829366
 40
1.0
 40
1.0
 40
1.0
 40
1.0
 10
710.5299459199
 20
237.5574589175
 30
0.0
 10
710.5215755395
 20
237.5686027797
 30
0.0
 10
710.5048484332
 20
237.5910136713
 30
0.0
 10
710.4803697648
 20
237.6250377951
 30
0.0
 10
710.4636354104
 20
237.6474584801
 30
0.0
 10
710.4552581655
 20
237.6586124276
 30
0.0
  0
SPLINE
  5
462
100
AcDbEntity
  8
00_COMPONENTS_1_1
100
AcDbSpline
 62
7
  6
CONTINUOUS
 70
0
 71
3
 72
10
 73
6
 74
0
 42
0.0000001
 43
0.0000001
 44
0.0000000001
 40
0.0
 40
0.0
 40
0.0
 40
0.0
 40
0.3328170634
 40
0.667473692
 40
1.0
 40
1.0
 40
1.0
 40
1.0
 10
701.7342323828
 20
237.6586124276
 30
0.0
 10
701.7258551378
 20
237.6474584801
 30
0.0
 10
701.7091207835
 20
237.6250377951
 30
0.0
 10
701.684642115
 20
237.5910136712
 30
0.0
 10
701.6679150088
 20
237.5686027797
 30
0.0
 10
701.6595446283
 20
237.5574589175
 30
0.0
  0
ELLIPSE
  5
463
100
AcDbEntity
  8
00_COMPONENTS_1
100
AcDbEllipse
 62
7
  6
CONTINUOUS
 10
720.3545929605
 20
983.9086494293
 30
0.0
 11
2.8286425245
 21
2.8286425245
 31
0.0
 40
0.9999238505
 41
-0.7853600872
 42
0.7853600872
  0
ELLIPSE
  5
464
100
AcDbEntity
  8
00_COMPONENTS_1
100
AcDbEllipse
 62
7
  6
CONTINUOUS
 10
91.8348975876
 20
983.9086494294
 30
0.0
 11
-2.8286425245
 21
2.8286425245
 31
0.0
 40
0.9999238505
 41
-0.7853600872
 42
0.7853600872
  0
ELLIPSE
  5
465
100
AcDbEntity
  8
00_COMPONENTS_1
100
AcDbEllipse
 62
7
  6
CONTINUOUS
 10
720.3545929605
 20
144.9089540565
 30
0.0
 11
2.8286425245
 21
-2.8286425245
 31
0.0
 40
0.9999238505
 41
-0.7853600872
 42
0.7853600872
  0
ELLIPSE
  5
466
100
AcDbEntity
  8
00_COMPONENTS_1
100
AcDbEllipse
 62
7
  6
CONTINUOUS
 10
91.8348975876
 20
144.9089540564
 30
0.0
 11
2.8286425245
 21
2.8286425245
 31
0.0
 40
0.9999238505
 41
-3.9269527408
 42
-2.3562325664
  0
ELLIPSE
  5
467
100
AcDbEntity
  8
00_COMPONENTS_1
100
AcDbEllipse
 62
7
  6
CONTINUOUS
 10
94.4180504537
 20
981.3254965633
 30
0.0
 11
-2.8286425245
 21
2.8286425245
 31
0.0
 40
0.9999238505
 41
-0.7853600872
 42
0.7853600872
  0
ELLIPSE
  5
468
100
AcDbEntity
  8
00_COMPONENTS_1
100
AcDbEllipse
 62
7
  6
CONTINUOUS
 10
717.7714400945
 20
147.4921069226
 30
0.0
 11
-2.8286425245
 21
2.8286425245
 31
0.0
 40
0.9999238505
 41
2.3562325664
 42
3.9269527408
  0
ELLIPSE
  5
469
100
AcDbEntity
  8
00_COMPONENTS_1
100
AcDbEllipse
 62
7
  6
CONTINUOUS
 10
717.7714400945
 20
981.3254965633
 30
0.0
 11
2.8286425245
 21
2.8286425245
 31
0.0
 40
0.9999238505
 41
-0.7853600872
 42
0.7853600872
  0
ELLIPSE
  5
46A
100
AcDbEntity
  8
00_COMPONENTS_1
100
AcDbEllipse
 62
7
  6
CONTINUOUS
 10
94.4180504537
 20
147.4921069225
 30
0.0
 11
2.8286425245
 21
2.8286425245
 31
0.0
 40
0.9999238505
 41
2.3562325664
 42
3.9269527408
  0
ENDSEC
  0
SECTION
  2
OBJECTS
  0
DICTIONARY
  5
C
100
AcDbDictionary
280
0
281
1
  3
ACAD_GROUP
350
D
  3
ACAD_MLINESTYLE
350
17
  3
ACAD_LAYOUT
350
1A
  3
ACAD_PLOTSETTINGS
350
19
  3
ACAD_PLOTSTYLENAME
350
E
  0
DICTIONARY
  5
D
102
{ACAD_REACTORS
330
C
102
}
100
AcDbDictionary
280
0
281
1
  0
ACDBDICTIONARYWDFLT
  5
E
102
{ACAD_REACTORS
330
C
102
}
100
AcDbDictionary
281
1
  3
Normal
350
F
100
AcDbDictionaryWithDefault
340
F
  0
DICTIONARY
  5
17
102
{ACAD_REACTORS
330
C
102
}
100
AcDbDictionary
280
0
281
1
  3
Standard
350
18
  0
DICTIONARY
  5
19
102
{ACAD_REACTORS
330
C
102
}
100
AcDbDictionary
281
1
  0
DICTIONARY
  5
1A
102
{ACAD_REACTORS
330
C
102
}
100
AcDbDictionary
281
1
  3
Model
350
46B
  3
Layout1
350
46C
  0
ACDBPLACEHOLDER
  5
F
102
{ACAD_REACTORS
330
E
102
}
  0
MLINESTYLE
  5
18
102
{ACAD_REACTORS
330
17
102
}
100
AcDbMlineStyle
  2
STANDARD
 70
0
  3

 62
256
 51
90.0
 52
90.0
 71
2
 49
0.5
 62
256
  6
BYLAYER
 49
-0.5
 62
256
  6
BYLAYER
  0
LAYOUT
  5
46B
102
{ACAD_REACTORS
330
1A
102
}
100
AcDbPlotSettings
  1

  2
none_device
  4

  6

 40
0.0
 41
0.0
 42
0.0
 43
0.0
 44
210.0
 45
297.0
 46
0.0
 47
0.0
 48
0.0
 49
0.0
140
0.0
141
0.0
142
1.0
143
1.0
 70
1024
 72
1
 73
0
 74
0
  7

 75
0
147
1.0
148
0.0
149
0.0
100
AcDbLayout
  1
Model
 70
0
 71
0
 10
0.0
 20
0.0
 11
210.0
 21
297.0
 12
0.0
 22
0.0
 32
0.0
 14
0.0
 24
0.0
 34
0.0
 15
0.0
 25
0.0
 35
0.0
146
0.0
 13
0.0
 23
0.0
 33
0.0
 16
1.0
 26
0.0
 36
0.0
 17
0.0
 27
1.0
 37
0.0
 76
0
330
22C
345
0
346
0
  0
LAYOUT
  5
46C
102
{ACAD_REACTORS
330
1A
102
}
100
AcDbPlotSettings
  1

  2
none_device
  4

  6

 40
0.0
 41
0.0
 42
0.0
 43
0.0
 44
210.0
 45
297.0
 46
0.0
 47
0.0
 48
0.0
 49
0.0
140
0.0
141
0.0
142
1.0
143
1.0
 70
0
 72
1
 73
0
 74
0
  7

 75
0
147
1.0
148
0.0
149
0.0
100
AcDbLayout
  1
Layout1
 70
0
 71
1
 10
0.0
 20
0.0
 11
210.0
 21
297.0
 12
0.0
 22
0.0
 32
0.0
 14
0.0
 24
0.0
 34
0.0
 15
0.0
 25
0.0
 35
0.0
146
0.0
 13
0.0
 23
0.0
 33
0.0
 16
1.0
 26
0.0
 36
0.0
 17
0.0
 27
1.0
 37
0.0
 76
0
330
22D
345
0
346
0
  0
ENDSEC
  0
EOF
