999
DXF file: C:\Users\sesa63760\Dev\_Creo\CAD\MCADID0000687_3D-CAD\drw0001_4.dxf
999
Pro/ENGINEER 2019471 by Parametric Technology Corporation
  0
SECTION
  2
HEADER
  9
$ACADVER
  1
AC1024
  9
$DWGCODEPAGE
  3
ANSI_1252
  9
$EXTMAX
 10
225.0030230361
 20
318.2185611511
 30
0.0
  9
$EXTMIN
 10
0.0
 20
0.0
 30
0.0
  9
$LIMMIN
 10
0.0
 20
0.0
  9
$LIMMAX
 10
225.0030230361
 20
318.2185611511
  9
$VIEWCTR
 10
112.5015115181
 20
159.1092805755
  9
$VIEWSIZE
 40
318.2185611511
  9
$CLAYER
  8
0
  9
$LTSCALE
 40
20.743135838
  9
$CELTYPE
  6
BYLAYER
  9
$DIMSCALE
 40
1.0
  9
$DIMASZ
 40
2.6786074171
  9
$DIMEXO
 40
1.0
  9
$DIMDLI
 40
14.3316211244
  9
$DIMEXE
 40
1.0
  9
$DIMCEN
 40
3.3943313189
  9
$DIMLFAC
 40
1.0
  9
$DIMBLK
  1
_FILLED
  9
$DIMALT
 70
0
  9
$DIMALTF
 40
0.0393700787
  9
$DIMTXT
 40
3.7500503839
  9
$DIMTOL
 70
1
  9
$DIMLIM
 70
0
  9
$DIMTFAC
 40
1.0
  9
$DIMTP
 40
0.01
  9
$DIMTM
 40
0.01
  9
$DIMGAP
 40
0.625
  9
$DIMDSEP
 70
46
  9
$AUNITS
 70
0
  9
$PDMODE
 70
3
  9
$PDSIZE
 40
0.3125
  9
$HANDSEED
  5
5DA
  9
$TILEMODE
 70
1
  9
$MEASUREMENT
 70
1
  9
$INSUNITS
 70
4
  0
ENDSEC
  0
SECTION
  2
CLASSES
  0
CLASS
  1
ACDBDICTIONARYWDFLT
  2
AcDbDictionaryWithDefault
  3
AutoCAD 2000
 90
0
 91
1
280
0
281
0
  0
CLASS
  1
ACDBPLACEHOLDER
  2
AcDbPlaceHolder
  3
AutoCAD 2000
 90
0
 91
1
280
0
281
0
  0
CLASS
  1
LAYOUT
  2
AcDbLayout
  3
AutoCAD 2000
 90
0
 91
0
280
0
281
0
  0
ENDSEC
  0
SECTION
  2
TABLES
  0
TABLE
  2
VPORT
  5
8
100
AcDbSymbolTable
 70
2
  0
VPORT
  5
1F4
100
AcDbSymbolTableRecord
100
AcDbViewportTableRecord
  2
*ACTIVE
 70
0
 10
0.0
 20
0.0
 11
1.0
 21
1.0
 12
112.5015115181
 22
159.1092805755
 13
0.0
 23
0.0
 14
1.0
 24
1.0
 15
0.0
 25
0.0
 16
0.0
 26
0.0
 36
1.0
 17
0.0
 27
0.0
 37
0.0
 40
318.2185611511
 41
0.7070707071
 42
50.0
 43
0.0
 44
0.0
 50
0.0
 51
0.0
 71
0
 72
100
 73
1
 74
1
 75
0
 76
0
 77
0
 78
0
  0
ENDTAB
  0
TABLE
  2
LTYPE
  5
5
100
AcDbSymbolTable
 70
6
  0
LTYPE
  5
14
100
AcDbSymbolTableRecord
100
AcDbLinetypeTableRecord
  2
BYBLOCK
 70
0
  3

 72
65
 73
0
 40
0.0
  0
LTYPE
  5
15
100
AcDbSymbolTableRecord
100
AcDbLinetypeTableRecord
  2
BYLAYER
 70
0
  3

 72
65
 73
0
 40
0.0
  0
LTYPE
  5
16
100
AcDbSymbolTableRecord
100
AcDbLinetypeTableRecord
  2
CONTINUOUS
 70
64
  3
Solid line
 72
65
 73
0
 40
0.0
  0
LTYPE
  5
1F5
100
AcDbSymbolTableRecord
100
AcDbLinetypeTableRecord
  2
CENTER
 70
64
  3
____ _ ____ _ ____ _ ____ _ ____ _ ____ _ ____
 72
65
 73
4
 40
0.6
 49
0.375
 74
0
 49
-0.075
 74
0
 49
0.075
 74
0
 49
-0.075
 74
0
  0
LTYPE
  5
1F6
100
AcDbSymbolTableRecord
100
AcDbLinetypeTableRecord
  2
HIDDEN
 70
64
  3
- - - - - - - - - - - - - - - - - - - -
 72
65
 73
2
 40
0.2
 49
0.1
 74
0
 49
-0.1
 74
0
  0
LTYPE
  5
1F7
100
AcDbSymbolTableRecord
100
AcDbLinetypeTableRecord
  2
PHANTOM
 70
64
  3
_____ _ _ _____ _ _ _____ _ _ _____
 72
65
 73
6
 40
0.8
 49
0.45
 74
0
 49
-0.05
 74
0
 49
0.1
 74
0
 49
-0.05
 74
0
 49
0.1
 74
0
 49
-0.05
 74
0
  0
LTYPE
  5
1F8
100
AcDbSymbolTableRecord
100
AcDbLinetypeTableRecord
  2
DOT
 70
64
  3
. . . . . . . . . . . . . . . . . . . .
 72
65
 73
2
 40
0.2
 49
0.1
 74
0
 49
-0.1
 74
0
  0
LTYPE
  5
1F9
100
AcDbSymbolTableRecord
100
AcDbLinetypeTableRecord
  2
DASHED
 70
64
  3
- - - - - - - - - - - - - - - - - - - -
 72
65
 73
2
 40
0.2
 49
0.1
 74
0
 49
-0.1
 74
0
  0
ENDTAB
  0
TABLE
  2
LAYER
  5
2
100
AcDbSymbolTable
 70
36
  0
LAYER
  5
10
100
AcDbSymbolTableRecord
100
AcDbLayerTableRecord
  2
0
 70
0
 62
7
  6
CONTINUOUS
370
-3
390
F
  0
LAYER
  5
1FA
100
AcDbSymbolTableRecord
100
AcDbLayerTableRecord
  2
DEFAULT_1
 70
0
 62
7
  6
CENTER
370
-3
390
F
  0
LAYER
  5
1FB
100
AcDbSymbolTableRecord
100
AcDbLayerTableRecord
  2
DEFAULT_2
 70
0
 62
8
  6
HIDDEN
370
-3
390
F
  0
LAYER
  5
1FC
100
AcDbSymbolTableRecord
100
AcDbLayerTableRecord
  2
DEFAULT_3
 70
0
 62
7
  6
PHANTOM
370
-3
390
F
  0
LAYER
  5
1FD
100
AcDbSymbolTableRecord
100
AcDbLayerTableRecord
  2
00_COMPONENTS
 70
0
 62
7
  6
CONTINUOUS
370
-3
390
F
  0
LAYER
  5
1FE
100
AcDbSymbolTableRecord
100
AcDbLayerTableRecord
  2
01_1_DEFAULT_DATUMS
 70
0
 62
7
  6
CONTINUOUS
370
-3
390
F
  0
LAYER
  5
1FF
100
AcDbSymbolTableRecord
100
AcDbLayerTableRecord
  2
01_PLANES
 70
0
 62
7
  6
CONTINUOUS
370
-3
390
F
  0
LAYER
  5
200
100
AcDbSymbolTableRecord
100
AcDbLayerTableRecord
  2
02_COORD_SYS
 70
0
 62
7
  6
CONTINUOUS
370
-3
390
F
  0
LAYER
  5
201
100
AcDbSymbolTableRecord
100
AcDbLayerTableRecord
  2
03_AXES
 70
0
 62
7
  6
CONTINUOUS
370
-3
390
F
  0
LAYER
  5
202
100
AcDbSymbolTableRecord
100
AcDbLayerTableRecord
  2
04_POINTS
 70
0
 62
7
  6
CONTINUOUS
370
-3
390
F
  0
LAYER
  5
203
100
AcDbSymbolTableRecord
100
AcDbLayerTableRecord
  2
05_CURVES
 70
0
 62
7
  6
CONTINUOUS
370
-3
390
F
  0
LAYER
  5
204
100
AcDbSymbolTableRecord
100
AcDbLayerTableRecord
  2
06_SURFS
 70
0
 62
7
  6
CONTINUOUS
370
-3
390
F
  0
LAYER
  5
205
100
AcDbSymbolTableRecord
100
AcDbLayerTableRecord
  2
07_COSMETICS
 70
0
 62
7
  6
CONTINUOUS
370
-3
390
F
  0
LAYER
  5
206
100
AcDbSymbolTableRecord
100
AcDbLayerTableRecord
  2
10_NOTES
 70
0
 62
7
  6
CONTINUOUS
370
-3
390
F
  0
LAYER
  5
207
100
AcDbSymbolTableRecord
100
AcDbLayerTableRecord
  2
11_NOTES_PUB
 70
0
 62
7
  6
CONTINUOUS
370
-3
390
F
  0
LAYER
  5
208
100
AcDbSymbolTableRecord
100
AcDbLayerTableRecord
  2
13_REF_GTOL
 70
0
 62
7
  6
CONTINUOUS
370
-3
390
F
  0
LAYER
  5
209
100
AcDbSymbolTableRecord
100
AcDbLayerTableRecord
  2
16_MISC
 70
0
 62
7
  6
CONTINUOUS
370
-3
390
F
  0
LAYER
  5
20A
100
AcDbSymbolTableRecord
100
AcDbLayerTableRecord
  2
17_NO_PRINT
 70
0
 62
7
  6
CONTINUOUS
370
-3
390
F
  0
LAYER
  5
20B
100
AcDbSymbolTableRecord
100
AcDbLayerTableRecord
  2
18_DATUM_CAMS_JOINTS
 70
0
 62
7
  6
CONTINUOUS
370
-3
390
F
  0
LAYER
  5
20C
100
AcDbSymbolTableRecord
100
AcDbLayerTableRecord
  2
19_DATUM_FUNCTIONAL
 70
0
 62
7
  6
CONTINUOUS
370
-3
390
F
  0
LAYER
  5
20D
100
AcDbSymbolTableRecord
100
AcDbLayerTableRecord
  2
20_DATUM_KINEMATIC_SCHEME
 70
0
 62
7
  6
CONTINUOUS
370
-3
390
F
  0
LAYER
  5
20E
100
AcDbSymbolTableRecord
100
AcDbLayerTableRecord
  2
_1
 70
0
 62
7
  6
CONTINUOUS
370
-3
390
F
  0
ENDTAB
  0
TABLE
  2
STYLE
  5
3
100
AcDbSymbolTable
 70
1
  0
STYLE
  5
11
100
AcDbSymbolTableRecord
100
AcDbTextStyleTableRecord
  2
STANDARD
 70
0
 40
0.0
 41
0.8
 50
0.0
 71
0
 42
0.2
  3
txt
  4

  0
STYLE
  5
20F
100
AcDbSymbolTableRecord
100
AcDbTextStyleTableRecord
  2
TEXTSTYLE_1
 70
0
 40
0.0
 41
0.8
 50
0.0
 71
0
 42
0.2
  3
gdt
  4

  0
ENDTAB
  0
TABLE
  2
VIEW
  5
6
100
AcDbSymbolTable
 70
0
  0
ENDTAB
  0
TABLE
  2
UCS
  5
7
100
AcDbSymbolTable
 70
0
  0
ENDTAB
  0
TABLE
  2
APPID
  5
9
100
AcDbSymbolTable
 70
1
  0
APPID
  5
210
100
AcDbSymbolTableRecord
100
AcDbRegAppTableRecord
  2
ACAD
 70
0
  0
ENDTAB
  0
TABLE
  2
BLOCK_RECORD
  5
1
100
AcDbSymbolTable
 70
0
  0
BLOCK_RECORD
  5
211
100
AcDbSymbolTableRecord
100
AcDbBlockTableRecord
  2
*Model_Space
  0
BLOCK_RECORD
  5
212
100
AcDbSymbolTableRecord
100
AcDbBlockTableRecord
  2
*Paper_Space
  0
BLOCK_RECORD
  5
213
100
AcDbSymbolTableRecord
100
AcDbBlockTableRecord
  2
_FILLED
  0
ENDTAB
  0
TABLE
  2
DIMSTYLE
  5
A
100
AcDbSymbolTable
 70
1
100
AcDbDimStyleTable
 71
0
  0
DIMSTYLE
105
214
100
AcDbSymbolTableRecord
100
AcDbDimStyleTableRecord
  2
STANDARD
 70
0
  3

  4

 40
1.0
 41
2.6786074171
 42
1.0
 43
0.38
 44
1.0
 45
0.0
 46
0.0
 47
0.01
 48
0.01
140
3.7500503839
141
0.09
142
0.0
143
25.4
144
1.0
145
0.0
146
1.0
147
0.625
 71
1
 72
0
 73
0
 74
0
 75
0
 76
0
 77
1
 78
8
 79
2
170
0
171
1
172
0
173
0
174
0
175
0
176
0
177
0
178
0
270
2
179
2
271
2
272
2
273
2
274
2
275
0
280
0
281
0
282
0
283
1
284
8
285
0
286
0
287
3
288
0
340
11
278
46
341
213
342
213
343
213
344
213
  0
ENDTAB
  0
ENDSEC
  0
SECTION
  2
BLOCKS
  0
BLOCK
  5
20
100
AcDbEntity
  8
0
100
AcDbBlockBegin
  2
*Model_Space
 70
0
 10
0.0
 20
0.0
 30
0.0
  3
*Model_Space
  1

  0
ENDBLK
  5
21
100
AcDbEntity
  8
0
100
AcDbBlockEnd
  0
BLOCK
  5
1C
100
AcDbEntity
  8
0
100
AcDbBlockBegin
  2
*Paper_Space
 70
0
 10
0.0
 20
0.0
 30
0.0
  3
*Paper_Space
  1

  0
ENDBLK
  5
1D
100
AcDbEntity
  8
0
100
AcDbBlockEnd
  0
BLOCK
  5
215
100
AcDbEntity
  8
0
100
AcDbBlockBegin
  2
_FILLED
 70
64
 10
0.0
 20
0.0
  3
_FILLED
  1

  0
SOLID
  5
216
100
AcDbEntity
  8
0
  6
BYBLOCK
 62
0
100
AcDbTrace
 10
0.0
 20
0.0
 11
-1.0
 21
0.25
 12
-1.0
 22
-0.25
 13
-1.0
 23
-0.25
  0
ENDBLK
  5
217
100
AcDbEntity
  8
0
  6
BYBLOCK
 62
0
100
AcDbBlockEnd
  0
ENDSEC
  0
SECTION
  2
ENTITIES
  0
LINE
  5
218
100
AcDbEntity
  8
0
100
AcDbLine
 62
7
  6
CONTINUOUS
 10
83.4227345396
 20
22.7855395683
 11
100.572111925
 21
22.7855395683
  0
LINE
  5
219
100
AcDbEntity
  8
0
100
AcDbLine
 62
7
  6
CONTINUOUS
 10
107.4227345396
 20
22.7855395683
 11
127.4227345396
 21
22.7855395683
  0
LINE
  5
21A
100
AcDbEntity
  8
0
100
AcDbLine
 62
7
  6
CONTINUOUS
 10
105.3133385449
 20
24.8855395683
 11
107.4227345396
 21
24.8855395683
  0
LINE
  5
21B
100
AcDbEntity
  8
0
100
AcDbLine
 62
7
  6
CONTINUOUS
 10
127.4227345396
 20
24.8855395683
 11
127.8133385449
 21
24.8855395683
  0
LINE
  5
21C
100
AcDbEntity
  8
0
100
AcDbLine
 62
7
  6
CONTINUOUS
 10
106.3133385449
 20
25.8855395683
 11
107.4227345396
 21
25.8855395683
  0
LINE
  5
21D
100
AcDbEntity
  8
0
100
AcDbLine
 62
7
  6
CONTINUOUS
 10
127.4227345396
 20
25.8855395683
 11
127.8133385449
 21
25.8855395683
  0
LINE
  5
21E
100
AcDbEntity
  8
0
100
AcDbLine
 62
7
  6
CONTINUOUS
 10
127.4235903315
 20
27.3855395683
 11
127.8133385449
 21
27.3855395683
  0
LINE
  5
21F
100
AcDbEntity
  8
0
100
AcDbLine
 62
7
  6
CONTINUOUS
 10
83.4227345396
 20
30.2855395683
 11
83.3227345396
 21
30.2855395683
  0
LINE
  5
220
100
AcDbEntity
  8
0
100
AcDbLine
 62
7
  6
CONTINUOUS
 10
119.7650781867
 20
30.3431959212
 11
119.0803908925
 21
30.3431959212
  0
LINE
  5
221
100
AcDbEntity
  8
0
100
AcDbLine
 62
7
  6
CONTINUOUS
 10
119.9227345396
 20
32.4431959212
 11
119.7650781867
 21
32.4431959212
  0
LINE
  5
222
100
AcDbEntity
  8
0
100
AcDbLine
 62
7
  6
CONTINUOUS
 10
119.0803908925
 20
32.4431959212
 11
118.9227345396
 21
32.4431959212
  0
LINE
  5
223
100
AcDbEntity
  8
0
100
AcDbLine
 62
7
  6
CONTINUOUS
 10
117.0119221631
 20
32.4747271918
 11
118.9227345396
 21
32.4747271918
  0
LINE
  5
224
100
AcDbEntity
  8
0
100
AcDbLine
 62
7
  6
CONTINUOUS
 10
119.9227345396
 20
32.4747271918
 11
121.8335469162
 21
32.4747271918
  0
LINE
  5
225
100
AcDbEntity
  8
0
100
AcDbLine
 62
7
  6
CONTINUOUS
 10
117.3227345396
 20
32.7855395683
 11
121.5227345396
 21
32.7855395683
  0
LINE
  5
226
100
AcDbEntity
  8
0
100
AcDbLine
 62
7
  6
CONTINUOUS
 10
117.0119221631
 20
33.0963519449
 11
118.9227345396
 21
33.0963519449
  0
LINE
  5
227
100
AcDbEntity
  8
0
100
AcDbLine
 62
7
  6
CONTINUOUS
 10
119.9227345396
 20
33.0963519449
 11
121.8335469162
 21
33.0963519449
  0
LINE
  5
228
100
AcDbEntity
  8
0
100
AcDbLine
 62
7
  6
CONTINUOUS
 10
119.9227345396
 20
33.1278832154
 11
119.7650781867
 21
33.1278832154
  0
LINE
  5
229
100
AcDbEntity
  8
0
100
AcDbLine
 62
7
  6
CONTINUOUS
 10
119.0803908925
 20
33.1278832154
 11
118.9227345396
 21
33.1278832154
  0
LINE
  5
22A
100
AcDbEntity
  8
0
100
AcDbLine
 62
7
  6
CONTINUOUS
 10
97.1727345396
 20
34.7855395683
 11
106.7942349049
 21
34.7855395683
  0
LINE
  5
22B
100
AcDbEntity
  8
0
100
AcDbLine
 62
7
  6
CONTINUOUS
 10
119.7650781867
 20
35.2278832154
 11
119.0803908925
 21
35.2278832154
  0
LINE
  5
22C
100
AcDbEntity
  8
0
100
AcDbLine
 62
7
  6
CONTINUOUS
 10
83.4227345396
 20
35.2855395683
 11
83.3227345396
 21
35.2855395683
  0
LINE
  5
22D
100
AcDbEntity
  8
0
100
AcDbLine
 62
7
  6
CONTINUOUS
 10
127.8133385449
 20
38.1855395683
 11
127.4235903315
 21
38.1855395683
  0
LINE
  5
22E
100
AcDbEntity
  8
0
100
AcDbLine
 62
7
  6
CONTINUOUS
 10
127.8133385449
 20
39.6855395683
 11
127.4227345396
 21
39.6855395683
  0
LINE
  5
22F
100
AcDbEntity
  8
0
100
AcDbLine
 62
7
  6
CONTINUOUS
 10
106.3133385449
 20
39.6855395683
 11
107.4227345396
 21
39.6855395683
  0
LINE
  5
230
100
AcDbEntity
  8
0
100
AcDbLine
 62
7
  6
CONTINUOUS
 10
127.8133385449
 20
40.6855395683
 11
127.4227345396
 21
40.6855395683
  0
LINE
  5
231
100
AcDbEntity
  8
0
100
AcDbLine
 62
7
  6
CONTINUOUS
 10
105.3133385449
 20
40.6855395683
 11
107.4227345396
 21
40.6855395683
  0
LINE
  5
232
100
AcDbEntity
  8
0
100
AcDbLine
 62
7
  6
CONTINUOUS
 10
107.4227345396
 20
42.2855395683
 11
101.1727345396
 21
42.2855395683
  0
LINE
  5
233
100
AcDbEntity
  8
0
100
AcDbLine
 62
7
  6
CONTINUOUS
 10
81.4227345396
 20
42.7855395683
 11
149.4227345396
 21
42.7855395683
  0
LINE
  5
234
100
AcDbEntity
  8
0
100
AcDbLine
 62
7
  6
CONTINUOUS
 10
109.6727345396
 20
45.5355395683
 11
121.1727345396
 21
45.5355395683
  0
LINE
  5
235
100
AcDbEntity
  8
0
100
AcDbLine
 62
7
  6
CONTINUOUS
 10
120.9227345396
 20
45.7855395683
 11
109.9227345396
 21
45.7855395683
  0
LINE
  5
236
100
AcDbEntity
  8
0
100
AcDbLine
 62
7
  6
CONTINUOUS
 10
109.6727345396
 20
46.7855395683
 11
109.9227345396
 21
46.7855395683
  0
LINE
  5
237
100
AcDbEntity
  8
0
100
AcDbLine
 62
7
  6
CONTINUOUS
 10
120.9227345396
 20
46.7855395683
 11
121.1727345396
 21
46.7855395683
  0
LINE
  5
238
100
AcDbEntity
  8
0
100
AcDbLine
 62
7
  6
CONTINUOUS
 10
115.0803908925
 20
48.8431959212
 11
115.7650781867
 21
48.8431959212
  0
LINE
  5
239
100
AcDbEntity
  8
0
100
AcDbLine
 62
7
  6
CONTINUOUS
 10
114.9227345396
 20
50.9431959212
 11
115.0803908925
 21
50.9431959212
  0
LINE
  5
23A
100
AcDbEntity
  8
0
100
AcDbLine
 62
7
  6
CONTINUOUS
 10
115.7650781867
 20
50.9431959212
 11
115.9227345396
 21
50.9431959212
  0
LINE
  5
23B
100
AcDbEntity
  8
0
100
AcDbLine
 62
7
  6
CONTINUOUS
 10
117.8335469162
 20
50.9747271918
 11
115.9227345396
 21
50.9747271918
  0
LINE
  5
23C
100
AcDbEntity
  8
0
100
AcDbLine
 62
7
  6
CONTINUOUS
 10
114.9227345396
 20
50.9747271918
 11
113.0119221631
 21
50.9747271918
  0
LINE
  5
23D
100
AcDbEntity
  8
0
100
AcDbLine
 62
7
  6
CONTINUOUS
 10
113.3227345396
 20
51.2855395683
 11
117.5227345396
 21
51.2855395683
  0
LINE
  5
23E
100
AcDbEntity
  8
0
100
AcDbLine
 62
7
  6
CONTINUOUS
 10
117.8335469162
 20
51.5963519449
 11
115.9227345396
 21
51.5963519449
  0
LINE
  5
23F
100
AcDbEntity
  8
0
100
AcDbLine
 62
7
  6
CONTINUOUS
 10
114.9227345396
 20
51.5963519449
 11
113.0119221631
 21
51.5963519449
  0
LINE
  5
240
100
AcDbEntity
  8
0
100
AcDbLine
 62
7
  6
CONTINUOUS
 10
114.9227345396
 20
51.6278832154
 11
115.0803908925
 21
51.6278832154
  0
LINE
  5
241
100
AcDbEntity
  8
0
100
AcDbLine
 62
7
  6
CONTINUOUS
 10
115.7650781867
 20
51.6278832154
 11
115.9227345396
 21
51.6278832154
  0
LINE
  5
242
100
AcDbEntity
  8
0
100
AcDbLine
 62
7
  6
CONTINUOUS
 10
89.5727345396
 20
52.7855395683
 11
104.8727345396
 21
52.7855395683
  0
LINE
  5
243
100
AcDbEntity
  8
0
100
AcDbLine
 62
7
  6
CONTINUOUS
 10
115.0803908925
 20
53.7278832154
 11
115.7650781867
 21
53.7278832154
  0
LINE
  5
244
100
AcDbEntity
  8
_1
100
AcDbLine
 62
7
  6
CONTINUOUS
 10
90.3738877257
 20
53.9055395683
 11
104.1738877257
 21
53.9055395683
  0
LINE
  5
245
100
AcDbEntity
  8
_1
100
AcDbLine
 62
7
  6
CONTINUOUS
 10
90.3738877257
 20
54.9555395683
 11
104.1738877257
 21
54.9555395683
  0
LINE
  5
246
100
AcDbEntity
  8
0
100
AcDbLine
 62
7
  6
CONTINUOUS
 10
116.636191937
 20
56.9605395683
 11
114.2070667977
 21
56.9605395683
  0
LINE
  5
247
100
AcDbEntity
  8
0
100
AcDbLine
 62
7
  6
CONTINUOUS
 10
104.8727345396
 20
56.9605395683
 11
104.1738877257
 21
56.9605395683
  0
LINE
  5
248
100
AcDbEntity
  8
0
100
AcDbLine
 62
7
  6
CONTINUOUS
 10
90.3738877257
 20
57.9855395683
 11
89.5727345396
 21
57.9855395683
  0
LINE
  5
249
100
AcDbEntity
  8
_1
100
AcDbLine
 62
7
  6
CONTINUOUS
 10
89.8738877257
 20
58.3555395683
 11
107.9738877257
 21
58.3555395683
  0
LINE
  5
24A
100
AcDbEntity
  8
_1
100
AcDbLine
 62
7
  6
CONTINUOUS
 10
107.9738877257
 20
59.1755395683
 11
110.5738877257
 21
59.1755395683
  0
LINE
  5
24B
100
AcDbEntity
  8
_1
100
AcDbLine
 62
7
  6
CONTINUOUS
 10
107.9738877257
 20
65.1755395683
 11
110.5738877257
 21
65.1755395683
  0
LINE
  5
24C
100
AcDbEntity
  8
_1
100
AcDbLine
 62
7
  6
CONTINUOUS
 10
107.9738877257
 20
66.7955395683
 11
110.5738877257
 21
66.7955395683
  0
LINE
  5
24D
100
AcDbEntity
  8
_1
100
AcDbLine
 62
7
  6
CONTINUOUS
 10
124.0027345396
 20
67.1255395683
 11
114.5027345396
 21
67.1255395683
  0
LINE
  5
24E
100
AcDbEntity
  8
0
100
AcDbLine
 62
7
  6
CONTINUOUS
 10
112.2227345396
 20
68.2855395683
 11
114.5027345396
 21
68.2855395683
  0
LINE
  5
24F
100
AcDbEntity
  8
0
100
AcDbLine
 62
7
  6
CONTINUOUS
 10
114.5027345396
 20
68.7855395683
 11
112.2227345396
 21
68.7855395683
  0
LINE
  5
250
100
AcDbEntity
  8
_1
100
AcDbLine
 62
7
  6
CONTINUOUS
 10
124.0027345396
 20
69.8814226175
 11
114.5027345396
 21
69.8814226175
  0
LINE
  5
251
100
AcDbEntity
  8
0
100
AcDbLine
 62
7
  6
CONTINUOUS
 10
110.8227345396
 20
71.5855395683
 11
112.2227345396
 21
71.5855395683
  0
LINE
  5
252
100
AcDbEntity
  8
0
100
AcDbLine
 62
7
  6
CONTINUOUS
 10
114.322734539
 20
72.1055395681
 11
114.5027345396
 21
72.1055395681
  0
LINE
  5
253
100
AcDbEntity
  8
_1
100
AcDbLine
 62
7
  6
CONTINUOUS
 10
107.9738877257
 20
72.7955395683
 11
110.5738877257
 21
72.7955395683
  0
LINE
  5
254
100
AcDbEntity
  8
0
100
AcDbLine
 62
7
  6
CONTINUOUS
 10
114.5027345396
 20
73.1055395683
 11
112.2527345396
 21
73.1055395683
  0
LINE
  5
255
100
AcDbEntity
  8
0
100
AcDbLine
 62
7
  6
CONTINUOUS
 10
113.9127345396
 20
73.6055395683
 11
114.5027345396
 21
73.6055395683
  0
LINE
  5
256
100
AcDbEntity
  8
_1
100
AcDbLine
 62
7
  6
CONTINUOUS
 10
111.0027345396
 20
73.6255395683
 11
126.0027345396
 21
73.6255395683
  0
LINE
  5
257
100
AcDbEntity
  8
_1
100
AcDbLine
 62
7
  6
CONTINUOUS
 10
107.9738877257
 20
74.4155395683
 11
110.5738877257
 21
74.4155395683
  0
LINE
  5
258
100
AcDbEntity
  8
0
100
AcDbLine
 62
7
  6
CONTINUOUS
 10
119.7335469162
 20
30.3747271918
 11
119.4227345396
 21
30.6855395683
  0
LINE
  5
259
100
AcDbEntity
  8
0
100
AcDbLine
 62
7
  6
CONTINUOUS
 10
116.8609492572
 20
33.2473248508
 11
117.3227345396
 21
32.7855395683
  0
LINE
  5
25A
100
AcDbEntity
  8
0
100
AcDbLine
 62
7
  6
CONTINUOUS
 10
119.1119221631
 20
33.0963519449
 11
119.7335469162
 21
32.4747271918
  0
LINE
  5
25B
100
AcDbEntity
  8
0
100
AcDbLine
 62
7
  6
CONTINUOUS
 10
121.9845198221
 20
32.3237542859
 11
121.5227345396
 21
32.7855395683
  0
LINE
  5
25C
100
AcDbEntity
  8
0
100
AcDbLine
 62
7
  6
CONTINUOUS
 10
119.1119221631
 20
35.1963519449
 11
119.4227345396
 21
34.8855395683
  0
LINE
  5
25D
100
AcDbEntity
  8
_1
100
AcDbLine
 62
7
  6
CONTINUOUS
 10
107.9738877257
 20
80.4155395683
 11
110.5738877257
 21
80.4155395683
  0
LINE
  5
25E
100
AcDbEntity
  8
_1
100
AcDbLine
 62
7
  6
CONTINUOUS
 10
107.9738877257
 20
82.0355395683
 11
110.5738877257
 21
82.0355395683
  0
LINE
  5
25F
100
AcDbEntity
  8
_1
100
AcDbLine
 62
7
  6
CONTINUOUS
 10
126.0027345396
 20
83.9255395683
 11
111.0027345396
 21
83.9255395683
  0
LINE
  5
260
100
AcDbEntity
  8
0
100
AcDbLine
 62
7
  6
CONTINUOUS
 10
114.5027345396
 20
83.9655395683
 11
113.9127345396
 21
83.9655395683
  0
LINE
  5
261
100
AcDbEntity
  8
0
100
AcDbLine
 62
7
  6
CONTINUOUS
 10
112.2527345396
 20
84.4655395683
 11
114.5027345396
 21
84.4655395683
  0
LINE
  5
262
100
AcDbEntity
  8
0
100
AcDbLine
 62
7
  6
CONTINUOUS
 10
115.7335469162
 20
48.8747271918
 11
115.4227345396
 21
49.1855395683
  0
LINE
  5
263
100
AcDbEntity
  8
0
100
AcDbLine
 62
7
  6
CONTINUOUS
 10
112.8609492572
 20
51.7473248508
 11
113.3227345396
 21
51.2855395683
  0
LINE
  5
264
100
AcDbEntity
  8
0
100
AcDbLine
 62
7
  6
CONTINUOUS
 10
115.1119221631
 20
51.5963519449
 11
115.7335469162
 21
50.9747271918
  0
LINE
  5
265
100
AcDbEntity
  8
0
100
AcDbLine
 62
7
  6
CONTINUOUS
 10
117.9845198221
 20
50.8237542859
 11
117.5227345396
 21
51.2855395683
  0
LINE
  5
266
100
AcDbEntity
  8
0
100
AcDbLine
 62
7
  6
CONTINUOUS
 10
115.1119221631
 20
53.6963519449
 11
115.4227345396
 21
53.3855395683
  0
LINE
  5
267
100
AcDbEntity
  8
0
100
AcDbLine
 62
7
  6
CONTINUOUS
 10
86.1687345396
 20
229.5805395683
 11
86.3083750591
 21
229.7201800878
  0
LINE
  5
268
100
AcDbEntity
  8
0
100
AcDbLine
 62
7
  6
CONTINUOUS
 10
91.4890940202
 20
231.8508990489
 11
91.6287345396
 21
231.9905395683
  0
LINE
  5
269
100
AcDbEntity
  8
0
100
AcDbLine
 62
7
  6
CONTINUOUS
 10
95.1687345396
 20
229.5805395683
 11
95.3083750591
 21
229.7201800878
  0
LINE
  5
26A
100
AcDbEntity
  8
0
100
AcDbLine
 62
7
  6
CONTINUOUS
 10
90.2125881968
 20
225.1867471589
 11
90.333514425
 21
225.2975556316
  0
LINE
  5
26B
100
AcDbEntity
  8
0
100
AcDbLine
 62
7
  6
CONTINUOUS
 10
90.4441745316
 20
225.398956937
 11
90.5387349196
 21
225.4856055683
  0
LINE
  5
26C
100
AcDbEntity
  8
0
100
AcDbLine
 62
7
  6
CONTINUOUS
 10
114.322734539
 20
85.4655395686
 11
114.5027345396
 21
85.4655395686
  0
LINE
  5
26D
100
AcDbEntity
  8
0
100
AcDbLine
 62
7
  6
CONTINUOUS
 10
112.2227345396
 20
85.9855395683
 11
110.8227345396
 21
85.9855395683
  0
LINE
  5
26E
100
AcDbEntity
  8
_1
100
AcDbLine
 62
7
  6
CONTINUOUS
 10
124.0027345396
 20
87.6696565192
 11
114.5027345396
 21
87.6696565192
  0
LINE
  5
26F
100
AcDbEntity
  8
_1
100
AcDbLine
 62
7
  6
CONTINUOUS
 10
107.9738877257
 20
88.0355395683
 11
110.5738877257
 21
88.0355395683
  0
LINE
  5
270
100
AcDbEntity
  8
_1
100
AcDbLine
 62
7
  6
CONTINUOUS
 10
89.8738877257
 20
88.8555395683
 11
107.9738877257
 21
88.8555395683
  0
LINE
  5
271
100
AcDbEntity
  8
0
100
AcDbLine
 62
7
  6
CONTINUOUS
 10
90.0227345396
 20
89.0155395683
 11
90.3738877257
 21
89.0155395683
  0
LINE
  5
272
100
AcDbEntity
  8
0
100
AcDbLine
 62
7
  6
CONTINUOUS
 10
104.1738877257
 20
89.0155395683
 11
104.3227345396
 21
89.0155395683
  0
LINE
  5
273
100
AcDbEntity
  8
0
100
AcDbLine
 62
7
  6
CONTINUOUS
 10
114.5027345396
 20
89.2855395683
 11
112.2227345396
 21
89.2855395683
  0
LINE
  5
274
100
AcDbEntity
  8
0
100
AcDbLine
 62
7
  6
CONTINUOUS
 10
89.5727345396
 20
89.7855395683
 11
90.3738877257
 21
89.7855395683
  0
LINE
  5
275
100
AcDbEntity
  8
_1
100
AcDbLine
 62
7
  6
CONTINUOUS
 10
124.0027345396
 20
90.4255395683
 11
114.5027345396
 21
90.4255395683
  0
LINE
  5
276
100
AcDbEntity
  8
0
100
AcDbLine
 62
7
  6
CONTINUOUS
 10
104.1738877257
 20
91.1855395683
 11
104.8727345396
 21
91.1855395683
  0
LINE
  5
277
100
AcDbEntity
  8
_1
100
AcDbLine
 62
7
  6
CONTINUOUS
 10
90.3738877257
 20
92.2555395683
 11
104.1738877257
 21
92.2555395683
  0
LINE
  5
278
100
AcDbEntity
  8
_1
100
AcDbLine
 62
7
  6
CONTINUOUS
 10
90.3738877257
 20
93.3055395683
 11
104.1738877257
 21
93.3055395683
  0
LINE
  5
279
100
AcDbEntity
  8
0
100
AcDbLine
 62
7
  6
CONTINUOUS
 10
100.4890940202
 20
231.8508990489
 11
100.6287345396
 21
231.9905395683
  0
LINE
  5
27A
100
AcDbEntity
  8
0
100
AcDbLine
 62
7
  6
CONTINUOUS
 10
104.1686545396
 20
229.5805875683
 11
104.3082950591
 21
229.7202280878
  0
LINE
  5
27B
100
AcDbEntity
  8
0
100
AcDbLine
 62
7
  6
CONTINUOUS
 10
109.4890140202
 20
231.8509470489
 11
109.6286545396
 21
231.9905875683
  0
LINE
  5
27C
100
AcDbEntity
  8
0
100
AcDbLine
 62
7
  6
CONTINUOUS
 10
94.0274156569
 20
225.4055020106
 11
93.0766911137
 21
224.4856055683
  0
LINE
  5
27D
100
AcDbEntity
  8
0
100
AcDbLine
 62
7
  6
CONTINUOUS
 10
90.9773534562
 20
222.4543408282
 11
90.4030224137
 21
221.8986329878
  0
LINE
  5
27E
100
AcDbEntity
  8
0
100
AcDbLine
 62
7
  6
CONTINUOUS
 10
89.8607504772
 20
221.1652236218
 11
90.3939883296
 21
221.6811707559
  0
LINE
  5
27F
100
AcDbEntity
  8
0
100
AcDbLine
 62
7
  6
CONTINUOUS
 10
90.5019230218
 20
221.7856055683
 11
91.0186793106
 21
222.2856055683
  0
LINE
  5
280
100
AcDbEntity
  8
0
100
AcDbLine
 62
7
  6
CONTINUOUS
 10
93.1507109496
 20
224.3485041582
 11
94.1287915616
 21
225.294869624
  0
LINE
  5
281
100
AcDbEntity
  8
0
100
AcDbLine
 62
7
  6
CONTINUOUS
 10
100.8274156569
 20
225.4055020106
 11
99.8766911137
 21
224.4856055683
  0
LINE
  5
282
100
AcDbEntity
  8
0
100
AcDbLine
 62
7
  6
CONTINUOUS
 10
97.7773534562
 20
222.4543408282
 11
97.2030224137
 21
221.8986329878
  0
LINE
  5
283
100
AcDbEntity
  8
0
100
AcDbLine
 62
7
  6
CONTINUOUS
 10
96.6607504772
 20
221.1652236218
 11
97.1939883296
 21
221.6811707559
  0
LINE
  5
284
100
AcDbEntity
  8
0
100
AcDbLine
 62
7
  6
CONTINUOUS
 10
97.3019230218
 20
221.7856055683
 11
97.8186793106
 21
222.2856055683
  0
LINE
  5
285
100
AcDbEntity
  8
0
100
AcDbLine
 62
7
  6
CONTINUOUS
 10
99.9507109496
 20
224.3485041582
 11
100.9287915616
 21
225.294869624
  0
LINE
  5
286
100
AcDbEntity
  8
0
100
AcDbLine
 62
7
  6
CONTINUOUS
 10
93.9847551543
 20
222.4079597955
 11
93.440069869
 21
221.889207767
  0
LINE
  5
287
100
AcDbEntity
  8
0
100
AcDbLine
 62
7
  6
CONTINUOUS
 10
93.3312884281
 20
221.7856055683
 11
92.8062926157
 21
221.2856055683
  0
LINE
  5
288
100
AcDbEntity
  8
0
100
AcDbLine
 62
7
  6
CONTINUOUS
 10
90.6995629067
 20
219.2791803179
 11
89.683943491
 21
218.3119160163
  0
LINE
  5
289
100
AcDbEntity
  8
0
100
AcDbLine
 62
7
  6
CONTINUOUS
 10
89.7853008047
 20
218.2013039183
 11
90.7138101312
 21
219.0856055683
  0
LINE
  5
28A
100
AcDbEntity
  8
0
100
AcDbLine
 62
7
  6
CONTINUOUS
 10
92.8699210498
 20
221.1390609174
 11
93.4288179157
 21
221.6713478925
  0
LINE
  5
28B
100
AcDbEntity
  8
0
100
AcDbLine
 62
7
  6
CONTINUOUS
 10
100.7847551543
 20
222.4079597955
 11
100.240069869
 21
221.889207767
  0
LINE
  5
28C
100
AcDbEntity
  8
0
100
AcDbLine
 62
7
  6
CONTINUOUS
 10
100.1312884281
 20
221.7856055683
 11
99.6062926157
 21
221.2856055683
  0
LINE
  5
28D
100
AcDbEntity
  8
0
100
AcDbLine
 62
7
  6
CONTINUOUS
 10
97.4995629067
 20
219.2791803179
 11
96.483943491
 21
218.3119160163
  0
LINE
  5
28E
100
AcDbEntity
  8
0
100
AcDbLine
 62
7
  6
CONTINUOUS
 10
96.5853008047
 20
218.2013039183
 11
97.5138101312
 21
219.0856055683
  0
LINE
  5
28F
100
AcDbEntity
  8
0
100
AcDbLine
 62
7
  6
CONTINUOUS
 10
99.6699210498
 20
221.1390609174
 11
100.2288179157
 21
221.6713478925
  0
LINE
  5
290
100
AcDbEntity
  8
0
100
AcDbLine
 62
7
  6
CONTINUOUS
 10
97.0125881968
 20
225.1867471589
 11
97.133514425
 21
225.2975556316
  0
LINE
  5
291
100
AcDbEntity
  8
0
100
AcDbLine
 62
7
  6
CONTINUOUS
 10
97.2441745316
 20
225.398956937
 11
97.3387349196
 21
225.4856055683
  0
LINE
  5
292
100
AcDbEntity
  8
0
100
AcDbLine
 62
7
  6
CONTINUOUS
 10
93.6327448825
 20
218.3844639778
 11
93.5468451752
 21
218.3057513981
  0
LINE
  5
293
100
AcDbEntity
  8
0
100
AcDbLine
 62
7
  6
CONTINUOUS
 10
93.4362245026
 20
218.2043862274
 11
93.3065981597
 21
218.0856055683
  0
LINE
  5
294
100
AcDbEntity
  8
0
100
AcDbLine
 62
7
  6
CONTINUOUS
 10
104.4125881968
 20
225.1867471589
 11
104.533514425
 21
225.2975556316
  0
LINE
  5
295
100
AcDbEntity
  8
0
100
AcDbLine
 62
7
  6
CONTINUOUS
 10
104.6441745316
 20
225.398956937
 11
104.7387349196
 21
225.4856055683
  0
LINE
  5
296
100
AcDbEntity
  8
0
100
AcDbLine
 62
7
  6
CONTINUOUS
 10
89.5727345396
 20
94.7855395683
 11
104.8727345396
 21
94.7855395683
  0
LINE
  5
297
100
AcDbEntity
  8
0
100
AcDbLine
 62
7
  6
CONTINUOUS
 10
93.6727345396
 20
101.3355395683
 11
101.3727345396
 21
101.3355395683
  0
LINE
  5
298
100
AcDbEntity
  8
0
100
AcDbLine
 62
7
  6
CONTINUOUS
 10
105.6727345396
 20
101.3355395683
 11
113.3727345396
 21
101.3355395683
  0
LINE
  5
299
100
AcDbEntity
  8
0
100
AcDbLine
 62
7
  6
CONTINUOUS
 10
112.8727345396
 20
102.9355395683
 11
110.3727345396
 21
102.9355395683
  0
LINE
  5
29A
100
AcDbEntity
  8
0
100
AcDbLine
 62
7
  6
CONTINUOUS
 10
108.6727345396
 20
102.9355395683
 11
106.1727345396
 21
102.9355395683
  0
LINE
  5
29B
100
AcDbEntity
  8
0
100
AcDbLine
 62
7
  6
CONTINUOUS
 10
100.8727345396
 20
102.9355395683
 11
98.3727345396
 21
102.9355395683
  0
LINE
  5
29C
100
AcDbEntity
  8
0
100
AcDbLine
 62
7
  6
CONTINUOUS
 10
96.6727345396
 20
102.9355395683
 11
94.1727345396
 21
102.9355395683
  0
LINE
  5
29D
100
AcDbEntity
  8
0
100
AcDbLine
 62
7
  6
CONTINUOUS
 10
94.3477345396
 20
106.1705395683
 11
95.2477345396
 21
106.0118452857
  0
LINE
  5
29E
100
AcDbEntity
  8
0
100
AcDbLine
 62
7
  6
CONTINUOUS
 10
105.3133385449
 20
37.9613320711
 11
106.9385696951
 21
34.4760126109
  0
LINE
  5
29F
100
AcDbEntity
  8
0
100
AcDbLine
 62
7
  6
CONTINUOUS
 10
106.3133385449
 20
38.1830267331
 11
107.4227345396
 21
35.8039193372
  0
LINE
  5
2A0
100
AcDbEntity
  8
0
100
AcDbLine
 62
7
  6
CONTINUOUS
 10
113.1687345396
 20
229.5805395683
 11
113.3083750591
 21
229.7201800878
  0
LINE
  5
2A1
100
AcDbEntity
  8
0
100
AcDbLine
 62
7
  6
CONTINUOUS
 10
118.4890940202
 20
231.8508990489
 11
118.6287345396
 21
231.9905395683
  0
LINE
  5
2A2
100
AcDbEntity
  8
0
100
AcDbLine
 62
7
  6
CONTINUOUS
 10
108.2274156569
 20
225.4055020106
 11
107.2766911137
 21
224.4856055683
  0
LINE
  5
2A3
100
AcDbEntity
  8
0
100
AcDbLine
 62
7
  6
CONTINUOUS
 10
105.1773534562
 20
222.4543408282
 11
104.6030224137
 21
221.8986329878
  0
LINE
  5
2A4
100
AcDbEntity
  8
0
100
AcDbLine
 62
7
  6
CONTINUOUS
 10
104.0607504772
 20
221.1652236218
 11
104.5939883296
 21
221.6811707559
  0
LINE
  5
2A5
100
AcDbEntity
  8
0
100
AcDbLine
 62
7
  6
CONTINUOUS
 10
104.7019230218
 20
221.7856055683
 11
105.2186793106
 21
222.2856055683
  0
LINE
  5
2A6
100
AcDbEntity
  8
0
100
AcDbLine
 62
7
  6
CONTINUOUS
 10
107.3507109496
 20
224.3485041582
 11
108.3287915616
 21
225.294869624
  0
LINE
  5
2A7
100
AcDbEntity
  8
0
100
AcDbLine
 62
7
  6
CONTINUOUS
 10
115.0274156569
 20
225.4055020106
 11
114.0766911137
 21
224.4856055683
  0
LINE
  5
2A8
100
AcDbEntity
  8
0
100
AcDbLine
 62
7
  6
CONTINUOUS
 10
111.9773534562
 20
222.4543408282
 11
111.4030224137
 21
221.8986329878
  0
LINE
  5
2A9
100
AcDbEntity
  8
0
100
AcDbLine
 62
7
  6
CONTINUOUS
 10
110.8607504772
 20
221.1652236218
 11
111.3939883296
 21
221.6811707559
  0
LINE
  5
2AA
100
AcDbEntity
  8
0
100
AcDbLine
 62
7
  6
CONTINUOUS
 10
111.5019230218
 20
221.7856055683
 11
112.0186793106
 21
222.2856055683
  0
LINE
  5
2AB
100
AcDbEntity
  8
0
100
AcDbLine
 62
7
  6
CONTINUOUS
 10
114.1507109496
 20
224.3485041582
 11
115.1287915616
 21
225.294869624
  0
LINE
  5
2AC
100
AcDbEntity
  8
0
100
AcDbLine
 62
7
  6
CONTINUOUS
 10
108.1847551543
 20
222.4079597955
 11
107.640069869
 21
221.889207767
  0
LINE
  5
2AD
100
AcDbEntity
  8
0
100
AcDbLine
 62
7
  6
CONTINUOUS
 10
107.5312884281
 20
221.7856055683
 11
107.0062926157
 21
221.2856055683
  0
LINE
  5
2AE
100
AcDbEntity
  8
0
100
AcDbLine
 62
7
  6
CONTINUOUS
 10
104.8995629067
 20
219.2791803179
 11
103.883943491
 21
218.3119160163
  0
LINE
  5
2AF
100
AcDbEntity
  8
0
100
AcDbLine
 62
7
  6
CONTINUOUS
 10
103.9853008047
 20
218.2013039183
 11
104.9138101312
 21
219.0856055683
  0
LINE
  5
2B0
100
AcDbEntity
  8
0
100
AcDbLine
 62
7
  6
CONTINUOUS
 10
107.0699210498
 20
221.1390609174
 11
107.6288179157
 21
221.6713478925
  0
LINE
  5
2B1
100
AcDbEntity
  8
0
100
AcDbLine
 62
7
  6
CONTINUOUS
 10
114.9847551543
 20
222.4079597955
 11
114.440069869
 21
221.889207767
  0
LINE
  5
2B2
100
AcDbEntity
  8
0
100
AcDbLine
 62
7
  6
CONTINUOUS
 10
114.3312884281
 20
221.7856055683
 11
113.8062926157
 21
221.2856055683
  0
LINE
  5
2B3
100
AcDbEntity
  8
0
100
AcDbLine
 62
7
  6
CONTINUOUS
 10
111.6995629067
 20
219.2791803179
 11
110.683943491
 21
218.3119160163
  0
LINE
  5
2B4
100
AcDbEntity
  8
0
100
AcDbLine
 62
7
  6
CONTINUOUS
 10
110.7853008047
 20
218.2013039183
 11
111.7138101312
 21
219.0856055683
  0
LINE
  5
2B5
100
AcDbEntity
  8
0
100
AcDbLine
 62
7
  6
CONTINUOUS
 10
113.8699210498
 20
221.1390609174
 11
114.4288179157
 21
221.6713478925
  0
LINE
  5
2B6
100
AcDbEntity
  8
0
100
AcDbLine
 62
7
  6
CONTINUOUS
 10
100.4327448825
 20
218.3844639778
 11
100.3468451752
 21
218.3057513981
  0
LINE
  5
2B7
100
AcDbEntity
  8
0
100
AcDbLine
 62
7
  6
CONTINUOUS
 10
100.2362245026
 20
218.2043862274
 11
100.1065981597
 21
218.0856055683
  0
LINE
  5
2B8
100
AcDbEntity
  8
0
100
AcDbLine
 62
7
  6
CONTINUOUS
 10
111.2125881968
 20
225.1867471589
 11
111.333514425
 21
225.2975556316
  0
LINE
  5
2B9
100
AcDbEntity
  8
0
100
AcDbLine
 62
7
  6
CONTINUOUS
 10
111.4441745316
 20
225.398956937
 11
111.5387349196
 21
225.4856055683
  0
LINE
  5
2BA
100
AcDbEntity
  8
0
100
AcDbLine
 62
7
  6
CONTINUOUS
 10
107.8327448825
 20
218.3844639778
 11
107.7468451752
 21
218.3057513981
  0
LINE
  5
2BB
100
AcDbEntity
  8
0
100
AcDbLine
 62
7
  6
CONTINUOUS
 10
107.6362245026
 20
218.2043862274
 11
107.5065981597
 21
218.0856055683
  0
LINE
  5
2BC
100
AcDbEntity
  8
0
100
AcDbLine
 62
7
  6
CONTINUOUS
 10
111.7977345396
 20
106.0118452857
 11
112.6977345396
 21
106.1705395683
  0
LINE
  5
2BD
100
AcDbEntity
  8
0
100
AcDbLine
 62
7
  6
CONTINUOUS
 10
107.2477345396
 20
105.519233851
 11
106.3477345396
 21
105.3605395683
  0
LINE
  5
2BE
100
AcDbEntity
  8
0
100
AcDbLine
 62
7
  6
CONTINUOUS
 10
99.7977345396
 20
106.0118452857
 11
100.6977345396
 21
106.1705395683
  0
LINE
  5
2BF
100
AcDbEntity
  8
0
100
AcDbLine
 62
7
  6
CONTINUOUS
 10
95.2477345396
 20
105.519233851
 11
94.3477345396
 21
105.3605395683
  0
LINE
  5
2C0
100
AcDbEntity
  8
0
100
AcDbLine
 62
7
  6
CONTINUOUS
 10
92.6727345396
 20
105.0355395683
 11
102.3727345396
 21
105.0355395683
  0
LINE
  5
2C1
100
AcDbEntity
  8
0
100
AcDbLine
 62
7
  6
CONTINUOUS
 10
104.6727345396
 20
105.0355395683
 11
114.3727345396
 21
105.0355395683
  0
LINE
  5
2C2
100
AcDbEntity
  8
0
100
AcDbLine
 62
7
  6
CONTINUOUS
 10
92.6727345396
 20
105.3605395683
 11
102.3727345396
 21
105.3605395683
  0
LINE
  5
2C3
100
AcDbEntity
  8
0
100
AcDbLine
 62
7
  6
CONTINUOUS
 10
104.6727345396
 20
105.3605395683
 11
112.6977345396
 21
105.3605395683
  0
LINE
  5
2C4
100
AcDbEntity
  8
0
100
AcDbLine
 62
7
  6
CONTINUOUS
 10
111.7977345396
 20
105.519233851
 11
107.2477345396
 21
105.519233851
  0
LINE
  5
2C5
100
AcDbEntity
  8
0
100
AcDbLine
 62
7
  6
CONTINUOUS
 10
99.7977345396
 20
105.519233851
 11
95.2477345396
 21
105.519233851
  0
LINE
  5
2C6
100
AcDbEntity
  8
0
100
AcDbLine
 62
7
  6
CONTINUOUS
 10
95.2477345396
 20
106.0118452857
 11
99.7977345396
 21
106.0118452857
  0
LINE
  5
2C7
100
AcDbEntity
  8
0
100
AcDbLine
 62
7
  6
CONTINUOUS
 10
107.2477345396
 20
106.0118452857
 11
111.7977345396
 21
106.0118452857
  0
LINE
  5
2C8
100
AcDbEntity
  8
0
100
AcDbLine
 62
7
  6
CONTINUOUS
 10
112.6977345396
 20
106.1705395683
 11
104.6727345396
 21
106.1705395683
  0
LINE
  5
2C9
100
AcDbEntity
  8
0
100
AcDbLine
 62
7
  6
CONTINUOUS
 10
102.3727345396
 20
106.1705395683
 11
92.6727345396
 21
106.1705395683
  0
LINE
  5
2CA
100
AcDbEntity
  8
0
100
AcDbLine
 62
7
  6
CONTINUOUS
 10
114.3727345396
 20
106.5355395683
 11
104.6727345396
 21
106.5355395683
  0
LINE
  5
2CB
100
AcDbEntity
  8
0
100
AcDbLine
 62
7
  6
CONTINUOUS
 10
102.3727345396
 20
106.5355395683
 11
92.6727345396
 21
106.5355395683
  0
LINE
  5
2CC
100
AcDbEntity
  8
0
100
AcDbLine
 62
7
  6
CONTINUOUS
 10
114.3727345396
 20
109.7855395683
 11
104.6727345396
 21
109.7855395683
  0
LINE
  5
2CD
100
AcDbEntity
  8
0
100
AcDbLine
 62
7
  6
CONTINUOUS
 10
102.3727345396
 20
109.7855395683
 11
92.6727345396
 21
109.7855395683
  0
LINE
  5
2CE
100
AcDbEntity
  8
0
100
AcDbLine
 62
7
  6
CONTINUOUS
 10
92.6727345396
 20
111.7855395683
 11
102.3727345396
 21
111.7855395683
  0
LINE
  5
2CF
100
AcDbEntity
  8
0
100
AcDbLine
 62
7
  6
CONTINUOUS
 10
104.6727345396
 20
111.7855395683
 11
114.3727345396
 21
111.7855395683
  0
LINE
  5
2D0
100
AcDbEntity
  8
0
100
AcDbLine
 62
7
  6
CONTINUOUS
 10
100.6977345396
 20
105.3605395683
 11
99.7977345396
 21
105.519233851
  0
LINE
  5
2D1
100
AcDbEntity
  8
0
100
AcDbLine
 62
7
  6
CONTINUOUS
 10
106.3477345396
 20
106.1705395683
 11
107.2477345396
 21
106.0118452857
  0
LINE
  5
2D2
100
AcDbEntity
  8
0
100
AcDbLine
 62
7
  6
CONTINUOUS
 10
112.6977345396
 20
105.3605395683
 11
111.7977345396
 21
105.519233851
  0
LINE
  5
2D3
100
AcDbEntity
  8
0
100
AcDbLine
 62
7
  6
CONTINUOUS
 10
102.3192046774
 20
203.3383452245
 11
102.3161358745
 21
203.3348832108
  0
LINE
  5
2D4
100
AcDbEntity
  8
0
100
AcDbLine
 62
7
  6
CONTINUOUS
 10
106.9671860063
 20
201.3299899007
 11
106.9642062075
 21
201.3270112375
  0
LINE
  5
2D5
100
AcDbEntity
  8
0
100
AcDbLine
 62
7
  6
CONTINUOUS
 10
97.8782825959
 20
192.2410894826
 11
97.8812628718
 21
192.2440678992
  0
LINE
  5
2D6
100
AcDbEntity
  8
0
100
AcDbLine
 62
7
  6
CONTINUOUS
 10
114.6327448825
 20
218.3844639778
 11
114.5468451752
 21
218.3057513981
  0
LINE
  5
2D7
100
AcDbEntity
  8
0
100
AcDbLine
 62
7
  6
CONTINUOUS
 10
114.4362245026
 20
218.2043862274
 11
114.3065981597
 21
218.0856055683
  0
LINE
  5
2D8
100
AcDbEntity
  8
0
100
AcDbLine
 62
7
  6
CONTINUOUS
 10
95.8699289169
 20
196.889069425
 11
95.8733909746
 21
196.8921382246
  0
LINE
  5
2D9
100
AcDbEntity
  8
0
100
AcDbLine
 62
7
  6
CONTINUOUS
 10
111.7977345396
 20
116.0118452857
 11
112.6977345396
 21
116.1705395683
  0
LINE
  5
2DA
100
AcDbEntity
  8
0
100
AcDbLine
 62
7
  6
CONTINUOUS
 10
107.2477345396
 20
115.519233851
 11
106.3477345396
 21
115.3605395683
  0
LINE
  5
2DB
100
AcDbEntity
  8
0
100
AcDbLine
 62
7
  6
CONTINUOUS
 10
99.7977345396
 20
116.0118452857
 11
100.6977345396
 21
116.1705395683
  0
LINE
  5
2DC
100
AcDbEntity
  8
0
100
AcDbLine
 62
7
  6
CONTINUOUS
 10
95.2477345396
 20
115.519233851
 11
94.3477345396
 21
115.3605395683
  0
LINE
  5
2DD
100
AcDbEntity
  8
0
100
AcDbLine
 62
7
  6
CONTINUOUS
 10
92.6727345396
 20
115.0355395683
 11
102.3727345396
 21
115.0355395683
  0
LINE
  5
2DE
100
AcDbEntity
  8
0
100
AcDbLine
 62
7
  6
CONTINUOUS
 10
104.6727345396
 20
115.0355395683
 11
114.3727345396
 21
115.0355395683
  0
LINE
  5
2DF
100
AcDbEntity
  8
0
100
AcDbLine
 62
7
  6
CONTINUOUS
 10
92.6727345396
 20
115.3605395683
 11
102.3727345396
 21
115.3605395683
  0
LINE
  5
2E0
100
AcDbEntity
  8
0
100
AcDbLine
 62
7
  6
CONTINUOUS
 10
104.6727345396
 20
115.3605395683
 11
112.6977345396
 21
115.3605395683
  0
LINE
  5
2E1
100
AcDbEntity
  8
0
100
AcDbLine
 62
7
  6
CONTINUOUS
 10
111.7977345396
 20
115.519233851
 11
107.2477345396
 21
115.519233851
  0
LINE
  5
2E2
100
AcDbEntity
  8
0
100
AcDbLine
 62
7
  6
CONTINUOUS
 10
99.7977345396
 20
115.519233851
 11
95.2477345396
 21
115.519233851
  0
LINE
  5
2E3
100
AcDbEntity
  8
0
100
AcDbLine
 62
7
  6
CONTINUOUS
 10
95.2477345396
 20
116.0118452857
 11
99.7977345396
 21
116.0118452857
  0
LINE
  5
2E4
100
AcDbEntity
  8
0
100
AcDbLine
 62
7
  6
CONTINUOUS
 10
107.2477345396
 20
116.0118452857
 11
111.7977345396
 21
116.0118452857
  0
LINE
  5
2E5
100
AcDbEntity
  8
0
100
AcDbLine
 62
7
  6
CONTINUOUS
 10
112.6977345396
 20
116.1705395683
 11
104.6727345396
 21
116.1705395683
  0
LINE
  5
2E6
100
AcDbEntity
  8
0
100
AcDbLine
 62
7
  6
CONTINUOUS
 10
102.3727345396
 20
116.1705395683
 11
92.6727345396
 21
116.1705395683
  0
LINE
  5
2E7
100
AcDbEntity
  8
0
100
AcDbLine
 62
7
  6
CONTINUOUS
 10
114.3727345396
 20
116.5355395683
 11
104.6727345396
 21
116.5355395683
  0
LINE
  5
2E8
100
AcDbEntity
  8
0
100
AcDbLine
 62
7
  6
CONTINUOUS
 10
102.3727345396
 20
116.5355395683
 11
92.6727345396
 21
116.5355395683
  0
LINE
  5
2E9
100
AcDbEntity
  8
0
100
AcDbLine
 62
7
  6
CONTINUOUS
 10
94.1727345396
 20
118.3755395683
 11
100.8727345396
 21
118.3755395683
  0
LINE
  5
2EA
100
AcDbEntity
  8
0
100
AcDbLine
 62
7
  6
CONTINUOUS
 10
106.1727345396
 20
118.3755395683
 11
112.8727345396
 21
118.3755395683
  0
LINE
  5
2EB
100
AcDbEntity
  8
0
100
AcDbLine
 62
7
  6
CONTINUOUS
 10
94.1727345396
 20
118.6455395683
 11
100.8727345396
 21
118.6455395683
  0
LINE
  5
2EC
100
AcDbEntity
  8
0
100
AcDbLine
 62
7
  6
CONTINUOUS
 10
106.1727345396
 20
118.6455395683
 11
112.8727345396
 21
118.6455395683
  0
LINE
  5
2ED
100
AcDbEntity
  8
0
100
AcDbLine
 62
7
  6
CONTINUOUS
 10
113.3727345396
 20
120.2355395683
 11
105.6727345396
 21
120.2355395683
  0
LINE
  5
2EE
100
AcDbEntity
  8
0
100
AcDbLine
 62
7
  6
CONTINUOUS
 10
101.3727345396
 20
120.2355395683
 11
93.6727345396
 21
120.2355395683
  0
LINE
  5
2EF
100
AcDbEntity
  8
_1
100
AcDbLine
 62
7
  6
CONTINUOUS
 10
124.0227345396
 20
121.9855395683
 11
148.1227345396
 21
121.9855395683
  0
LINE
  5
2F0
100
AcDbEntity
  8
0
100
AcDbLine
 62
7
  6
CONTINUOUS
 10
94.3477345396
 20
116.1705395683
 11
95.2477345396
 21
116.0118452857
  0
LINE
  5
2F1
100
AcDbEntity
  8
0
100
AcDbLine
 62
7
  6
CONTINUOUS
 10
100.6977345396
 20
115.3605395683
 11
99.7977345396
 21
115.519233851
  0
LINE
  5
2F2
100
AcDbEntity
  8
0
100
AcDbLine
 62
7
  6
CONTINUOUS
 10
106.3477345396
 20
116.1705395683
 11
107.2477345396
 21
116.0118452857
  0
LINE
  5
2F3
100
AcDbEntity
  8
0
100
AcDbLine
 62
7
  6
CONTINUOUS
 10
112.6977345396
 20
115.3605395683
 11
111.7977345396
 21
115.519233851
  0
LINE
  5
2F4
100
AcDbEntity
  8
0
100
AcDbLine
 62
7
  6
CONTINUOUS
 10
81.4227345396
 20
272.7855395683
 11
81.4227345396
 21
42.7855395683
  0
LINE
  5
2F5
100
AcDbEntity
  8
0
100
AcDbLine
 62
7
  6
CONTINUOUS
 10
82.1818254487
 20
42.7855395683
 11
82.1818254487
 21
273.0026123363
  0
LINE
  5
2F6
100
AcDbEntity
  8
0
100
AcDbLine
 62
7
  6
CONTINUOUS
 10
83.3227345396
 20
280.2855395683
 11
83.3227345396
 21
275.2855395683
  0
LINE
  5
2F7
100
AcDbEntity
  8
0
100
AcDbLine
 62
7
  6
CONTINUOUS
 10
83.3227345396
 20
35.2855395683
 11
83.3227345396
 21
30.2855395683
  0
LINE
  5
2F8
100
AcDbEntity
  8
0
100
AcDbLine
 62
7
  6
CONTINUOUS
 10
83.4227345396
 20
42.7855395683
 11
83.4227345396
 21
22.7855395683
  0
LINE
  5
2F9
100
AcDbEntity
  8
0
100
AcDbLine
 62
7
  6
CONTINUOUS
 10
83.4227345396
 20
273.3396627467
 11
83.4227345396
 21
275.2855395683
  0
LINE
  5
2FA
100
AcDbEntity
  8
0
100
AcDbLine
 62
7
  6
CONTINUOUS
 10
83.4227345396
 20
280.2855395683
 11
83.4227345396
 21
289.2855395683
  0
LINE
  5
2FB
100
AcDbEntity
  8
0
100
AcDbLine
 62
7
  6
CONTINUOUS
 10
85.9227345396
 20
229.2855395683
 11
85.9227345396
 21
232.2855395683
  0
LINE
  5
2FC
100
AcDbEntity
  8
0
100
AcDbLine
 62
7
  6
CONTINUOUS
 10
86.1687345396
 20
229.5805395683
 11
86.1687345396
 21
231.9905395683
  0
LINE
  5
2FD
100
AcDbEntity
  8
0
100
AcDbLine
 62
7
  6
CONTINUOUS
 10
86.3083750591
 20
229.7201800878
 11
86.3083750591
 21
231.8508990489
  0
LINE
  5
2FE
100
AcDbEntity
  8
0
100
AcDbLine
 62
7
  6
CONTINUOUS
 10
86.4227345396
 20
216.7855395683
 11
86.4227345396
 21
226.7855395683
  0
LINE
  5
2FF
100
AcDbEntity
  8
0
100
AcDbLine
 62
7
  6
CONTINUOUS
 10
86.7274220396
 20
42.7855395683
 11
86.7274220396
 21
216.7855395683
  0
LINE
  5
300
100
AcDbEntity
  8
0
100
AcDbLine
 62
7
  6
CONTINUOUS
 10
86.7274220396
 20
226.7855395683
 11
86.7274220396
 21
229.2855395683
  0
LINE
  5
301
100
AcDbEntity
  8
0
100
AcDbLine
 62
7
  6
CONTINUOUS
 10
86.7274220396
 20
232.2855395683
 11
86.7274220396
 21
274.1248684822
  0
LINE
  5
302
100
AcDbEntity
  8
0
100
AcDbLine
 62
7
  6
CONTINUOUS
 10
87.4227345396
 20
42.7855395683
 11
87.4227345396
 21
22.7855395683
  0
LINE
  5
303
100
AcDbEntity
  8
_1
100
AcDbLine
 62
7
  6
CONTINUOUS
 10
87.4727345396
 20
292.2835395683
 11
87.4727345396
 21
276.2835395683
  0
LINE
  5
304
100
AcDbEntity
  8
0
100
AcDbLine
 62
7
  6
CONTINUOUS
 10
89.6174655323
 20
218.3844639778
 11
89.8607504772
 21
221.1652236218
  0
LINE
  5
305
100
AcDbEntity
  8
0
100
AcDbLine
 62
7
  6
CONTINUOUS
 10
89.968373984
 20
222.3953659336
 11
90.2125881968
 21
225.1867471589
  0
LINE
  5
306
100
AcDbEntity
  8
0
100
AcDbLine
 62
7
  6
CONTINUOUS
 10
91.1431220626
 20
224.349084669
 11
90.9773534562
 21
222.4543408282
  0
LINE
  5
307
100
AcDbEntity
  8
0
100
AcDbLine
 62
7
  6
CONTINUOUS
 10
90.8628322847
 20
221.1453578483
 11
90.6995629067
 21
219.2791803179
  0
LINE
  5
308
100
AcDbEntity
  8
0
100
AcDbLine
 62
7
  6
CONTINUOUS
 10
92.7061007617
 20
219.266586456
 11
92.8699210498
 21
221.1390609174
  0
LINE
  5
309
100
AcDbEntity
  8
0
100
AcDbLine
 62
7
  6
CONTINUOUS
 10
92.9824536159
 20
222.4253140336
 11
93.1507109496
 21
224.3485041582
  0
LINE
  5
30A
100
AcDbEntity
  8
0
100
AcDbLine
 62
7
  6
CONTINUOUS
 10
94.2278675469
 20
225.1867471589
 11
93.9847551543
 21
222.4079597955
  0
LINE
  5
30B
100
AcDbEntity
  8
0
100
AcDbLine
 62
7
  6
CONTINUOUS
 10
93.8746178519
 20
221.149084669
 11
93.6327448825
 21
218.3844639778
  0
LINE
  5
30C
100
AcDbEntity
  8
0
100
AcDbLine
 62
7
  6
CONTINUOUS
 10
102.5262644002
 20
190.2327339111
 11
102.5293331988
 21
190.2361959776
  0
LINE
  5
30D
100
AcDbEntity
  8
0
100
AcDbLine
 62
7
  6
CONTINUOUS
 10
108.9720781414
 20
196.6789409079
 11
108.9755401621
 21
196.6820097117
  0
LINE
  5
30E
100
AcDbEntity
  8
0
100
AcDbLine
 62
7
  6
CONTINUOUS
 10
110.3275321561
 20
188.8644207346
 11
110.3745921743
 21
188.8887334349
  0
LINE
  5
30F
100
AcDbEntity
  8
0
100
AcDbLine
 62
7
  6
CONTINUOUS
 10
91.7227339233
 20
125.6855395683
 11
88.8187834735
 21
125.6855395683
  0
LINE
  5
310
100
AcDbEntity
  8
0
100
AcDbLine
 62
7
  6
CONTINUOUS
 10
93.7230243734
 20
125.6855395683
 11
96.6532747758
 21
125.6855395683
  0
LINE
  5
311
100
AcDbEntity
  8
0
100
AcDbLine
 62
7
  6
CONTINUOUS
 10
89.5727345396
 20
52.7855395683
 11
89.5727345396
 21
94.7855395683
  0
LINE
  5
312
100
AcDbEntity
  8
_1
100
AcDbLine
 62
7
  6
CONTINUOUS
 10
89.8738877256
 20
293.4855395683
 11
89.8738877256
 21
292.2835395683
  0
LINE
  5
313
100
AcDbEntity
  8
_1
100
AcDbLine
 62
7
  6
CONTINUOUS
 10
89.8738877256
 20
276.2835395683
 11
89.8738877256
 21
274.7558843366
  0
LINE
  5
314
100
AcDbEntity
  8
_1
100
AcDbLine
 62
7
  6
CONTINUOUS
 10
89.8738877257
 20
88.8555395683
 11
89.8738877257
 21
58.3555395683
  0
LINE
  5
315
100
AcDbEntity
  8
0
100
AcDbLine
 62
7
  6
CONTINUOUS
 10
90.0227345396
 20
276.2835395683
 11
90.0227345396
 21
274.7809031575
  0
LINE
  5
316
100
AcDbEntity
  8
0
100
AcDbLine
 62
7
  6
CONTINUOUS
 10
90.0227345396
 20
57.9855395683
 11
90.0227345396
 21
58.3555395683
  0
LINE
  5
317
100
AcDbEntity
  8
0
100
AcDbLine
 62
7
  6
CONTINUOUS
 10
90.0227345396
 20
88.8555395683
 11
90.0227345396
 21
89.7855395683
  0
LINE
  5
318
100
AcDbEntity
  8
_1
100
AcDbLine
 62
7
  6
CONTINUOUS
 10
90.3738877256
 20
292.4855395683
 11
90.3738877256
 21
292.2835395683
  0
LINE
  5
319
100
AcDbEntity
  8
_1
100
AcDbLine
 62
7
  6
CONTINUOUS
 10
90.3738877257
 20
53.9055395683
 11
90.3738877257
 21
58.3555395683
  0
LINE
  5
31A
100
AcDbEntity
  8
_1
100
AcDbLine
 62
7
  6
CONTINUOUS
 10
90.3738877257
 20
88.8555395683
 11
90.3738877257
 21
93.3055395683
  0
LINE
  5
31B
100
AcDbEntity
  8
_1
100
AcDbLine
 62
7
  6
CONTINUOUS
 10
91.2727345396
 20
274.9676570571
 11
91.2727345396
 21
291.5835395683
  0
LINE
  5
31C
100
AcDbEntity
  8
0
100
AcDbLine
 62
7
  6
CONTINUOUS
 10
91.4227345396
 20
94.7855395683
 11
91.4227345396
 21
93.3055395683
  0
LINE
  5
31D
100
AcDbEntity
  8
0
100
AcDbLine
 62
7
  6
CONTINUOUS
 10
91.4227345396
 20
52.7855395683
 11
91.4227345396
 21
53.9055395683
  0
LINE
  5
31E
100
AcDbEntity
  8
0
100
AcDbLine
 62
7
  6
CONTINUOUS
 10
91.4890940202
 20
231.8508990489
 11
91.4890940202
 21
229.7201800878
  0
LINE
  5
31F
100
AcDbEntity
  8
0
100
AcDbLine
 62
7
  6
CONTINUOUS
 10
91.6287345396
 20
229.5805395683
 11
91.6287345396
 21
231.9905395683
  0
LINE
  5
320
100
AcDbEntity
  8
0
100
AcDbLine
 62
7
  6
CONTINUOUS
 10
91.9227345396
 20
232.2855395683
 11
91.9227345396
 21
229.2855395683
  0
LINE
  5
321
100
AcDbEntity
  8
0
100
AcDbLine
 62
7
  6
CONTINUOUS
 10
92.6727345396
 20
102.3355395683
 11
92.6727345396
 21
119.2355395683
  0
LINE
  5
322
100
AcDbEntity
  8
0
100
AcDbLine
 62
7
  6
CONTINUOUS
 10
93.5877345396
 20
105.3605395683
 11
93.5877345396
 21
106.1705395683
  0
LINE
  5
323
100
AcDbEntity
  8
0
100
AcDbLine
 62
7
  6
CONTINUOUS
 10
93.5877345396
 20
115.3605395683
 11
93.5877345396
 21
116.1705395683
  0
LINE
  5
324
100
AcDbEntity
  8
0
100
AcDbLine
 62
7
  6
CONTINUOUS
 10
93.6727345396
 20
101.3355395683
 11
93.6727345396
 21
103.021326006
  0
LINE
  5
325
100
AcDbEntity
  8
0
100
AcDbLine
 62
7
  6
CONTINUOUS
 10
94.1727345396
 20
118.3755395683
 11
94.1727345396
 21
120.2355395683
  0
LINE
  5
326
100
AcDbEntity
  8
0
100
AcDbLine
 62
7
  6
CONTINUOUS
 10
94.3477345396
 20
105.3605395683
 11
94.3477345396
 21
106.1705395683
  0
LINE
  5
327
100
AcDbEntity
  8
0
100
AcDbLine
 62
7
  6
CONTINUOUS
 10
94.3477345396
 20
115.3605395683
 11
94.3477345396
 21
116.1705395683
  0
LINE
  5
328
100
AcDbEntity
  8
0
100
AcDbLine
 62
7
  6
CONTINUOUS
 10
94.4227345396
 20
109.7855395683
 11
94.4227345396
 21
111.7855395683
  0
LINE
  5
329
100
AcDbEntity
  8
0
100
AcDbLine
 62
7
  6
CONTINUOUS
 10
94.9227345396
 20
229.2855395683
 11
94.9227345396
 21
232.2855395683
  0
LINE
  5
32A
100
AcDbEntity
  8
0
100
AcDbLine
 62
7
  6
CONTINUOUS
 10
95.1687345396
 20
229.5805395683
 11
95.1687345396
 21
231.9905395683
  0
LINE
  5
32B
100
AcDbEntity
  8
0
100
AcDbLine
 62
7
  6
CONTINUOUS
 10
95.2477345396
 20
105.519233851
 11
95.2477345396
 21
106.0118452857
  0
LINE
  5
32C
100
AcDbEntity
  8
0
100
AcDbLine
 62
7
  6
CONTINUOUS
 10
95.2477345396
 20
115.519233851
 11
95.2477345396
 21
116.0118452857
  0
LINE
  5
32D
100
AcDbEntity
  8
0
100
AcDbLine
 62
7
  6
CONTINUOUS
 10
95.3083750591
 20
229.7201800878
 11
95.3083750591
 21
231.8508990489
  0
LINE
  5
32E
100
AcDbEntity
  8
_1
100
AcDbLine
 62
7
  6
CONTINUOUS
 10
96.2727345396
 20
276.9265513719
 11
96.2727345396
 21
275.538571735
  0
LINE
  5
32F
100
AcDbEntity
  8
0
100
AcDbLine
 62
7
  6
CONTINUOUS
 10
96.6727345396
 20
102.9355395683
 11
96.6727345396
 21
102.1855395683
  0
LINE
  5
330
100
AcDbEntity
  8
0
100
AcDbLine
 62
7
  6
CONTINUOUS
 10
97.1727345396
 20
34.7855395683
 11
97.1727345396
 21
42.7855395683
  0
LINE
  5
331
100
AcDbEntity
  8
0
100
AcDbLine
 62
7
  6
CONTINUOUS
 10
97.8427345396
 20
275.6516038778
 11
97.8427345396
 21
275.9835395683
  0
LINE
  5
332
100
AcDbEntity
  8
0
100
AcDbLine
 62
7
  6
CONTINUOUS
 10
97.7159945843
 20
192.2252129404
 11
97.7162726598
 21
192.2298309539
  0
LINE
  5
333
100
AcDbEntity
  8
0
100
AcDbLine
 62
7
  6
CONTINUOUS
 10
96.4174655323
 20
218.3844639778
 11
96.6607504772
 21
221.1652236218
  0
LINE
  5
334
100
AcDbEntity
  8
0
100
AcDbLine
 62
7
  6
CONTINUOUS
 10
96.768373984
 20
222.3953659336
 11
97.0125881968
 21
225.1867471589
  0
LINE
  5
335
100
AcDbEntity
  8
0
100
AcDbLine
 62
7
  6
CONTINUOUS
 10
97.9431220626
 20
224.349084669
 11
97.7773534562
 21
222.4543408282
  0
LINE
  5
336
100
AcDbEntity
  8
0
100
AcDbLine
 62
7
  6
CONTINUOUS
 10
97.6628322847
 20
221.1453578483
 11
97.4995629067
 21
219.2791803179
  0
LINE
  5
337
100
AcDbEntity
  8
0
100
AcDbLine
 62
7
  6
CONTINUOUS
 10
99.5061007617
 20
219.266586456
 11
99.6699210498
 21
221.1390609174
  0
LINE
  5
338
100
AcDbEntity
  8
0
100
AcDbLine
 62
7
  6
CONTINUOUS
 10
99.7824536159
 20
222.4253140336
 11
99.9507109496
 21
224.3485041582
  0
LINE
  5
339
100
AcDbEntity
  8
0
100
AcDbLine
 62
7
  6
CONTINUOUS
 10
101.0278675469
 20
225.1867471589
 11
100.7847551543
 21
222.4079597955
  0
LINE
  5
33A
100
AcDbEntity
  8
0
100
AcDbLine
 62
7
  6
CONTINUOUS
 10
100.6746178519
 20
221.149084669
 11
100.4327448825
 21
218.3844639778
  0
LINE
  5
33B
100
AcDbEntity
  8
0
100
AcDbLine
 62
7
  6
CONTINUOUS
 10
97.7159945571
 20
201.3458662179
 11
97.7162725987
 21
201.3412482313
  0
LINE
  5
33C
100
AcDbEntity
  8
0
100
AcDbLine
 62
7
  6
CONTINUOUS
 10
98.3727345396
 20
102.1855395683
 11
98.3727345396
 21
102.9355395683
  0
LINE
  5
33D
100
AcDbEntity
  8
0
100
AcDbLine
 62
7
  6
CONTINUOUS
 10
99.7977345396
 20
105.519233851
 11
99.7977345396
 21
106.0118452857
  0
LINE
  5
33E
100
AcDbEntity
  8
0
100
AcDbLine
 62
7
  6
CONTINUOUS
 10
99.7977345396
 20
115.519233851
 11
99.7977345396
 21
116.0118452857
  0
LINE
  5
33F
100
AcDbEntity
  8
0
100
AcDbLine
 62
7
  6
CONTINUOUS
 10
100.4890940202
 20
231.8508990489
 11
100.4890940202
 21
229.7201800878
  0
LINE
  5
340
100
AcDbEntity
  8
0
100
AcDbLine
 62
7
  6
CONTINUOUS
 10
100.6227345396
 20
111.7855395683
 11
100.6227345396
 21
109.7855395683
  0
LINE
  5
341
100
AcDbEntity
  8
0
100
AcDbLine
 62
7
  6
CONTINUOUS
 10
100.6287345396
 20
229.5805395683
 11
100.6287345396
 21
231.9905395683
  0
LINE
  5
342
100
AcDbEntity
  8
0
100
AcDbLine
 62
7
  6
CONTINUOUS
 10
100.6977345396
 20
105.3605395683
 11
100.6977345396
 21
106.1705395683
  0
LINE
  5
343
100
AcDbEntity
  8
0
100
AcDbLine
 62
7
  6
CONTINUOUS
 10
100.6977345396
 20
115.3605395683
 11
100.6977345396
 21
116.1705395683
  0
LINE
  5
344
100
AcDbEntity
  8
0
100
AcDbLine
 62
7
  6
CONTINUOUS
 10
100.8727345396
 20
118.3755395683
 11
100.8727345396
 21
120.2355395683
  0
LINE
  5
345
100
AcDbEntity
  8
0
100
AcDbLine
 62
7
  6
CONTINUOUS
 10
100.9227345396
 20
232.2855395683
 11
100.9227345396
 21
229.2855395683
  0
LINE
  5
346
100
AcDbEntity
  8
0
100
AcDbLine
 62
7
  6
CONTINUOUS
 10
101.1727345396
 20
42.2855395683
 11
101.1727345396
 21
42.7855395683
  0
LINE
  5
347
100
AcDbEntity
  8
_1
100
AcDbLine
 62
7
  6
CONTINUOUS
 10
101.2727345396
 20
291.5835395683
 11
101.2727345396
 21
276.9265513719
  0
LINE
  5
348
100
AcDbEntity
  8
0
100
AcDbLine
 62
7
  6
CONTINUOUS
 10
101.3727345396
 20
103.021326006
 11
101.3727345396
 21
101.3355395683
  0
LINE
  5
349
100
AcDbEntity
  8
_1
100
AcDbLine
 62
7
  6
CONTINUOUS
 10
101.4738877257
 20
88.8555395683
 11
101.4738877257
 21
58.3555395683
  0
LINE
  5
34A
100
AcDbEntity
  8
_1
100
AcDbLine
 62
7
  6
CONTINUOUS
 10
101.5738877256
 20
275.7800370699
 11
101.5738877256
 21
276.2835395683
  0
LINE
  5
34B
100
AcDbEntity
  8
0
100
AcDbLine
 62
7
  6
CONTINUOUS
 10
102.0227345396
 20
116.5355395683
 11
102.0227345396
 21
116.1705395683
  0
LINE
  5
34C
100
AcDbEntity
  8
0
100
AcDbLine
 62
7
  6
CONTINUOUS
 10
102.0227345396
 20
115.3605395683
 11
102.0227345396
 21
115.0355395683
  0
LINE
  5
34D
100
AcDbEntity
  8
0
100
AcDbLine
 62
7
  6
CONTINUOUS
 10
102.0227345396
 20
106.5355395683
 11
102.0227345396
 21
106.1705395683
  0
LINE
  5
34E
100
AcDbEntity
  8
0
100
AcDbLine
 62
7
  6
CONTINUOUS
 10
102.0227345396
 20
105.3605395683
 11
102.0227345396
 21
105.0355395683
  0
LINE
  5
34F
100
AcDbEntity
  8
0
100
AcDbLine
 62
7
  6
CONTINUOUS
 10
102.3727345396
 20
119.2355395683
 11
102.3727345396
 21
102.3355395683
  0
LINE
  5
350
100
AcDbEntity
  8
0
100
AcDbLine
 62
7
  6
CONTINUOUS
 10
102.6727345396
 20
25.7855395683
 11
102.6727345396
 21
27.2855395683
  0
LINE
  5
351
100
AcDbEntity
  8
0
100
AcDbLine
 62
7
  6
CONTINUOUS
 10
103.9227345396
 20
229.2855395683
 11
103.9227345396
 21
232.2855395683
  0
LINE
  5
352
100
AcDbEntity
  8
0
100
AcDbLine
 62
7
  6
CONTINUOUS
 10
104.1686545396
 20
229.5805875683
 11
104.1686545396
 21
231.9905875683
  0
LINE
  5
353
100
AcDbEntity
  8
_1
100
AcDbLine
 62
7
  6
CONTINUOUS
 10
104.1738877256
 20
292.4855395683
 11
104.1738877256
 21
292.2835395683
  0
LINE
  5
354
100
AcDbEntity
  8
_1
100
AcDbLine
 62
7
  6
CONTINUOUS
 10
104.1738877257
 20
58.3555395683
 11
104.1738877257
 21
53.9055395683
  0
LINE
  5
355
100
AcDbEntity
  8
_1
100
AcDbLine
 62
7
  6
CONTINUOUS
 10
104.1738877257
 20
88.8555395683
 11
104.1738877257
 21
93.3055395683
  0
LINE
  5
356
100
AcDbEntity
  8
0
100
AcDbLine
 62
7
  6
CONTINUOUS
 10
104.3082950591
 20
229.7202280878
 11
104.3082950591
 21
231.8509470489
  0
LINE
  5
357
100
AcDbEntity
  8
0
100
AcDbLine
 62
7
  6
CONTINUOUS
 10
104.3227345396
 20
89.0155395683
 11
104.3227345396
 21
88.8555395683
  0
LINE
  5
358
100
AcDbEntity
  8
0
100
AcDbLine
 62
7
  6
CONTINUOUS
 10
104.6727345396
 20
102.3355395683
 11
104.6727345396
 21
119.2355395683
  0
LINE
  5
359
100
AcDbEntity
  8
0
100
AcDbLine
 62
7
  6
CONTINUOUS
 10
104.8727345396
 20
94.7855395683
 11
104.8727345396
 21
88.8555395683
  0
LINE
  5
35A
100
AcDbEntity
  8
0
100
AcDbLine
 62
7
  6
CONTINUOUS
 10
104.8727345396
 20
58.3555395683
 11
104.8727345396
 21
52.7855395683
  0
LINE
  5
35B
100
AcDbEntity
  8
0
100
AcDbLine
 62
7
  6
CONTINUOUS
 10
105.3133385449
 20
24.8855395683
 11
105.3133385449
 21
27.6097470656
  0
LINE
  5
35C
100
AcDbEntity
  8
0
100
AcDbLine
 62
7
  6
CONTINUOUS
 10
105.3133385449
 20
37.9613320711
 11
105.3133385449
 21
40.6855395683
  0
LINE
  5
35D
100
AcDbEntity
  8
0
100
AcDbLine
 62
7
  6
CONTINUOUS
 10
105.5877345396
 20
105.3605395683
 11
105.5877345396
 21
106.1705395683
  0
LINE
  5
35E
100
AcDbEntity
  8
0
100
AcDbLine
 62
7
  6
CONTINUOUS
 10
105.5877345396
 20
115.3605395683
 11
105.5877345396
 21
116.1705395683
  0
LINE
  5
35F
100
AcDbEntity
  8
0
100
AcDbLine
 62
7
  6
CONTINUOUS
 10
105.6727345396
 20
42.2855395683
 11
105.6727345396
 21
42.7855395683
  0
LINE
  5
360
100
AcDbEntity
  8
0
100
AcDbLine
 62
7
  6
CONTINUOUS
 10
105.6727345396
 20
101.3355395683
 11
105.6727345396
 21
103.021326006
  0
LINE
  5
361
100
AcDbEntity
  8
0
100
AcDbLine
 62
7
  6
CONTINUOUS
 10
106.1727345396
 20
118.3755395683
 11
106.1727345396
 21
120.2355395683
  0
LINE
  5
362
100
AcDbEntity
  8
0
100
AcDbLine
 62
7
  6
CONTINUOUS
 10
106.3133385449
 20
25.8855395683
 11
106.3133385449
 21
27.3880524036
  0
LINE
  5
363
100
AcDbEntity
  8
0
100
AcDbLine
 62
7
  6
CONTINUOUS
 10
106.3133385449
 20
38.1830267331
 11
106.3133385449
 21
39.6855395683
  0
LINE
  5
364
100
AcDbEntity
  8
0
100
AcDbLine
 62
7
  6
CONTINUOUS
 10
106.3477345396
 20
105.3605395683
 11
106.3477345396
 21
106.1705395683
  0
LINE
  5
365
100
AcDbEntity
  8
0
100
AcDbLine
 62
7
  6
CONTINUOUS
 10
106.3477345396
 20
115.3605395683
 11
106.3477345396
 21
116.1705395683
  0
LINE
  5
366
100
AcDbEntity
  8
0
100
AcDbLine
 62
7
  6
CONTINUOUS
 10
106.4227345396
 20
109.7855395683
 11
106.4227345396
 21
111.7855395683
  0
LINE
  5
367
100
AcDbEntity
  8
0
100
AcDbLine
 62
7
  6
CONTINUOUS
 10
106.4227345396
 20
236.2855395683
 11
106.4227345396
 21
267.2855395683
  0
LINE
  5
368
100
AcDbEntity
  8
0
100
AcDbLine
 62
7
  6
CONTINUOUS
 10
106.6727345396
 20
42.7855395683
 11
106.6727345396
 21
42.2855395683
  0
LINE
  5
369
100
AcDbEntity
  8
_1
100
AcDbLine
 62
7
  6
CONTINUOUS
 10
106.9692473368
 20
262.6705395683
 11
106.9692473368
 21
240.9705395683
  0
LINE
  5
36A
100
AcDbEntity
  8
0
100
AcDbLine
 62
7
  6
CONTINUOUS
 10
107.2477345396
 20
105.519233851
 11
107.2477345396
 21
106.0118452857
  0
LINE
  5
36B
100
AcDbEntity
  8
0
100
AcDbLine
 62
7
  6
CONTINUOUS
 10
107.2477345396
 20
115.519233851
 11
107.2477345396
 21
116.0118452857
  0
LINE
  5
36C
100
AcDbEntity
  8
0
100
AcDbLine
 62
7
  6
CONTINUOUS
 10
102.4227337376
 20
190.3587154727
 11
102.4227345406
 21
190.3629287416
  0
LINE
  5
36D
100
AcDbEntity
  8
0
100
AcDbLine
 62
7
  6
CONTINUOUS
 10
102.4227358534
 20
203.2123638269
 11
102.4227345387
 21
203.2081503951
  0
LINE
  5
36E
100
AcDbEntity
  8
0
100
AcDbLine
 62
7
  6
CONTINUOUS
 10
107.129474495
 20
201.3458661963
 11
107.1291964196
 21
201.341248183
  0
LINE
  5
36F
100
AcDbEntity
  8
0
100
AcDbLine
 62
7
  6
CONTINUOUS
 10
103.8174655323
 20
218.3844639778
 11
104.0607504772
 21
221.1652236218
  0
LINE
  5
370
100
AcDbEntity
  8
0
100
AcDbLine
 62
7
  6
CONTINUOUS
 10
104.168373984
 20
222.3953659336
 11
104.4125881968
 21
225.1867471589
  0
LINE
  5
371
100
AcDbEntity
  8
0
100
AcDbLine
 62
7
  6
CONTINUOUS
 10
105.3431220626
 20
224.349084669
 11
105.1773534562
 21
222.4543408282
  0
LINE
  5
372
100
AcDbEntity
  8
0
100
AcDbLine
 62
7
  6
CONTINUOUS
 10
105.0628322847
 20
221.1453578483
 11
104.8995629067
 21
219.2791803179
  0
LINE
  5
373
100
AcDbEntity
  8
0
100
AcDbLine
 62
7
  6
CONTINUOUS
 10
106.9061007617
 20
219.266586456
 11
107.0699210498
 21
221.1390609174
  0
LINE
  5
374
100
AcDbEntity
  8
0
100
AcDbLine
 62
7
  6
CONTINUOUS
 10
107.1824536159
 20
222.4253140336
 11
107.3507109496
 21
224.3485041582
  0
LINE
  5
375
100
AcDbEntity
  8
0
100
AcDbLine
 62
7
  6
CONTINUOUS
 10
108.4278675469
 20
225.1867471589
 11
108.1847551543
 21
222.4079597955
  0
LINE
  5
376
100
AcDbEntity
  8
0
100
AcDbLine
 62
7
  6
CONTINUOUS
 10
108.0746178519
 20
221.149084669
 11
107.8327448825
 21
218.3844639778
  0
LINE
  5
377
100
AcDbEntity
  8
0
100
AcDbLine
 62
7
  6
CONTINUOUS
 10
110.6174655323
 20
218.3844639778
 11
110.8607504772
 21
221.1652236218
  0
LINE
  5
378
100
AcDbEntity
  8
0
100
AcDbLine
 62
7
  6
CONTINUOUS
 10
110.968373984
 20
222.3953659336
 11
111.2125881968
 21
225.1867471589
  0
LINE
  5
379
100
AcDbEntity
  8
0
100
AcDbLine
 62
7
  6
CONTINUOUS
 10
112.1431220626
 20
224.349084669
 11
111.9773534562
 21
222.4543408282
  0
LINE
  5
37A
100
AcDbEntity
  8
0
100
AcDbLine
 62
7
  6
CONTINUOUS
 10
111.8628322847
 20
221.1453578483
 11
111.6995629067
 21
219.2791803179
  0
LINE
  5
37B
100
AcDbEntity
  8
0
100
AcDbLine
 62
7
  6
CONTINUOUS
 10
107.1294745225
 20
192.2252129207
 11
107.1291964398
 21
192.2298309378
  0
LINE
  5
37C
100
AcDbEntity
  8
0
100
AcDbLine
 62
7
  6
CONTINUOUS
 10
107.4227345396
 20
42.7855395683
 11
107.4227345396
 21
22.7855395683
  0
LINE
  5
37D
100
AcDbEntity
  8
0
100
AcDbLine
 62
7
  6
CONTINUOUS
 10
107.8192473368
 20
262.7205395683
 11
107.8192473368
 21
262.6705395683
  0
LINE
  5
37E
100
AcDbEntity
  8
0
100
AcDbLine
 62
7
  6
CONTINUOUS
 10
107.8192473368
 20
240.9705395683
 11
107.8192473368
 21
240.8205395683
  0
LINE
  5
37F
100
AcDbEntity
  8
_1
100
AcDbLine
 62
7
  6
CONTINUOUS
 10
107.9738877256
 20
292.3555395683
 11
107.9738877256
 21
292.2835395683
  0
LINE
  5
380
100
AcDbEntity
  8
_1
100
AcDbLine
 62
7
  6
CONTINUOUS
 10
107.9738877256
 20
276.2835395683
 11
107.9738877256
 21
275.5862346095
  0
LINE
  5
381
100
AcDbEntity
  8
_1
100
AcDbLine
 62
7
  6
CONTINUOUS
 10
107.9738877257
 20
58.3555395683
 11
107.9738877257
 21
88.8555395683
  0
LINE
  5
382
100
AcDbEntity
  8
_1
100
AcDbLine
 62
7
  6
CONTINUOUS
 10
108.6692473368
 20
235.9705395683
 11
108.6692473368
 21
240.9705395683
  0
LINE
  5
383
100
AcDbEntity
  8
_1
100
AcDbLine
 62
7
  6
CONTINUOUS
 10
108.6692473368
 20
262.6705395683
 11
108.6692473368
 21
267.6705395683
  0
LINE
  5
384
100
AcDbEntity
  8
0
100
AcDbLine
 62
7
  6
CONTINUOUS
 10
108.6727345396
 20
102.9355395683
 11
108.6727345396
 21
102.1855395683
  0
LINE
  5
385
100
AcDbEntity
  8
_1
100
AcDbLine
 62
7
  6
CONTINUOUS
 10
109.1727345396
 20
292.2835395683
 11
109.1727345396
 21
276.2835395683
  0
LINE
  5
386
100
AcDbEntity
  8
0
100
AcDbLine
 62
7
  6
CONTINUOUS
 10
109.4890140202
 20
231.8509470489
 11
109.4890140202
 21
229.7202280878
  0
LINE
  5
387
100
AcDbEntity
  8
0
100
AcDbLine
 62
7
  6
CONTINUOUS
 10
109.6286545396
 20
229.5805875683
 11
109.6286545396
 21
231.9905875683
  0
LINE
  5
388
100
AcDbEntity
  8
0
100
AcDbLine
 62
7
  6
CONTINUOUS
 10
109.6727345396
 20
45.5355395683
 11
109.6727345396
 21
51.5355395683
  0
LINE
  5
389
100
AcDbEntity
  8
0
100
AcDbLine
 62
7
  6
CONTINUOUS
 10
109.9227345396
 20
232.2855395683
 11
109.9227345396
 21
229.2855395683
  0
LINE
  5
38A
100
AcDbEntity
  8
0
100
AcDbLine
 62
7
  6
CONTINUOUS
 10
109.9227345396
 20
45.7855395683
 11
109.9227345396
 21
51.2855395683
  0
LINE
  5
38B
100
AcDbEntity
  8
0
100
AcDbLine
 62
7
  6
CONTINUOUS
 10
110.3727345396
 20
102.1855395683
 11
110.3727345396
 21
102.9355395683
  0
LINE
  5
38C
100
AcDbEntity
  8
_1
100
AcDbLine
 62
7
  6
CONTINUOUS
 10
110.5738877256
 20
283.5854101019
 11
110.5738877256
 21
277.5856690348
  0
LINE
  5
38D
100
AcDbEntity
  8
_1
100
AcDbLine
 62
7
  6
CONTINUOUS
 10
110.5738877257
 20
88.0355395683
 11
110.5738877257
 21
82.0355395683
  0
LINE
  5
38E
100
AcDbEntity
  8
_1
100
AcDbLine
 62
7
  6
CONTINUOUS
 10
110.5738877257
 20
80.4155395683
 11
110.5738877257
 21
74.4155395683
  0
LINE
  5
38F
100
AcDbEntity
  8
_1
100
AcDbLine
 62
7
  6
CONTINUOUS
 10
110.5738877257
 20
72.7955395683
 11
110.5738877257
 21
66.7955395683
  0
LINE
  5
390
100
AcDbEntity
  8
_1
100
AcDbLine
 62
7
  6
CONTINUOUS
 10
110.5738877257
 20
65.1755395683
 11
110.5738877257
 21
59.1755395683
  0
LINE
  5
391
100
AcDbEntity
  8
0
100
AcDbLine
 62
7
  6
CONTINUOUS
 10
110.7227345396
 20
163.3855395683
 11
110.7227345396
 21
180.1855395683
  0
LINE
  5
392
100
AcDbEntity
  8
0
100
AcDbLine
 62
7
  6
CONTINUOUS
 10
110.8227345396
 20
71.5855395683
 11
110.8227345396
 21
85.9855395683
  0
LINE
  5
393
100
AcDbEntity
  8
_1
100
AcDbLine
 62
7
  6
CONTINUOUS
 10
111.0027345396
 20
83.9255395683
 11
111.0027345396
 21
73.6255395683
  0
LINE
  5
394
100
AcDbEntity
  8
0
100
AcDbLine
 62
7
  6
CONTINUOUS
 10
111.5227345396
 20
179.3904995683
 11
111.5227345396
 21
164.1504995683
  0
LINE
  5
395
100
AcDbEntity
  8
0
100
AcDbLine
 62
7
  6
CONTINUOUS
 10
111.6227345396
 20
71.5855395683
 11
111.6227345396
 21
73.6255395683
  0
LINE
  5
396
100
AcDbEntity
  8
0
100
AcDbLine
 62
7
  6
CONTINUOUS
 10
111.6227345396
 20
83.9255395683
 11
111.6227345396
 21
85.9855395683
  0
LINE
  5
397
100
AcDbEntity
  8
0
100
AcDbLine
 62
7
  6
CONTINUOUS
 10
111.7977345396
 20
105.519233851
 11
111.7977345396
 21
106.0118452857
  0
LINE
  5
398
100
AcDbEntity
  8
0
100
AcDbLine
 62
7
  6
CONTINUOUS
 10
111.7977345396
 20
115.519233851
 11
111.7977345396
 21
116.0118452857
  0
LINE
  5
399
100
AcDbEntity
  8
0
100
AcDbLine
 62
7
  6
CONTINUOUS
 10
112.2227345396
 20
68.2855395683
 11
112.2227345396
 21
71.5855395683
  0
LINE
  5
39A
100
AcDbEntity
  8
0
100
AcDbLine
 62
7
  6
CONTINUOUS
 10
112.2227345396
 20
85.9855395683
 11
112.2227345396
 21
89.2855395683
  0
LINE
  5
39B
100
AcDbEntity
  8
0
100
AcDbLine
 62
7
  6
CONTINUOUS
 10
112.2527345396
 20
84.4655395683
 11
112.2527345396
 21
83.9255395683
  0
LINE
  5
39C
100
AcDbEntity
  8
0
100
AcDbLine
 62
7
  6
CONTINUOUS
 10
112.2527345396
 20
73.6255395683
 11
112.2527345396
 21
73.1055395683
  0
LINE
  5
39D
100
AcDbEntity
  8
0
100
AcDbLine
 62
7
  6
CONTINUOUS
 10
112.6227345396
 20
111.7855395683
 11
112.6227345396
 21
109.7855395683
  0
LINE
  5
39E
100
AcDbEntity
  8
0
100
AcDbLine
 62
7
  6
CONTINUOUS
 10
112.6977345396
 20
105.3605395683
 11
112.6977345396
 21
106.1705395683
  0
LINE
  5
39F
100
AcDbEntity
  8
0
100
AcDbLine
 62
7
  6
CONTINUOUS
 10
112.6977345396
 20
115.3605395683
 11
112.6977345396
 21
116.1705395683
  0
LINE
  5
3A0
100
AcDbEntity
  8
0
100
AcDbLine
 62
7
  6
CONTINUOUS
 10
112.7527345396
 20
73.1055395683
 11
112.7527345396
 21
73.6255395683
  0
LINE
  5
3A1
100
AcDbEntity
  8
0
100
AcDbLine
 62
7
  6
CONTINUOUS
 10
112.7527345396
 20
83.9255395683
 11
112.7527345396
 21
84.4655395683
  0
LINE
  5
3A2
100
AcDbEntity
  8
0
100
AcDbLine
 62
7
  6
CONTINUOUS
 10
112.8227345396
 20
178.2204995683
 11
112.8227345396
 21
165.3204995683
  0
LINE
  5
3A3
100
AcDbEntity
  8
0
100
AcDbLine
 62
7
  6
CONTINUOUS
 10
112.8727345396
 20
118.3755395683
 11
112.8727345396
 21
120.2355395683
  0
LINE
  5
3A4
100
AcDbEntity
  8
0
100
AcDbLine
 62
7
  6
CONTINUOUS
 10
112.9227345396
 20
229.2855395683
 11
112.9227345396
 21
232.2855395683
  0
LINE
  5
3A5
100
AcDbEntity
  8
0
100
AcDbLine
 62
7
  6
CONTINUOUS
 10
113.0119221631
 20
50.9747271918
 11
113.0119221631
 21
51.5963519449
  0
LINE
  5
3A6
100
AcDbEntity
  8
0
100
AcDbLine
 62
7
  6
CONTINUOUS
 10
113.1687345396
 20
229.5805395683
 11
113.1687345396
 21
231.9905395683
  0
LINE
  5
3A7
100
AcDbEntity
  8
0
100
AcDbLine
 62
7
  6
CONTINUOUS
 10
113.3083750591
 20
229.7201800878
 11
113.3083750591
 21
231.8508990489
  0
LINE
  5
3A8
100
AcDbEntity
  8
0
100
AcDbLine
 62
7
  6
CONTINUOUS
 10
113.3227345396
 20
165.8204995683
 11
113.3227345396
 21
177.7204995683
  0
LINE
  5
3A9
100
AcDbEntity
  8
0
100
AcDbLine
 62
7
  6
CONTINUOUS
 10
113.3727345396
 20
103.021326006
 11
113.3727345396
 21
101.3355395683
  0
LINE
  5
3AA
100
AcDbEntity
  8
0
100
AcDbLine
 62
7
  6
CONTINUOUS
 10
113.4727345396
 20
165.8204995683
 11
113.4727345396
 21
166.8804995683
  0
LINE
  5
3AB
100
AcDbEntity
  8
0
100
AcDbLine
 62
7
  6
CONTINUOUS
 10
113.4727345396
 20
167.4804995674
 11
113.4727345396
 21
167.9004995684
  0
LINE
  5
3AC
100
AcDbEntity
  8
0
100
AcDbLine
 62
7
  6
CONTINUOUS
 10
113.4727345396
 20
168.5004995682
 11
113.4727345396
 21
168.9204995688
  0
LINE
  5
3AD
100
AcDbEntity
  8
0
100
AcDbLine
 62
7
  6
CONTINUOUS
 10
113.4727345396
 20
169.5204995691
 11
113.4727345396
 21
169.9404995678
  0
LINE
  5
3AE
100
AcDbEntity
  8
0
100
AcDbLine
 62
7
  6
CONTINUOUS
 10
113.4727345396
 20
170.540499567
 11
113.4727345396
 21
170.9604995682
  0
LINE
  5
3AF
100
AcDbEntity
  8
0
100
AcDbLine
 62
7
  6
CONTINUOUS
 10
113.4727345396
 20
171.5604995678
 11
113.4727345396
 21
171.9804995686
  0
LINE
  5
3B0
100
AcDbEntity
  8
0
100
AcDbLine
 62
7
  6
CONTINUOUS
 10
113.4727345396
 20
172.5804995687
 11
113.4727345396
 21
173.000499569
  0
LINE
  5
3B1
100
AcDbEntity
  8
0
100
AcDbLine
 62
7
  6
CONTINUOUS
 10
113.4727345396
 20
173.6004995695
 11
113.4727345396
 21
174.020499568
  0
LINE
  5
3B2
100
AcDbEntity
  8
0
100
AcDbLine
 62
7
  6
CONTINUOUS
 10
113.4727345396
 20
174.6204995674
 11
113.4727345396
 21
175.0404995684
  0
LINE
  5
3B3
100
AcDbEntity
  8
0
100
AcDbLine
 62
7
  6
CONTINUOUS
 10
113.4727345396
 20
175.6404995682
 11
113.4727345396
 21
176.0604995688
  0
LINE
  5
3B4
100
AcDbEntity
  8
0
100
AcDbLine
 62
7
  6
CONTINUOUS
 10
113.4727345396
 20
176.6604995691
 11
113.4727345396
 21
177.7204995683
  0
LINE
  5
3B5
100
AcDbEntity
  8
0
100
AcDbLine
 62
7
  6
CONTINUOUS
 10
114.1227345396
 20
166.8804995672
 11
114.1227345396
 21
167.480499567
  0
LINE
  5
3B6
100
AcDbEntity
  8
0
100
AcDbLine
 62
7
  6
CONTINUOUS
 10
114.1227345396
 20
167.9004995668
 11
114.1227345396
 21
168.5004995665
  0
LINE
  5
3B7
100
AcDbEntity
  8
0
100
AcDbLine
 62
7
  6
CONTINUOUS
 10
114.1227345396
 20
168.9204995664
 11
114.1227345396
 21
169.5204995661
  0
LINE
  5
3B8
100
AcDbEntity
  8
0
100
AcDbLine
 62
7
  6
CONTINUOUS
 10
114.1227345396
 20
169.9404995659
 11
114.1227345396
 21
170.5404995657
  0
LINE
  5
3B9
100
AcDbEntity
  8
0
100
AcDbLine
 62
7
  6
CONTINUOUS
 10
114.1227345396
 20
170.9604995655
 11
114.1227345396
 21
171.5604995653
  0
LINE
  5
3BA
100
AcDbEntity
  8
0
100
AcDbLine
 62
7
  6
CONTINUOUS
 10
114.1227345396
 20
171.9804995714
 11
114.1227345396
 21
172.5804995712
  0
LINE
  5
3BB
100
AcDbEntity
  8
0
100
AcDbLine
 62
7
  6
CONTINUOUS
 10
114.1227345396
 20
173.000499571
 11
114.1227345396
 21
173.6004995707
  0
LINE
  5
3BC
100
AcDbEntity
  8
0
100
AcDbLine
 62
7
  6
CONTINUOUS
 10
114.1227345396
 20
174.0204995706
 11
114.1227345396
 21
174.6204995703
  0
LINE
  5
3BD
100
AcDbEntity
  8
0
100
AcDbLine
 62
7
  6
CONTINUOUS
 10
114.1227345396
 20
175.0404995701
 11
114.1227345396
 21
175.6404995699
  0
LINE
  5
3BE
100
AcDbEntity
  8
0
100
AcDbLine
 62
7
  6
CONTINUOUS
 10
114.1227345396
 20
176.0604995697
 11
114.1227345396
 21
176.6604995695
  0
LINE
  5
3BF
100
AcDbEntity
  8
0
100
AcDbLine
 62
7
  6
CONTINUOUS
 10
114.322734539
 20
72.1055395681
 11
114.322734539
 21
73.1055395683
  0
LINE
  5
3C0
100
AcDbEntity
  8
0
100
AcDbLine
 62
7
  6
CONTINUOUS
 10
114.322734539
 20
84.4655395683
 11
114.322734539
 21
85.4655395686
  0
LINE
  5
3C1
100
AcDbEntity
  8
0
100
AcDbLine
 62
7
  6
CONTINUOUS
 10
114.3727345396
 20
119.2355395683
 11
114.3727345396
 21
102.3355395683
  0
LINE
  5
3C2
100
AcDbEntity
  8
_1
100
AcDbLine
 62
7
  6
CONTINUOUS
 10
114.4692473368
 20
267.6705395683
 11
114.4692473368
 21
262.6705395683
  0
LINE
  5
3C3
100
AcDbEntity
  8
_1
100
AcDbLine
 62
7
  6
CONTINUOUS
 10
114.4692473368
 20
240.9705395683
 11
114.4692473368
 21
235.9705395683
  0
LINE
  5
3C4
100
AcDbEntity
  8
_1
100
AcDbLine
 62
7
  6
CONTINUOUS
 10
114.5027345396
 20
67.1255395683
 11
114.5027345396
 21
73.6255395683
  0
LINE
  5
3C5
100
AcDbEntity
  8
_1
100
AcDbLine
 62
7
  6
CONTINUOUS
 10
114.5027345396
 20
83.9255395683
 11
114.5027345396
 21
90.4255395683
  0
LINE
  5
3C6
100
AcDbEntity
  8
_1
100
AcDbLine
 62
7
  6
CONTINUOUS
 10
114.6692473368
 20
240.9705395683
 11
114.6692473368
 21
262.6705395683
  0
LINE
  5
3C7
100
AcDbEntity
  8
0
100
AcDbLine
 62
7
  6
CONTINUOUS
 10
114.9227345396
 20
56.0091504753
 11
114.9227345396
 21
51.6278832154
  0
LINE
  5
3C8
100
AcDbEntity
  8
0
100
AcDbLine
 62
7
  6
CONTINUOUS
 10
114.9227345396
 20
50.9431959212
 11
114.9227345396
 21
46.5619286614
  0
LINE
  5
3C9
100
AcDbEntity
  8
0
100
AcDbLine
 62
7
  6
CONTINUOUS
 10
115.0803908925
 20
53.7278832154
 11
115.0803908925
 21
51.6278832154
  0
LINE
  5
3CA
100
AcDbEntity
  8
0
100
AcDbLine
 62
7
  6
CONTINUOUS
 10
115.0803908925
 20
50.9431959212
 11
115.0803908925
 21
48.8431959212
  0
LINE
  5
3CB
100
AcDbEntity
  8
_1
100
AcDbLine
 62
7
  6
CONTINUOUS
 10
115.2692473368
 20
262.6705395683
 11
115.2692473368
 21
240.9705395683
  0
LINE
  5
3CC
100
AcDbEntity
  8
0
100
AcDbLine
 62
7
  6
CONTINUOUS
 10
115.2727345396
 20
178.2204995683
 11
115.2727345396
 21
177.7204995683
  0
LINE
  5
3CD
100
AcDbEntity
  8
0
100
AcDbLine
 62
7
  6
CONTINUOUS
 10
115.2727345396
 20
165.8204995683
 11
115.2727345396
 21
165.3204995683
  0
LINE
  5
3CE
100
AcDbEntity
  8
0
100
AcDbLine
 62
7
  6
CONTINUOUS
 10
115.4227345396
 20
49.1855395683
 11
115.4227345396
 21
53.3855395683
  0
LINE
  5
3CF
100
AcDbEntity
  8
0
100
AcDbLine
 62
7
  6
CONTINUOUS
 10
115.7650781867
 20
53.7278832154
 11
115.7650781867
 21
51.6278832154
  0
LINE
  5
3D0
100
AcDbEntity
  8
0
100
AcDbLine
 62
7
  6
CONTINUOUS
 10
115.7650781867
 20
50.9431959212
 11
115.7650781867
 21
48.8431959212
  0
LINE
  5
3D1
100
AcDbEntity
  8
0
100
AcDbLine
 62
7
  6
CONTINUOUS
 10
115.7727345396
 20
176.6604995713
 11
115.7727345396
 21
176.0604995721
  0
LINE
  5
3D2
100
AcDbEntity
  8
0
100
AcDbLine
 62
7
  6
CONTINUOUS
 10
115.7727345396
 20
175.6404995679
 11
115.7727345396
 21
175.0404995687
  0
LINE
  5
3D3
100
AcDbEntity
  8
0
100
AcDbLine
 62
7
  6
CONTINUOUS
 10
115.7727345396
 20
174.6204995645
 11
115.7727345396
 21
174.0204995653
  0
LINE
  5
3D4
100
AcDbEntity
  8
0
100
AcDbLine
 62
7
  6
CONTINUOUS
 10
115.7727345396
 20
173.600499573
 11
115.7727345396
 21
173.0004995738
  0
LINE
  5
3D5
100
AcDbEntity
  8
0
100
AcDbLine
 62
7
  6
CONTINUOUS
 10
115.7727345396
 20
172.5804995696
 11
115.7727345396
 21
171.9804995704
  0
LINE
  5
3D6
100
AcDbEntity
  8
0
100
AcDbLine
 62
7
  6
CONTINUOUS
 10
115.7727345396
 20
171.5604995662
 11
115.7727345396
 21
170.960499567
  0
LINE
  5
3D7
100
AcDbEntity
  8
0
100
AcDbLine
 62
7
  6
CONTINUOUS
 10
115.7727345396
 20
170.5404995628
 11
115.7727345396
 21
169.9404995636
  0
LINE
  5
3D8
100
AcDbEntity
  8
0
100
AcDbLine
 62
7
  6
CONTINUOUS
 10
115.7727345396
 20
169.5204995713
 11
115.7727345396
 21
168.9204995721
  0
LINE
  5
3D9
100
AcDbEntity
  8
0
100
AcDbLine
 62
7
  6
CONTINUOUS
 10
115.7727345396
 20
168.5004995679
 11
115.7727345396
 21
167.9004995687
  0
LINE
  5
3DA
100
AcDbEntity
  8
0
100
AcDbLine
 62
7
  6
CONTINUOUS
 10
115.7727345396
 20
167.4804995645
 11
115.7727345396
 21
166.8804995653
  0
LINE
  5
3DB
100
AcDbEntity
  8
0
100
AcDbLine
 62
7
  6
CONTINUOUS
 10
115.9227345396
 20
46.5619286614
 11
115.9227345396
 21
50.9431959212
  0
LINE
  5
3DC
100
AcDbEntity
  8
0
100
AcDbLine
 62
7
  6
CONTINUOUS
 10
115.9227345396
 20
51.6278832154
 11
115.9227345396
 21
56.0091504753
  0
LINE
  5
3DD
100
AcDbEntity
  8
0
100
AcDbLine
 62
7
  6
CONTINUOUS
 10
113.7061007617
 20
219.266586456
 11
113.8699210498
 21
221.1390609174
  0
LINE
  5
3DE
100
AcDbEntity
  8
0
100
AcDbLine
 62
7
  6
CONTINUOUS
 10
113.9824536159
 20
222.4253140336
 11
114.1507109496
 21
224.3485041582
  0
LINE
  5
3DF
100
AcDbEntity
  8
0
100
AcDbLine
 62
7
  6
CONTINUOUS
 10
115.2278675469
 20
225.1867471589
 11
114.9847551543
 21
222.4079597955
  0
LINE
  5
3E0
100
AcDbEntity
  8
0
100
AcDbLine
 62
7
  6
CONTINUOUS
 10
114.8746178519
 20
221.149084669
 11
114.6327448825
 21
218.3844639778
  0
LINE
  5
3E1
100
AcDbEntity
  8
0
100
AcDbLine
 62
7
  6
CONTINUOUS
 10
123.0209909382
 20
240.8205395683
 11
123.0227345396
 21
236.2855395683
  0
LINE
  5
3E2
100
AcDbEntity
  8
_1
100
AcDbLine
 62
7
  6
CONTINUOUS
 10
116.9692473368
 20
235.9705395683
 11
116.9692473368
 21
240.9705395683
  0
LINE
  5
3E3
100
AcDbEntity
  8
_1
100
AcDbLine
 62
7
  6
CONTINUOUS
 10
116.9692473368
 20
262.6705395683
 11
116.9692473368
 21
267.6705395683
  0
LINE
  5
3E4
100
AcDbEntity
  8
0
100
AcDbLine
 62
7
  6
CONTINUOUS
 10
117.0119221631
 20
33.0963519449
 11
117.0119221631
 21
32.4747271918
  0
LINE
  5
3E5
100
AcDbEntity
  8
0
100
AcDbLine
 62
7
  6
CONTINUOUS
 10
117.8335469162
 20
50.9747271918
 11
117.8335469162
 21
51.5963519449
  0
LINE
  5
3E6
100
AcDbEntity
  8
0
100
AcDbLine
 62
7
  6
CONTINUOUS
 10
118.0227345406
 20
168.6204995683
 11
118.0227345406
 21
174.9204995683
  0
LINE
  5
3E7
100
AcDbEntity
  8
0
100
AcDbLine
 62
7
  6
CONTINUOUS
 10
118.2727345396
 20
165.3204995683
 11
118.2727345396
 21
165.8204995683
  0
LINE
  5
3E8
100
AcDbEntity
  8
0
100
AcDbLine
 62
7
  6
CONTINUOUS
 10
118.2727345396
 20
177.7204995683
 11
118.2727345396
 21
178.2204995683
  0
LINE
  5
3E9
100
AcDbEntity
  8
0
100
AcDbLine
 62
7
  6
CONTINUOUS
 10
118.2861595091
 20
42.7855395683
 11
118.2861595091
 21
45.5355395683
  0
LINE
  5
3EA
100
AcDbEntity
  8
0
100
AcDbLine
 62
7
  6
CONTINUOUS
 10
118.2861595091
 20
56.5218505739
 11
118.2861595091
 21
67.1255395683
  0
LINE
  5
3EB
100
AcDbEntity
  8
0
100
AcDbLine
 62
7
  6
CONTINUOUS
 10
118.2861595091
 20
90.4255395683
 11
118.2861595091
 21
163.3855395683
  0
LINE
  5
3EC
100
AcDbEntity
  8
0
100
AcDbLine
 62
7
  6
CONTINUOUS
 10
118.2861595091
 20
180.1855395683
 11
118.2861595091
 21
216.7855395683
  0
LINE
  5
3ED
100
AcDbEntity
  8
0
100
AcDbLine
 62
7
  6
CONTINUOUS
 10
118.2861595091
 20
226.7855395683
 11
118.2861595091
 21
229.2855395683
  0
LINE
  5
3EE
100
AcDbEntity
  8
0
100
AcDbLine
 62
7
  6
CONTINUOUS
 10
118.2861595091
 20
232.2855395683
 11
118.2861595091
 21
235.9705395683
  0
LINE
  5
3EF
100
AcDbEntity
  8
0
100
AcDbLine
 62
7
  6
CONTINUOUS
 10
118.2861595091
 20
267.6705395683
 11
118.2861595091
 21
274.088490202
  0
LINE
  5
3F0
100
AcDbEntity
  8
0
100
AcDbLine
 62
7
  6
CONTINUOUS
 10
118.4227345396
 20
226.7855395683
 11
118.4227345396
 21
216.7855395683
  0
LINE
  5
3F1
100
AcDbEntity
  8
0
100
AcDbLine
 62
7
  6
CONTINUOUS
 10
118.4890940202
 20
231.8508990489
 11
118.4890940202
 21
229.7201800878
  0
LINE
  5
3F2
100
AcDbEntity
  8
0
100
AcDbLine
 62
7
  6
CONTINUOUS
 10
118.6287345396
 20
229.5805395683
 11
118.6287345396
 21
231.9905395683
  0
LINE
  5
3F3
100
AcDbEntity
  8
0
100
AcDbLine
 62
7
  6
CONTINUOUS
 10
118.9227345396
 20
232.2855395683
 11
118.9227345396
 21
229.2855395683
  0
LINE
  5
3F4
100
AcDbEntity
  8
0
100
AcDbLine
 62
7
  6
CONTINUOUS
 10
118.9227345396
 20
37.5091504753
 11
118.9227345396
 21
33.1278832154
  0
LINE
  5
3F5
100
AcDbEntity
  8
0
100
AcDbLine
 62
7
  6
CONTINUOUS
 10
118.9227345396
 20
32.4431959212
 11
118.9227345396
 21
28.0619286614
  0
LINE
  5
3F6
100
AcDbEntity
  8
0
100
AcDbLine
 62
7
  6
CONTINUOUS
 10
119.0227345396
 20
165.8204995683
 11
119.0227345396
 21
168.6204995683
  0
LINE
  5
3F7
100
AcDbEntity
  8
0
100
AcDbLine
 62
7
  6
CONTINUOUS
 10
119.0227345396
 20
174.9204995683
 11
119.0227345396
 21
177.7204995683
  0
LINE
  5
3F8
100
AcDbEntity
  8
0
100
AcDbLine
 62
7
  6
CONTINUOUS
 10
119.0803908925
 20
30.3431959212
 11
119.0803908925
 21
32.4431959212
  0
LINE
  5
3F9
100
AcDbEntity
  8
0
100
AcDbLine
 62
7
  6
CONTINUOUS
 10
119.0803908925
 20
33.1278832154
 11
119.0803908925
 21
35.2278832154
  0
LINE
  5
3FA
100
AcDbEntity
  8
0
100
AcDbLine
 62
7
  6
CONTINUOUS
 10
119.4227345396
 20
30.6855395683
 11
119.4227345396
 21
34.8855395683
  0
LINE
  5
3FB
100
AcDbEntity
  8
0
100
AcDbLine
 62
7
  6
CONTINUOUS
 10
119.7650781867
 20
30.3431959212
 11
119.7650781867
 21
32.4431959212
  0
LINE
  5
3FC
100
AcDbEntity
  8
0
100
AcDbLine
 62
7
  6
CONTINUOUS
 10
119.7650781867
 20
33.1278832154
 11
119.7650781867
 21
35.2278832154
  0
LINE
  5
3FD
100
AcDbEntity
  8
0
100
AcDbLine
 62
7
  6
CONTINUOUS
 10
119.9227345396
 20
28.0619286614
 11
119.9227345396
 21
32.4431959212
  0
LINE
  5
3FE
100
AcDbEntity
  8
0
100
AcDbLine
 62
7
  6
CONTINUOUS
 10
119.9227345396
 20
33.1278832154
 11
119.9227345396
 21
37.5091504753
  0
LINE
  5
3FF
100
AcDbEntity
  8
0
100
AcDbLine
 62
7
  6
CONTINUOUS
 10
120.2227345396
 20
177.7204995683
 11
120.2227345396
 21
174.9204995683
  0
LINE
  5
400
100
AcDbEntity
  8
0
100
AcDbLine
 62
7
  6
CONTINUOUS
 10
120.2227345396
 20
168.6204995683
 11
120.2227345396
 21
165.8204995683
  0
LINE
  5
401
100
AcDbEntity
  8
0
100
AcDbLine
 62
7
  6
CONTINUOUS
 10
120.7227345397
 20
165.8204995683
 11
120.7227345397
 21
168.6204995683
  0
LINE
  5
402
100
AcDbEntity
  8
0
100
AcDbLine
 62
7
  6
CONTINUOUS
 10
120.7227345395
 20
174.9204995683
 11
120.7227345395
 21
177.7204995683
  0
LINE
  5
403
100
AcDbEntity
  8
0
100
AcDbLine
 62
7
  6
CONTINUOUS
 10
120.9227345396
 20
51.2855395683
 11
120.9227345396
 21
45.7855395683
  0
LINE
  5
404
100
AcDbEntity
  8
0
100
AcDbLine
 62
7
  6
CONTINUOUS
 10
120.9227345396
 20
51.5355395683
 11
120.9227345396
 21
52.4718663222
  0
LINE
  5
405
100
AcDbEntity
  8
0
100
AcDbLine
 62
7
  6
CONTINUOUS
 10
121.1727345396
 20
51.5355395683
 11
121.1727345396
 21
45.5355395683
  0
LINE
  5
406
100
AcDbEntity
  8
0
100
AcDbLine
 62
7
  6
CONTINUOUS
 10
121.4727345396
 20
168.6204995683
 11
121.4727345396
 21
174.9204995683
  0
LINE
  5
407
100
AcDbEntity
  8
0
100
AcDbLine
 62
7
  6
CONTINUOUS
 10
121.5227345396
 20
174.9204995683
 11
121.5227345396
 21
168.6204995683
  0
LINE
  5
408
100
AcDbEntity
  8
0
100
AcDbLine
 62
7
  6
CONTINUOUS
 10
121.7727345396
 20
165.3204995683
 11
121.7727345396
 21
168.6204995683
  0
LINE
  5
409
100
AcDbEntity
  8
0
100
AcDbLine
 62
7
  6
CONTINUOUS
 10
121.7727345396
 20
174.9204995683
 11
121.7727345396
 21
178.2204995683
  0
LINE
  5
40A
100
AcDbEntity
  8
0
100
AcDbLine
 62
7
  6
CONTINUOUS
 10
121.8335469162
 20
33.0963519449
 11
121.8335469162
 21
32.4747271918
  0
LINE
  5
40B
100
AcDbEntity
  8
0
100
AcDbLine
 62
7
  6
CONTINUOUS
 10
121.9227345396
 20
168.6204995683
 11
121.9227345396
 21
174.9204995683
  0
LINE
  5
40C
100
AcDbEntity
  8
0
100
AcDbLine
 62
7
  6
CONTINUOUS
 10
122.5578198356
 20
168.6204995683
 11
122.5578198356
 21
170.1704995683
  0
LINE
  5
40D
100
AcDbEntity
  8
0
100
AcDbLine
 62
7
  6
CONTINUOUS
 10
122.5578198356
 20
173.3704995683
 11
122.5578198356
 21
174.9204995683
  0
LINE
  5
40E
100
AcDbEntity
  8
0
100
AcDbLine
 62
7
  6
CONTINUOUS
 10
122.663887276
 20
42.7855395683
 11
122.663887276
 21
67.1255395683
  0
LINE
  5
40F
100
AcDbEntity
  8
0
100
AcDbLine
 62
7
  6
CONTINUOUS
 10
122.663887276
 20
90.4255395683
 11
122.663887276
 21
163.3855395683
  0
LINE
  5
410
100
AcDbEntity
  8
0
100
AcDbLine
 62
7
  6
CONTINUOUS
 10
122.663887276
 20
180.1855395683
 11
122.663887276
 21
235.9705395683
  0
LINE
  5
411
100
AcDbEntity
  8
0
100
AcDbLine
 62
7
  6
CONTINUOUS
 10
122.663887276
 20
267.6705395683
 11
122.663887276
 21
273.0025440472
  0
LINE
  5
412
100
AcDbEntity
  8
_1
100
AcDbLine
 62
7
  6
CONTINUOUS
 10
122.7692473368
 20
267.6705395683
 11
122.7692473368
 21
262.6705395683
  0
LINE
  5
413
100
AcDbEntity
  8
_1
100
AcDbLine
 62
7
  6
CONTINUOUS
 10
122.7692473368
 20
240.9705395683
 11
122.7692473368
 21
235.9705395683
  0
LINE
  5
414
100
AcDbEntity
  8
0
100
AcDbLine
 62
7
  6
CONTINUOUS
 10
122.7727345396
 20
174.9204995683
 11
122.7727345396
 21
173.3704995683
  0
LINE
  5
415
100
AcDbEntity
  8
0
100
AcDbLine
 62
7
  6
CONTINUOUS
 10
122.7727345396
 20
170.1704995683
 11
122.7727345396
 21
168.6204995683
  0
LINE
  5
416
100
AcDbEntity
  8
0
100
AcDbLine
 62
7
  6
CONTINUOUS
 10
122.8727345396
 20
263.5205395683
 11
122.8727345396
 21
263.2205395683
  0
LINE
  5
417
100
AcDbEntity
  8
_1
100
AcDbLine
 62
7
  6
CONTINUOUS
 10
122.9692473368
 20
240.9705395683
 11
122.9692473368
 21
262.6705395683
  0
LINE
  5
418
100
AcDbEntity
  8
0
100
AcDbLine
 62
7
  6
CONTINUOUS
 10
123.0192473368
 20
242.0900311844
 11
123.0192473368
 21
240.8205395683
  0
LINE
  5
419
100
AcDbEntity
  8
0
100
AcDbLine
 62
7
  6
CONTINUOUS
 10
123.0192473368
 20
243.7547202683
 11
123.0192473368
 21
245.5900316389
  0
LINE
  5
41A
100
AcDbEntity
  8
0
100
AcDbLine
 62
7
  6
CONTINUOUS
 10
123.0192473368
 20
247.2547202683
 11
123.0192473368
 21
249.0900316389
  0
LINE
  5
41B
100
AcDbEntity
  8
0
100
AcDbLine
 62
7
  6
CONTINUOUS
 10
123.0192473368
 20
250.7547202683
 11
123.0192473368
 21
252.5930567694
  0
LINE
  5
41C
100
AcDbEntity
  8
0
100
AcDbLine
 62
7
  6
CONTINUOUS
 10
123.0192473368
 20
254.2547202683
 11
123.0192473368
 21
256.0900316389
  0
LINE
  5
41D
100
AcDbEntity
  8
0
100
AcDbLine
 62
7
  6
CONTINUOUS
 10
123.0192473368
 20
257.7547202683
 11
123.0192473368
 21
259.5900316389
  0
LINE
  5
41E
100
AcDbEntity
  8
0
100
AcDbLine
 62
7
  6
CONTINUOUS
 10
123.0192473368
 20
261.2547202683
 11
123.0192473368
 21
262.7205395683
  0
LINE
  5
41F
100
AcDbEntity
  8
0
100
AcDbLine
 62
7
  6
CONTINUOUS
 10
123.0209909382
 20
261.2580411573
 11
123.0209909382
 21
259.7830379894
  0
LINE
  5
420
100
AcDbEntity
  8
0
100
AcDbLine
 62
7
  6
CONTINUOUS
 10
123.0209909382
 20
257.7580411573
 11
123.0209909382
 21
256.2830379894
  0
LINE
  5
421
100
AcDbEntity
  8
0
100
AcDbLine
 62
7
  6
CONTINUOUS
 10
123.0209909382
 20
254.2580411573
 11
123.0209909382
 21
252.7830379894
  0
LINE
  5
422
100
AcDbEntity
  8
0
100
AcDbLine
 62
7
  6
CONTINUOUS
 10
123.0209909382
 20
250.7580411573
 11
123.0209909382
 21
249.2830379894
  0
LINE
  5
423
100
AcDbEntity
  8
0
100
AcDbLine
 62
7
  6
CONTINUOUS
 10
123.0209909382
 20
247.2580411573
 11
123.0209909382
 21
245.7830379894
  0
LINE
  5
424
100
AcDbEntity
  8
0
100
AcDbLine
 62
7
  6
CONTINUOUS
 10
123.0209909382
 20
243.7580411573
 11
123.0209909382
 21
242.2830379894
  0
LINE
  5
425
100
AcDbEntity
  8
0
100
AcDbLine
 62
7
  6
CONTINUOUS
 10
123.0227345396
 20
273.0405395683
 11
123.0227345396
 21
272.8824395155
  0
LINE
  5
426
100
AcDbEntity
  8
0
100
AcDbLine
 62
7
  6
CONTINUOUS
 10
123.0227345396
 20
180.1855395683
 11
123.0227345396
 21
163.3855395683
  0
LINE
  5
427
100
AcDbEntity
  8
0
100
AcDbLine
 62
7
  6
CONTINUOUS
 10
123.4227345396
 20
42.7855395683
 11
123.4227345396
 21
67.1255395683
  0
LINE
  5
428
100
AcDbEntity
  8
0
100
AcDbLine
 62
7
  6
CONTINUOUS
 10
123.4227345396
 20
90.4255395683
 11
123.4227345396
 21
272.7855395683
  0
LINE
  5
429
100
AcDbEntity
  8
_1
100
AcDbLine
 62
7
  6
CONTINUOUS
 10
124.0027345396
 20
67.1255395683
 11
124.0027345396
 21
73.6255395683
  0
LINE
  5
42A
100
AcDbEntity
  8
_1
100
AcDbLine
 62
7
  6
CONTINUOUS
 10
124.0027345396
 20
83.9255395683
 11
124.0027345396
 21
90.4255395683
  0
LINE
  5
42B
100
AcDbEntity
  8
_1
100
AcDbLine
 62
7
  6
CONTINUOUS
 10
124.0227345396
 20
121.9855395683
 11
124.0227345396
 21
166.5855395683
  0
LINE
  5
42C
100
AcDbEntity
  8
_1
100
AcDbLine
 62
7
  6
CONTINUOUS
 10
124.0227345396
 20
171.9855395683
 11
124.0227345396
 21
216.5855395683
  0
LINE
  5
42D
100
AcDbEntity
  8
_1
100
AcDbLine
 62
7
  6
CONTINUOUS
 10
124.0227345396
 20
221.9855395683
 11
124.0227345396
 21
266.5855395683
  0
LINE
  5
42E
100
AcDbEntity
  8
0
100
AcDbLine
 62
7
  6
CONTINUOUS
 10
123.0227345396
 20
267.2855395683
 11
123.0209909382
 21
262.7205395683
  0
LINE
  5
42F
100
AcDbEntity
  8
0
100
AcDbLine
 62
7
  6
CONTINUOUS
 10
110.7227345396
 20
163.3855395683
 11
123.4227345396
 21
163.3855395683
  0
LINE
  5
430
100
AcDbEntity
  8
0
100
AcDbLine
 62
7
  6
CONTINUOUS
 10
111.5227345396
 20
164.1504995683
 11
123.0227345396
 21
164.1504995683
  0
LINE
  5
431
100
AcDbEntity
  8
0
100
AcDbLine
 62
7
  6
CONTINUOUS
 10
112.8227345396
 20
165.3204995683
 11
121.7727345396
 21
165.3204995683
  0
LINE
  5
432
100
AcDbEntity
  8
0
100
AcDbLine
 62
7
  6
CONTINUOUS
 10
115.2727345396
 20
165.3704995683
 11
118.2727345377
 21
165.3704995683
  0
LINE
  5
433
100
AcDbEntity
  8
0
100
AcDbLine
 62
7
  6
CONTINUOUS
 10
115.2727345396
 20
165.4454995683
 11
118.2727345396
 21
165.4454995683
  0
LINE
  5
434
100
AcDbEntity
  8
0
100
AcDbLine
 62
7
  6
CONTINUOUS
 10
113.3227345396
 20
165.8204995683
 11
121.7727345396
 21
165.8204995683
  0
LINE
  5
435
100
AcDbEntity
  8
_1
100
AcDbLine
 62
7
  6
CONTINUOUS
 10
124.0227345396
 20
166.5855395683
 11
148.1227345396
 21
166.5855395683
  0
LINE
  5
436
100
AcDbEntity
  8
0
100
AcDbLine
 62
7
  6
CONTINUOUS
 10
113.3227345396
 20
166.8804995683
 11
115.7727345396
 21
166.8804995653
  0
LINE
  5
437
100
AcDbEntity
  8
0
100
AcDbLine
 62
7
  6
CONTINUOUS
 10
113.3227345396
 20
167.4804995683
 11
115.7727345396
 21
167.4804995645
  0
LINE
  5
438
100
AcDbEntity
  8
0
100
AcDbLine
 62
7
  6
CONTINUOUS
 10
113.3227345396
 20
167.9004995683
 11
115.7727345396
 21
167.9004995687
  0
LINE
  5
439
100
AcDbEntity
  8
0
100
AcDbLine
 62
7
  6
CONTINUOUS
 10
113.3227345396
 20
168.5004995683
 11
115.7727345396
 21
168.5004995679
  0
LINE
  5
43A
100
AcDbEntity
  8
0
100
AcDbLine
 62
7
  6
CONTINUOUS
 10
118.0227345396
 20
168.6204995683
 11
123.0227345396
 21
168.6204995683
  0
LINE
  5
43B
100
AcDbEntity
  8
_1
100
AcDbLine
 62
7
  6
CONTINUOUS
 10
126.0027345396
 20
73.6255395683
 11
126.0027345396
 21
83.9255395683
  0
LINE
  5
43C
100
AcDbEntity
  8
0
100
AcDbLine
 62
7
  6
CONTINUOUS
 10
127.4227345396
 20
272.7855395683
 11
127.4227345396
 21
289.2855395683
  0
LINE
  5
43D
100
AcDbEntity
  8
0
100
AcDbLine
 62
7
  6
CONTINUOUS
 10
127.4235903315
 20
42.7855395683
 11
127.4235903315
 21
22.7855395683
  0
LINE
  5
43E
100
AcDbEntity
  8
0
100
AcDbLine
 62
7
  6
CONTINUOUS
 10
127.8133385449
 20
24.8855395683
 11
127.8133385449
 21
27.3855395683
  0
LINE
  5
43F
100
AcDbEntity
  8
0
100
AcDbLine
 62
7
  6
CONTINUOUS
 10
127.8133385449
 20
38.1855395683
 11
127.8133385449
 21
40.6855395683
  0
LINE
  5
440
100
AcDbEntity
  8
0
100
AcDbLine
 62
7
  6
CONTINUOUS
 10
113.3227345396
 20
168.9204995683
 11
115.7727345396
 21
168.9204995721
  0
LINE
  5
441
100
AcDbEntity
  8
0
100
AcDbLine
 62
7
  6
CONTINUOUS
 10
113.3227345396
 20
169.5204995683
 11
115.7727345396
 21
169.5204995713
  0
LINE
  5
442
100
AcDbEntity
  8
0
100
AcDbLine
 62
7
  6
CONTINUOUS
 10
113.3227345396
 20
169.9404995683
 11
115.7727345396
 21
169.9404995636
  0
LINE
  5
443
100
AcDbEntity
  8
0
100
AcDbLine
 62
7
  6
CONTINUOUS
 10
121.9227345396
 20
170.1704995683
 11
122.7727345396
 21
170.1704995683
  0
LINE
  5
444
100
AcDbEntity
  8
0
100
AcDbLine
 62
7
  6
CONTINUOUS
 10
113.3227345396
 20
170.5404995683
 11
115.7727345396
 21
170.5404995628
  0
LINE
  5
445
100
AcDbEntity
  8
0
100
AcDbLine
 62
7
  6
CONTINUOUS
 10
113.3227345396
 20
170.9604995683
 11
115.7727345396
 21
170.960499567
  0
LINE
  5
446
100
AcDbEntity
  8
0
100
AcDbLine
 62
7
  6
CONTINUOUS
 10
113.3227345396
 20
171.5604995683
 11
115.7727345396
 21
171.5604995662
  0
LINE
  5
447
100
AcDbEntity
  8
0
100
AcDbLine
 62
7
  6
CONTINUOUS
 10
113.3227345396
 20
171.9804995683
 11
115.7727345396
 21
171.9804995704
  0
LINE
  5
448
100
AcDbEntity
  8
_1
100
AcDbLine
 62
7
  6
CONTINUOUS
 10
124.0227345396
 20
171.9855395683
 11
148.1227345396
 21
171.9855395683
  0
LINE
  5
449
100
AcDbEntity
  8
0
100
AcDbLine
 62
7
  6
CONTINUOUS
 10
113.3227345396
 20
172.5804995683
 11
115.7727345396
 21
172.5804995696
  0
LINE
  5
44A
100
AcDbEntity
  8
0
100
AcDbLine
 62
7
  6
CONTINUOUS
 10
113.3227345396
 20
173.0004995683
 11
115.7727345396
 21
173.0004995738
  0
LINE
  5
44B
100
AcDbEntity
  8
0
100
AcDbLine
 62
7
  6
CONTINUOUS
 10
122.7727345396
 20
173.3704995683
 11
121.9227345396
 21
173.3704995683
  0
LINE
  5
44C
100
AcDbEntity
  8
0
100
AcDbLine
 62
7
  6
CONTINUOUS
 10
113.3227345396
 20
173.6004995683
 11
115.7727345396
 21
173.600499573
  0
LINE
  5
44D
100
AcDbEntity
  8
0
100
AcDbLine
 62
7
  6
CONTINUOUS
 10
113.3227345396
 20
174.0204995683
 11
115.7727345396
 21
174.0204995653
  0
LINE
  5
44E
100
AcDbEntity
  8
0
100
AcDbLine
 62
7
  6
CONTINUOUS
 10
113.3227345396
 20
174.6204995683
 11
115.7727345396
 21
174.6204995645
  0
LINE
  5
44F
100
AcDbEntity
  8
0
100
AcDbLine
 62
7
  6
CONTINUOUS
 10
118.0227345396
 20
174.9204995683
 11
123.0227345396
 21
174.9204995683
  0
LINE
  5
450
100
AcDbEntity
  8
0
100
AcDbLine
 62
7
  6
CONTINUOUS
 10
113.3227345396
 20
175.0404995683
 11
115.7727345396
 21
175.0404995687
  0
LINE
  5
451
100
AcDbEntity
  8
0
100
AcDbLine
 62
7
  6
CONTINUOUS
 10
113.3227345396
 20
175.6404995683
 11
115.7727345396
 21
175.6404995679
  0
LINE
  5
452
100
AcDbEntity
  8
0
100
AcDbLine
 62
7
  6
CONTINUOUS
 10
113.3227345396
 20
176.0604995683
 11
115.7727345396
 21
176.0604995721
  0
LINE
  5
453
100
AcDbEntity
  8
0
100
AcDbLine
 62
7
  6
CONTINUOUS
 10
113.3227345396
 20
176.6604995683
 11
115.7727345396
 21
176.6604995713
  0
LINE
  5
454
100
AcDbEntity
  8
0
100
AcDbLine
 62
7
  6
CONTINUOUS
 10
113.3227345396
 20
177.7204995683
 11
121.7727345396
 21
177.7204995683
  0
LINE
  5
455
100
AcDbEntity
  8
0
100
AcDbLine
 62
7
  6
CONTINUOUS
 10
94.4872835524
 20
188.8606094344
 11
94.5245657915
 21
188.8419107311
  0
LINE
  5
456
100
AcDbEntity
  8
0
100
AcDbLine
 62
7
  6
CONTINUOUS
 10
95.8699289181
 20
196.68200971
 11
95.8733909532
 21
196.6789409097
  0
LINE
  5
457
100
AcDbEntity
  8
0
100
AcDbLine
 62
7
  6
CONTINUOUS
 10
106.9671852318
 20
192.2410887977
 11
106.9642062088
 21
192.2440679005
  0
LINE
  5
458
100
AcDbEntity
  8
0
100
AcDbLine
 62
7
  6
CONTINUOUS
 10
97.8782842073
 20
201.329991035
 11
97.8812628705
 21
201.3270112362
  0
LINE
  5
459
100
AcDbEntity
  8
0
100
AcDbLine
 62
7
  6
CONTINUOUS
 10
102.3161358809
 20
190.2361959814
 11
102.3192046792
 21
190.2327339127
  0
LINE
  5
45A
100
AcDbEntity
  8
0
100
AcDbLine
 62
7
  6
CONTINUOUS
 10
144.4227345396
 20
272.7855395683
 11
144.4227345396
 21
266.5855395683
  0
LINE
  5
45B
100
AcDbEntity
  8
0
100
AcDbLine
 62
7
  6
CONTINUOUS
 10
144.4227345396
 20
221.9855395683
 11
144.4227345396
 21
216.5855395683
  0
LINE
  5
45C
100
AcDbEntity
  8
0
100
AcDbLine
 62
7
  6
CONTINUOUS
 10
144.4227345396
 20
171.9855395683
 11
144.4227345396
 21
166.5855395683
  0
LINE
  5
45D
100
AcDbEntity
  8
0
100
AcDbLine
 62
7
  6
CONTINUOUS
 10
144.4227345396
 20
121.9855395683
 11
144.4227345396
 21
42.7855395683
  0
LINE
  5
45E
100
AcDbEntity
  8
0
100
AcDbLine
 62
7
  6
CONTINUOUS
 10
118.2727345396
 20
178.0954995683
 11
115.2727345396
 21
178.0954995683
  0
LINE
  5
45F
100
AcDbEntity
  8
0
100
AcDbLine
 62
7
  6
CONTINUOUS
 10
118.2727345377
 20
178.1704995683
 11
115.2727345396
 21
178.1704995683
  0
LINE
  5
460
100
AcDbEntity
  8
0
100
AcDbLine
 62
7
  6
CONTINUOUS
 10
121.7727345396
 20
178.2204995683
 11
112.8227345396
 21
178.2204995683
  0
LINE
  5
461
100
AcDbEntity
  8
0
100
AcDbLine
 62
7
  6
CONTINUOUS
 10
123.0227345396
 20
179.3904995683
 11
111.5227345396
 21
179.3904995683
  0
LINE
  5
462
100
AcDbEntity
  8
0
100
AcDbLine
 62
7
  6
CONTINUOUS
 10
123.4227345396
 20
180.1855395683
 11
110.7227345396
 21
180.1855395683
  0
LINE
  5
463
100
AcDbEntity
  8
0
100
AcDbLine
 62
7
  6
CONTINUOUS
 10
108.9755401969
 20
196.8890694289
 11
108.9720781304
 21
196.8921382275
  0
LINE
  5
464
100
AcDbEntity
  8
0
100
AcDbLine
 62
7
  6
CONTINUOUS
 10
89.8913188095
 20
218.0856055683
 11
89.7853008047
 21
218.2013039183
  0
LINE
  5
465
100
AcDbEntity
  8
0
100
AcDbLine
 62
7
  6
CONTINUOUS
 10
89.683943491
 20
218.3119160163
 11
89.6174655323
 21
218.3844639778
  0
LINE
  5
466
100
AcDbEntity
  8
0
100
AcDbLine
 62
7
  6
CONTINUOUS
 10
96.6913188095
 20
218.0856055683
 11
96.5853008047
 21
218.2013039183
  0
LINE
  5
467
100
AcDbEntity
  8
0
100
AcDbLine
 62
7
  6
CONTINUOUS
 10
96.483943491
 20
218.3119160163
 11
96.4174655323
 21
218.3844639778
  0
LINE
  5
468
100
AcDbEntity
  8
0
100
AcDbLine
 62
7
  6
CONTINUOUS
 10
102.5262643963
 20
203.3383451911
 11
102.5293331959
 21
203.3348831336
  0
LINE
  5
469
100
AcDbEntity
  8
0
100
AcDbLine
 62
7
  6
CONTINUOUS
 10
90.3939883296
 20
221.6811707559
 11
90.8628322847
 21
221.1453578483
  0
LINE
  5
46A
100
AcDbEntity
  8
0
100
AcDbLine
 62
7
  6
CONTINUOUS
 10
92.6651449797
 20
219.0856055683
 11
93.4362245026
 21
218.2043862274
  0
LINE
  5
46B
100
AcDbEntity
  8
0
100
AcDbLine
 62
7
  6
CONTINUOUS
 10
93.5468451752
 20
218.3057513981
 11
92.7061007617
 21
219.266586456
  0
LINE
  5
46C
100
AcDbEntity
  8
0
100
AcDbLine
 62
7
  6
CONTINUOUS
 10
90.9394301708
 20
221.2856055683
 11
90.5019230218
 21
221.7856055683
  0
LINE
  5
46D
100
AcDbEntity
  8
0
100
AcDbLine
 62
7
  6
CONTINUOUS
 10
90.4030224137
 20
221.8986329878
 11
89.968373984
 21
222.3953659336
  0
LINE
  5
46E
100
AcDbEntity
  8
0
100
AcDbLine
 62
7
  6
CONTINUOUS
 10
97.1939883296
 20
221.6811707559
 11
97.6628322847
 21
221.1453578483
  0
LINE
  5
46F
100
AcDbEntity
  8
0
100
AcDbLine
 62
7
  6
CONTINUOUS
 10
99.4651449797
 20
219.0856055683
 11
100.2362245026
 21
218.2043862274
  0
LINE
  5
470
100
AcDbEntity
  8
0
100
AcDbLine
 62
7
  6
CONTINUOUS
 10
100.3468451752
 20
218.3057513981
 11
99.5061007617
 21
219.266586456
  0
LINE
  5
471
100
AcDbEntity
  8
0
100
AcDbLine
 62
7
  6
CONTINUOUS
 10
97.7394301708
 20
221.2856055683
 11
97.3019230218
 21
221.7856055683
  0
LINE
  5
472
100
AcDbEntity
  8
0
100
AcDbLine
 62
7
  6
CONTINUOUS
 10
97.2030224137
 20
221.8986329878
 11
96.768373984
 21
222.3953659336
  0
LINE
  5
473
100
AcDbEntity
  8
0
100
AcDbLine
 62
7
  6
CONTINUOUS
 10
90.333514425
 20
225.2975556316
 11
91.1431220626
 21
224.349084669
  0
LINE
  5
474
100
AcDbEntity
  8
0
100
AcDbLine
 62
7
  6
CONTINUOUS
 10
92.904492211
 20
222.2856055683
 11
93.3312884281
 21
221.7856055683
  0
LINE
  5
475
100
AcDbEntity
  8
0
100
AcDbLine
 62
7
  6
CONTINUOUS
 10
93.4288179157
 20
221.6713478925
 11
93.8746178519
 21
221.149084669
  0
LINE
  5
476
100
AcDbEntity
  8
0
100
AcDbLine
 62
7
  6
CONTINUOUS
 10
93.440069869
 20
221.889207767
 11
92.9824536159
 21
222.4253140336
  0
LINE
  5
477
100
AcDbEntity
  8
0
100
AcDbLine
 62
7
  6
CONTINUOUS
 10
91.2238043496
 20
224.4856055683
 11
90.4441745316
 21
225.398956937
  0
LINE
  5
478
100
AcDbEntity
  8
_1
100
AcDbLine
 62
7
  6
CONTINUOUS
 10
145.136948102
 20
121.9855395683
 11
145.136948102
 21
166.5855395683
  0
LINE
  5
479
100
AcDbEntity
  8
_1
100
AcDbLine
 62
7
  6
CONTINUOUS
 10
145.136948102
 20
171.9855395683
 11
145.136948102
 21
216.5855395683
  0
LINE
  5
47A
100
AcDbEntity
  8
_1
100
AcDbLine
 62
7
  6
CONTINUOUS
 10
145.136948102
 20
221.9855395683
 11
145.136948102
 21
266.5855395683
  0
LINE
  5
47B
100
AcDbEntity
  8
0
100
AcDbLine
 62
7
  6
CONTINUOUS
 10
145.4227345396
 20
272.7855395683
 11
145.4227345396
 21
292.7855176782
  0
LINE
  5
47C
100
AcDbEntity
  8
0
100
AcDbLine
 62
7
  6
CONTINUOUS
 10
147.4227345396
 20
272.7855395683
 11
147.4227345396
 21
292.7855176782
  0
LINE
  5
47D
100
AcDbEntity
  8
_1
100
AcDbLine
 62
7
  6
CONTINUOUS
 10
148.1227345396
 20
121.9855395683
 11
148.1227345396
 21
166.5855395683
  0
LINE
  5
47E
100
AcDbEntity
  8
_1
100
AcDbLine
 62
7
  6
CONTINUOUS
 10
148.1227345396
 20
171.9855395683
 11
148.1227345396
 21
216.5855395683
  0
LINE
  5
47F
100
AcDbEntity
  8
_1
100
AcDbLine
 62
7
  6
CONTINUOUS
 10
148.1227345396
 20
221.9855395683
 11
148.1227345396
 21
266.5855395683
  0
LINE
  5
480
100
AcDbEntity
  8
0
100
AcDbLine
 62
7
  6
CONTINUOUS
 10
149.4227345396
 20
42.7855395683
 11
149.4227345396
 21
272.7855395683
  0
LINE
  5
481
100
AcDbEntity
  8
0
100
AcDbLine
 62
7
  6
CONTINUOUS
 10
97.862407892
 20
192.0787995855
 11
97.8670259091
 21
192.0790776682
  0
LINE
  5
482
100
AcDbEntity
  8
0
100
AcDbLine
 62
7
  6
CONTINUOUS
 10
106.9830611676
 20
192.078799613
 11
106.9784431541
 21
192.0790776885
  0
LINE
  5
483
100
AcDbEntity
  8
0
100
AcDbLine
 62
7
  6
CONTINUOUS
 10
86.1687345396
 20
231.9905395683
 11
86.3083750591
 21
231.8508990489
  0
LINE
  5
484
100
AcDbEntity
  8
0
100
AcDbLine
 62
7
  6
CONTINUOUS
 10
91.4890940202
 20
229.7201800878
 11
91.6287345396
 21
229.5805395683
  0
LINE
  5
485
100
AcDbEntity
  8
0
100
AcDbLine
 62
7
  6
CONTINUOUS
 10
95.1687345396
 20
231.9905395683
 11
95.3083750591
 21
231.8508990489
  0
LINE
  5
486
100
AcDbEntity
  8
0
100
AcDbLine
 62
7
  6
CONTINUOUS
 10
93.9540142698
 20
225.4856055683
 11
94.0274156569
 21
225.4055020106
  0
LINE
  5
487
100
AcDbEntity
  8
0
100
AcDbLine
 62
7
  6
CONTINUOUS
 10
94.1287915616
 20
225.294869624
 11
94.2278675469
 21
225.1867471589
  0
LINE
  5
488
100
AcDbEntity
  8
0
100
AcDbLine
 62
7
  6
CONTINUOUS
 10
104.0913188095
 20
218.0856055683
 11
103.9853008047
 21
218.2013039183
  0
LINE
  5
489
100
AcDbEntity
  8
0
100
AcDbLine
 62
7
  6
CONTINUOUS
 10
103.883943491
 20
218.3119160163
 11
103.8174655323
 21
218.3844639778
  0
LINE
  5
48A
100
AcDbEntity
  8
0
100
AcDbLine
 62
7
  6
CONTINUOUS
 10
100.7540142698
 20
225.4856055683
 11
100.8274156569
 21
225.4055020106
  0
LINE
  5
48B
100
AcDbEntity
  8
0
100
AcDbLine
 62
7
  6
CONTINUOUS
 10
100.9287915616
 20
225.294869624
 11
101.0278675469
 21
225.1867471589
  0
LINE
  5
48C
100
AcDbEntity
  8
0
100
AcDbLine
 62
7
  6
CONTINUOUS
 10
110.8913188095
 20
218.0856055683
 11
110.7853008047
 21
218.2013039183
  0
LINE
  5
48D
100
AcDbEntity
  8
0
100
AcDbLine
 62
7
  6
CONTINUOUS
 10
110.683943491
 20
218.3119160163
 11
110.6174655323
 21
218.3844639778
  0
LINE
  5
48E
100
AcDbEntity
  8
0
100
AcDbLine
 62
7
  6
CONTINUOUS
 10
104.5939883296
 20
221.6811707559
 11
105.0628322847
 21
221.1453578483
  0
LINE
  5
48F
100
AcDbEntity
  8
0
100
AcDbLine
 62
7
  6
CONTINUOUS
 10
106.8651449797
 20
219.0856055683
 11
107.6362245026
 21
218.2043862274
  0
LINE
  5
490
100
AcDbEntity
  8
0
100
AcDbLine
 62
7
  6
CONTINUOUS
 10
107.7468451752
 20
218.3057513981
 11
106.9061007617
 21
219.266586456
  0
LINE
  5
491
100
AcDbEntity
  8
0
100
AcDbLine
 62
7
  6
CONTINUOUS
 10
105.1394301708
 20
221.2856055683
 11
104.7019230218
 21
221.7856055683
  0
LINE
  5
492
100
AcDbEntity
  8
0
100
AcDbLine
 62
7
  6
CONTINUOUS
 10
104.6030224137
 20
221.8986329878
 11
104.168373984
 21
222.3953659336
  0
LINE
  5
493
100
AcDbEntity
  8
0
100
AcDbLine
 62
7
  6
CONTINUOUS
 10
97.133514425
 20
225.2975556316
 11
97.9431220626
 21
224.349084669
  0
LINE
  5
494
100
AcDbEntity
  8
0
100
AcDbLine
 62
7
  6
CONTINUOUS
 10
99.704492211
 20
222.2856055683
 11
100.1312884281
 21
221.7856055683
  0
LINE
  5
495
100
AcDbEntity
  8
0
100
AcDbLine
 62
7
  6
CONTINUOUS
 10
100.2288179157
 20
221.6713478925
 11
100.6746178519
 21
221.149084669
  0
LINE
  5
496
100
AcDbEntity
  8
0
100
AcDbLine
 62
7
  6
CONTINUOUS
 10
100.240069869
 20
221.889207767
 11
99.7824536159
 21
222.4253140336
  0
LINE
  5
497
100
AcDbEntity
  8
0
100
AcDbLine
 62
7
  6
CONTINUOUS
 10
98.0238043496
 20
224.4856055683
 11
97.2441745316
 21
225.398956937
  0
LINE
  5
498
100
AcDbEntity
  8
0
100
AcDbLine
 62
7
  6
CONTINUOUS
 10
104.533514425
 20
225.2975556316
 11
105.3431220626
 21
224.349084669
  0
LINE
  5
499
100
AcDbEntity
  8
0
100
AcDbLine
 62
7
  6
CONTINUOUS
 10
107.104492211
 20
222.2856055683
 11
107.5312884281
 21
221.7856055683
  0
LINE
  5
49A
100
AcDbEntity
  8
0
100
AcDbLine
 62
7
  6
CONTINUOUS
 10
107.6288179157
 20
221.6713478925
 11
108.0746178519
 21
221.149084669
  0
LINE
  5
49B
100
AcDbEntity
  8
0
100
AcDbLine
 62
7
  6
CONTINUOUS
 10
107.640069869
 20
221.889207767
 11
107.1824536159
 21
222.4253140336
  0
LINE
  5
49C
100
AcDbEntity
  8
0
100
AcDbLine
 62
7
  6
CONTINUOUS
 10
105.4238043496
 20
224.4856055683
 11
104.6441745316
 21
225.398956937
  0
LINE
  5
49D
100
AcDbEntity
  8
0
100
AcDbLine
 62
7
  6
CONTINUOUS
 10
106.9385696951
 20
31.0950665258
 11
105.3133385449
 21
27.6097470656
  0
LINE
  5
49E
100
AcDbEntity
  8
0
100
AcDbLine
 62
7
  6
CONTINUOUS
 10
106.3133385449
 20
27.3880524036
 11
107.4227345396
 21
29.7671597995
  0
LINE
  5
49F
100
AcDbEntity
  8
0
100
AcDbLine
 62
7
  6
CONTINUOUS
 10
106.9830611892
 20
201.4922795509
 11
106.9784432026
 21
201.4920015092
  0
LINE
  5
4A0
100
AcDbEntity
  8
0
100
AcDbLine
 62
7
  6
CONTINUOUS
 10
95.9959104176
 20
196.7855404533
 11
96.0001237129
 21
196.7855395674
  0
LINE
  5
4A1
100
AcDbEntity
  8
0
100
AcDbLine
 62
7
  6
CONTINUOUS
 10
108.8495587982
 20
196.7855382546
 11
108.8453453664
 21
196.7855395693
  0
LINE
  5
4A2
100
AcDbEntity
  8
0
100
AcDbLine
 62
7
  6
CONTINUOUS
 10
97.8624079117
 20
201.4922795237
 11
97.867025925
 21
201.4920014483
  0
LINE
  5
4A3
100
AcDbEntity
  8
0
100
AcDbLine
 62
7
  6
CONTINUOUS
 10
100.4890940202
 20
229.7201800878
 11
100.6287345396
 21
229.5805395683
  0
LINE
  5
4A4
100
AcDbEntity
  8
0
100
AcDbLine
 62
7
  6
CONTINUOUS
 10
104.1686545396
 20
231.9905875683
 11
104.3082950591
 21
231.8509470489
  0
LINE
  5
4A5
100
AcDbEntity
  8
0
100
AcDbLine
 62
7
  6
CONTINUOUS
 10
109.4890140202
 20
229.7202280878
 11
109.6286545396
 21
229.5805875683
  0
LINE
  5
4A6
100
AcDbEntity
  8
0
100
AcDbLine
 62
7
  6
CONTINUOUS
 10
108.1540142698
 20
225.4856055683
 11
108.2274156569
 21
225.4055020106
  0
LINE
  5
4A7
100
AcDbEntity
  8
0
100
AcDbLine
 62
7
  6
CONTINUOUS
 10
108.3287915616
 20
225.294869624
 11
108.4278675469
 21
225.1867471589
  0
LINE
  5
4A8
100
AcDbEntity
  8
0
100
AcDbLine
 62
7
  6
CONTINUOUS
 10
114.9540142698
 20
225.4856055683
 11
115.0274156569
 21
225.4055020106
  0
LINE
  5
4A9
100
AcDbEntity
  8
0
100
AcDbLine
 62
7
  6
CONTINUOUS
 10
115.1287915616
 20
225.294869624
 11
115.2278675469
 21
225.1867471589
  0
LINE
  5
4AA
100
AcDbEntity
  8
0
100
AcDbLine
 62
7
  6
CONTINUOUS
 10
111.3939883296
 20
221.6811707559
 11
111.8628322847
 21
221.1453578483
  0
LINE
  5
4AB
100
AcDbEntity
  8
0
100
AcDbLine
 62
7
  6
CONTINUOUS
 10
113.6651449797
 20
219.0856055683
 11
114.4362245026
 21
218.2043862274
  0
LINE
  5
4AC
100
AcDbEntity
  8
0
100
AcDbLine
 62
7
  6
CONTINUOUS
 10
114.5468451752
 20
218.3057513981
 11
113.7061007617
 21
219.266586456
  0
LINE
  5
4AD
100
AcDbEntity
  8
0
100
AcDbLine
 62
7
  6
CONTINUOUS
 10
111.9394301708
 20
221.2856055683
 11
111.5019230218
 21
221.7856055683
  0
LINE
  5
4AE
100
AcDbEntity
  8
0
100
AcDbLine
 62
7
  6
CONTINUOUS
 10
111.4030224137
 20
221.8986329878
 11
110.968373984
 21
222.3953659336
  0
LINE
  5
4AF
100
AcDbEntity
  8
0
100
AcDbLine
 62
7
  6
CONTINUOUS
 10
111.333514425
 20
225.2975556316
 11
112.1431220626
 21
224.349084669
  0
LINE
  5
4B0
100
AcDbEntity
  8
0
100
AcDbLine
 62
7
  6
CONTINUOUS
 10
113.904492211
 20
222.2856055683
 11
114.3312884281
 21
221.7856055683
  0
LINE
  5
4B1
100
AcDbEntity
  8
0
100
AcDbLine
 62
7
  6
CONTINUOUS
 10
114.4288179157
 20
221.6713478925
 11
114.8746178519
 21
221.149084669
  0
LINE
  5
4B2
100
AcDbEntity
  8
0
100
AcDbLine
 62
7
  6
CONTINUOUS
 10
114.440069869
 20
221.889207767
 11
113.9824536159
 21
222.4253140336
  0
LINE
  5
4B3
100
AcDbEntity
  8
0
100
AcDbLine
 62
7
  6
CONTINUOUS
 10
112.2238043496
 20
224.4856055683
 11
111.4441745316
 21
225.398956937
  0
LINE
  5
4B4
100
AcDbEntity
  8
0
100
AcDbLine
 62
7
  6
CONTINUOUS
 10
113.1687345396
 20
231.9905395683
 11
113.3083750591
 21
231.8508990489
  0
LINE
  5
4B5
100
AcDbEntity
  8
0
100
AcDbLine
 62
7
  6
CONTINUOUS
 10
118.4890940202
 20
229.7201800878
 11
118.6287345396
 21
229.5805395683
  0
LINE
  5
4B6
100
AcDbEntity
  8
0
100
AcDbLine
 62
7
  6
CONTINUOUS
 10
100.572111925
 20
22.7855395683
 11
102.6727345396
 21
25.7855395683
  0
LINE
  5
4B7
100
AcDbEntity
  8
_1
100
AcDbLine
 62
7
  6
CONTINUOUS
 10
124.0227345396
 20
216.5855395683
 11
148.1227345396
 21
216.5855395683
  0
LINE
  5
4B8
100
AcDbEntity
  8
0
100
AcDbLine
 62
7
  6
CONTINUOUS
 10
86.4227345396
 20
216.7855395683
 11
118.4227345396
 21
216.7855395683
  0
LINE
  5
4B9
100
AcDbEntity
  8
0
100
AcDbLine
 62
7
  6
CONTINUOUS
 10
114.3065981597
 20
218.0856055683
 11
110.8913188095
 21
218.0856055683
  0
LINE
  5
4BA
100
AcDbEntity
  8
0
100
AcDbLine
 62
7
  6
CONTINUOUS
 10
107.5065981597
 20
218.0856055683
 11
104.0913188095
 21
218.0856055683
  0
LINE
  5
4BB
100
AcDbEntity
  8
0
100
AcDbLine
 62
7
  6
CONTINUOUS
 10
100.1065981597
 20
218.0856055683
 11
96.6913188095
 21
218.0856055683
  0
LINE
  5
4BC
100
AcDbEntity
  8
0
100
AcDbLine
 62
7
  6
CONTINUOUS
 10
93.3065981597
 20
218.0856055683
 11
89.8913188095
 21
218.0856055683
  0
LINE
  5
4BD
100
AcDbEntity
  8
0
100
AcDbLine
 62
7
  6
CONTINUOUS
 10
90.7138101312
 20
219.0856055683
 11
92.6651449797
 21
219.0856055683
  0
LINE
  5
4BE
100
AcDbEntity
  8
0
100
AcDbLine
 62
7
  6
CONTINUOUS
 10
97.5138101312
 20
219.0856055683
 11
99.4651449797
 21
219.0856055683
  0
LINE
  5
4BF
100
AcDbEntity
  8
0
100
AcDbLine
 62
7
  6
CONTINUOUS
 10
104.9138101312
 20
219.0856055683
 11
106.8651449797
 21
219.0856055683
  0
LINE
  5
4C0
100
AcDbEntity
  8
0
100
AcDbLine
 62
7
  6
CONTINUOUS
 10
111.7138101312
 20
219.0856055683
 11
113.6651449797
 21
219.0856055683
  0
LINE
  5
4C1
100
AcDbEntity
  8
0
100
AcDbLine
 62
7
  6
CONTINUOUS
 10
113.8062926157
 20
221.2856055683
 11
111.9394301708
 21
221.2856055683
  0
LINE
  5
4C2
100
AcDbEntity
  8
0
100
AcDbLine
 62
7
  6
CONTINUOUS
 10
107.0062926157
 20
221.2856055683
 11
105.1394301708
 21
221.2856055683
  0
LINE
  5
4C3
100
AcDbEntity
  8
0
100
AcDbLine
 62
7
  6
CONTINUOUS
 10
99.6062926157
 20
221.2856055683
 11
97.7394301708
 21
221.2856055683
  0
LINE
  5
4C4
100
AcDbEntity
  8
0
100
AcDbLine
 62
7
  6
CONTINUOUS
 10
92.8062926157
 20
221.2856055683
 11
90.9394301708
 21
221.2856055683
  0
LINE
  5
4C5
100
AcDbEntity
  8
_1
100
AcDbLine
 62
7
  6
CONTINUOUS
 10
124.0227345396
 20
221.9855395683
 11
148.1227345396
 21
221.9855395683
  0
LINE
  5
4C6
100
AcDbEntity
  8
0
100
AcDbLine
 62
7
  6
CONTINUOUS
 10
91.0186793106
 20
222.2856055683
 11
92.904492211
 21
222.2856055683
  0
LINE
  5
4C7
100
AcDbEntity
  8
0
100
AcDbLine
 62
7
  6
CONTINUOUS
 10
97.8186793106
 20
222.2856055683
 11
99.704492211
 21
222.2856055683
  0
LINE
  5
4C8
100
AcDbEntity
  8
0
100
AcDbLine
 62
7
  6
CONTINUOUS
 10
105.2186793106
 20
222.2856055683
 11
107.104492211
 21
222.2856055683
  0
LINE
  5
4C9
100
AcDbEntity
  8
0
100
AcDbLine
 62
7
  6
CONTINUOUS
 10
112.0186793106
 20
222.2856055683
 11
113.904492211
 21
222.2856055683
  0
LINE
  5
4CA
100
AcDbEntity
  8
0
100
AcDbLine
 62
7
  6
CONTINUOUS
 10
114.0766911137
 20
224.4856055683
 11
112.2238043496
 21
224.4856055683
  0
LINE
  5
4CB
100
AcDbEntity
  8
0
100
AcDbLine
 62
7
  6
CONTINUOUS
 10
107.2766911137
 20
224.4856055683
 11
105.4238043496
 21
224.4856055683
  0
LINE
  5
4CC
100
AcDbEntity
  8
0
100
AcDbLine
 62
7
  6
CONTINUOUS
 10
99.8766911137
 20
224.4856055683
 11
98.0238043496
 21
224.4856055683
  0
LINE
  5
4CD
100
AcDbEntity
  8
0
100
AcDbLine
 62
7
  6
CONTINUOUS
 10
93.0766911137
 20
224.4856055683
 11
91.2238043496
 21
224.4856055683
  0
LINE
  5
4CE
100
AcDbEntity
  8
0
100
AcDbLine
 62
7
  6
CONTINUOUS
 10
115.7335469162
 20
53.6963519449
 11
115.4227345396
 21
53.3855395683
  0
LINE
  5
4CF
100
AcDbEntity
  8
0
100
AcDbLine
 62
7
  6
CONTINUOUS
 10
112.8609492572
 20
50.8237542859
 11
113.3227345396
 21
51.2855395683
  0
LINE
  5
4D0
100
AcDbEntity
  8
0
100
AcDbLine
 62
7
  6
CONTINUOUS
 10
115.1119221631
 20
50.9747271918
 11
115.7335469162
 21
51.5963519449
  0
LINE
  5
4D1
100
AcDbEntity
  8
0
100
AcDbLine
 62
7
  6
CONTINUOUS
 10
90.5387349196
 20
225.4856055683
 11
93.9540142698
 21
225.4856055683
  0
LINE
  5
4D2
100
AcDbEntity
  8
0
100
AcDbLine
 62
7
  6
CONTINUOUS
 10
97.3387349196
 20
225.4856055683
 11
100.7540142698
 21
225.4856055683
  0
LINE
  5
4D3
100
AcDbEntity
  8
0
100
AcDbLine
 62
7
  6
CONTINUOUS
 10
104.7387349196
 20
225.4856055683
 11
108.1540142698
 21
225.4856055683
  0
LINE
  5
4D4
100
AcDbEntity
  8
0
100
AcDbLine
 62
7
  6
CONTINUOUS
 10
111.5387349196
 20
225.4856055683
 11
114.9540142698
 21
225.4856055683
  0
LINE
  5
4D5
100
AcDbEntity
  8
0
100
AcDbLine
 62
7
  6
CONTINUOUS
 10
118.4227345396
 20
226.7855395683
 11
86.4227345396
 21
226.7855395683
  0
LINE
  5
4D6
100
AcDbEntity
  8
0
100
AcDbLine
 62
7
  6
CONTINUOUS
 10
85.9227345396
 20
229.2855395683
 11
91.9227345396
 21
229.2855395683
  0
LINE
  5
4D7
100
AcDbEntity
  8
0
100
AcDbLine
 62
7
  6
CONTINUOUS
 10
94.9227345396
 20
229.2855395683
 11
100.9227345396
 21
229.2855395683
  0
LINE
  5
4D8
100
AcDbEntity
  8
0
100
AcDbLine
 62
7
  6
CONTINUOUS
 10
103.9227345396
 20
229.2855395683
 11
109.9227345396
 21
229.2855395683
  0
LINE
  5
4D9
100
AcDbEntity
  8
0
100
AcDbLine
 62
7
  6
CONTINUOUS
 10
112.9227345396
 20
229.2855395683
 11
118.9227345396
 21
229.2855395683
  0
LINE
  5
4DA
100
AcDbEntity
  8
0
100
AcDbLine
 62
7
  6
CONTINUOUS
 10
118.6287345396
 20
229.5805395683
 11
113.1687345396
 21
229.5805395683
  0
LINE
  5
4DB
100
AcDbEntity
  8
0
100
AcDbLine
 62
7
  6
CONTINUOUS
 10
100.6287345396
 20
229.5805395683
 11
95.1687345396
 21
229.5805395683
  0
LINE
  5
4DC
100
AcDbEntity
  8
0
100
AcDbLine
 62
7
  6
CONTINUOUS
 10
91.6287345396
 20
229.5805395683
 11
86.1687345396
 21
229.5805395683
  0
LINE
  5
4DD
100
AcDbEntity
  8
0
100
AcDbLine
 62
7
  6
CONTINUOUS
 10
109.6286545396
 20
229.5805875683
 11
104.1686545396
 21
229.5805875683
  0
LINE
  5
4DE
100
AcDbEntity
  8
0
100
AcDbLine
 62
7
  6
CONTINUOUS
 10
86.3083750591
 20
229.7201800878
 11
91.4890940202
 21
229.7201800878
  0
LINE
  5
4DF
100
AcDbEntity
  8
0
100
AcDbLine
 62
7
  6
CONTINUOUS
 10
95.3083750591
 20
229.7201800878
 11
100.4890940202
 21
229.7201800878
  0
LINE
  5
4E0
100
AcDbEntity
  8
0
100
AcDbLine
 62
7
  6
CONTINUOUS
 10
113.3083750591
 20
229.7201800878
 11
118.4890940202
 21
229.7201800878
  0
LINE
  5
4E1
100
AcDbEntity
  8
0
100
AcDbLine
 62
7
  6
CONTINUOUS
 10
104.3082950591
 20
229.7202280878
 11
109.4890140202
 21
229.7202280878
  0
LINE
  5
4E2
100
AcDbEntity
  8
0
100
AcDbLine
 62
7
  6
CONTINUOUS
 10
86.3083750591
 20
231.8508990489
 11
91.4890940202
 21
231.8508990489
  0
LINE
  5
4E3
100
AcDbEntity
  8
0
100
AcDbLine
 62
7
  6
CONTINUOUS
 10
95.3083750591
 20
231.8508990489
 11
100.4890940202
 21
231.8508990489
  0
LINE
  5
4E4
100
AcDbEntity
  8
0
100
AcDbLine
 62
7
  6
CONTINUOUS
 10
113.3083750591
 20
231.8508990489
 11
118.4890940202
 21
231.8508990489
  0
LINE
  5
4E5
100
AcDbEntity
  8
0
100
AcDbLine
 62
7
  6
CONTINUOUS
 10
104.3082950591
 20
231.8509470489
 11
109.4890140202
 21
231.8509470489
  0
LINE
  5
4E6
100
AcDbEntity
  8
0
100
AcDbLine
 62
7
  6
CONTINUOUS
 10
118.6287345396
 20
231.9905395683
 11
113.1687345396
 21
231.9905395683
  0
LINE
  5
4E7
100
AcDbEntity
  8
0
100
AcDbLine
 62
7
  6
CONTINUOUS
 10
100.6287345396
 20
231.9905395683
 11
95.1687345396
 21
231.9905395683
  0
LINE
  5
4E8
100
AcDbEntity
  8
0
100
AcDbLine
 62
7
  6
CONTINUOUS
 10
91.6287345396
 20
231.9905395683
 11
86.1687345396
 21
231.9905395683
  0
LINE
  5
4E9
100
AcDbEntity
  8
0
100
AcDbLine
 62
7
  6
CONTINUOUS
 10
109.6286545396
 20
231.9905875683
 11
104.1686545396
 21
231.9905875683
  0
LINE
  5
4EA
100
AcDbEntity
  8
0
100
AcDbLine
 62
7
  6
CONTINUOUS
 10
118.9227345396
 20
232.2855395683
 11
112.9227345396
 21
232.2855395683
  0
LINE
  5
4EB
100
AcDbEntity
  8
0
100
AcDbLine
 62
7
  6
CONTINUOUS
 10
109.9227345396
 20
232.2855395683
 11
103.9227345396
 21
232.2855395683
  0
LINE
  5
4EC
100
AcDbEntity
  8
0
100
AcDbLine
 62
7
  6
CONTINUOUS
 10
100.9227345396
 20
232.2855395683
 11
94.9227345396
 21
232.2855395683
  0
LINE
  5
4ED
100
AcDbEntity
  8
0
100
AcDbLine
 62
7
  6
CONTINUOUS
 10
91.9227345396
 20
232.2855395683
 11
85.9227345396
 21
232.2855395683
  0
LINE
  5
4EE
100
AcDbEntity
  8
0
100
AcDbLine
 62
7
  6
CONTINUOUS
 10
117.9845198221
 20
51.7473248508
 11
117.5227345396
 21
51.2855395683
  0
LINE
  5
4EF
100
AcDbEntity
  8
0
100
AcDbLine
 62
7
  6
CONTINUOUS
 10
115.1119221631
 20
48.8747271918
 11
115.4227345396
 21
49.1855395683
  0
LINE
  5
4F0
100
AcDbEntity
  8
_1
100
AcDbLine
 62
7
  6
CONTINUOUS
 10
108.6692473368
 20
235.9705395683
 11
114.4692473368
 21
235.9705395683
  0
LINE
  5
4F1
100
AcDbEntity
  8
_1
100
AcDbLine
 62
7
  6
CONTINUOUS
 10
116.9692473368
 20
235.9705395683
 11
122.7692473368
 21
235.9705395683
  0
LINE
  5
4F2
100
AcDbEntity
  8
0
100
AcDbLine
 62
7
  6
CONTINUOUS
 10
106.4227345396
 20
236.2855395683
 11
108.6692473368
 21
236.2855395683
  0
LINE
  5
4F3
100
AcDbEntity
  8
0
100
AcDbLine
 62
7
  6
CONTINUOUS
 10
114.4692473368
 20
236.2855395683
 11
116.9692473368
 21
236.2855395683
  0
LINE
  5
4F4
100
AcDbEntity
  8
0
100
AcDbLine
 62
7
  6
CONTINUOUS
 10
122.7692473368
 20
236.2855395683
 11
123.4227345396
 21
236.2855395683
  0
LINE
  5
4F5
100
AcDbEntity
  8
_1
100
AcDbLine
 62
7
  6
CONTINUOUS
 10
108.6692473368
 20
238.0571775982
 11
114.4692473368
 21
238.0571775982
  0
LINE
  5
4F6
100
AcDbEntity
  8
_1
100
AcDbLine
 62
7
  6
CONTINUOUS
 10
116.9692473368
 20
238.0571775982
 11
122.7692473368
 21
238.0571775982
  0
LINE
  5
4F7
100
AcDbEntity
  8
0
100
AcDbLine
 62
7
  6
CONTINUOUS
 10
106.4227345396
 20
240.2855395683
 11
108.6692473368
 21
240.2855395683
  0
LINE
  5
4F8
100
AcDbEntity
  8
0
100
AcDbLine
 62
7
  6
CONTINUOUS
 10
114.4692473368
 20
240.2855395683
 11
116.9692473368
 21
240.2855395683
  0
LINE
  5
4F9
100
AcDbEntity
  8
0
100
AcDbLine
 62
7
  6
CONTINUOUS
 10
123.0192564703
 20
240.8205395683
 11
122.7692473368
 21
240.8205395683
  0
LINE
  5
4FA
100
AcDbEntity
  8
0
100
AcDbLine
 62
7
  6
CONTINUOUS
 10
116.9692473368
 20
240.8205395683
 11
114.4692473368
 21
240.8205395683
  0
LINE
  5
4FB
100
AcDbEntity
  8
0
100
AcDbLine
 62
7
  6
CONTINUOUS
 10
108.6692473368
 20
240.8205395683
 11
107.8192473368
 21
240.8205395683
  0
LINE
  5
4FC
100
AcDbEntity
  8
_1
100
AcDbLine
 62
7
  6
CONTINUOUS
 10
106.9692473368
 20
240.9705395683
 11
114.6692473368
 21
240.9705395683
  0
LINE
  5
4FD
100
AcDbEntity
  8
_1
100
AcDbLine
 62
7
  6
CONTINUOUS
 10
115.2692473368
 20
240.9705395683
 11
122.9692473368
 21
240.9705395683
  0
LINE
  5
4FE
100
AcDbEntity
  8
0
100
AcDbLine
 62
7
  6
CONTINUOUS
 10
114.6692473368
 20
241.5944743983
 11
115.2692473368
 21
241.5944743983
  0
LINE
  5
4FF
100
AcDbEntity
  8
0
100
AcDbLine
 62
7
  6
CONTINUOUS
 10
119.7335469162
 20
35.1963519449
 11
119.4227345396
 21
34.8855395683
  0
LINE
  5
500
100
AcDbEntity
  8
0
100
AcDbLine
 62
7
  6
CONTINUOUS
 10
116.8609492572
 20
32.3237542859
 11
117.3227345396
 21
32.7855395683
  0
LINE
  5
501
100
AcDbEntity
  8
0
100
AcDbLine
 62
7
  6
CONTINUOUS
 10
119.1119221631
 20
32.4747271918
 11
119.7335469162
 21
33.0963519449
  0
LINE
  5
502
100
AcDbEntity
  8
0
100
AcDbLine
 62
7
  6
CONTINUOUS
 10
121.9845198221
 20
33.2473248508
 11
121.5227345396
 21
32.7855395683
  0
LINE
  5
503
100
AcDbEntity
  8
0
100
AcDbLine
 62
7
  6
CONTINUOUS
 10
119.1119221631
 20
30.3747271918
 11
119.4227345396
 21
30.6855395683
  0
LINE
  5
504
100
AcDbEntity
  8
0
100
AcDbLine
 62
7
  6
CONTINUOUS
 10
115.2692473368
 20
244.4545429983
 11
114.6692473368
 21
244.4545429983
  0
LINE
  5
505
100
AcDbEntity
  8
0
100
AcDbLine
 62
7
  6
CONTINUOUS
 10
114.6692473368
 20
245.0944743983
 11
115.2692473368
 21
245.0944743983
  0
LINE
  5
506
100
AcDbEntity
  8
0
100
AcDbLine
 62
7
  6
CONTINUOUS
 10
115.2692473368
 20
247.9545429983
 11
114.6692473368
 21
247.9545429983
  0
LINE
  5
507
100
AcDbEntity
  8
0
100
AcDbLine
 62
7
  6
CONTINUOUS
 10
114.6692473368
 20
248.5944743983
 11
115.2692473368
 21
248.5944743983
  0
LINE
  5
508
100
AcDbEntity
  8
0
100
AcDbLine
 62
7
  6
CONTINUOUS
 10
115.2692473368
 20
251.4545429983
 11
114.6692473368
 21
251.4545429983
  0
LINE
  5
509
100
AcDbEntity
  8
0
100
AcDbLine
 62
7
  6
CONTINUOUS
 10
114.6692473368
 20
252.0944743983
 11
115.2692473368
 21
252.0944743983
  0
LINE
  5
50A
100
AcDbEntity
  8
0
100
AcDbLine
 62
7
  6
CONTINUOUS
 10
115.2692473368
 20
254.9545429983
 11
114.6692473368
 21
254.9545429983
  0
LINE
  5
50B
100
AcDbEntity
  8
0
100
AcDbLine
 62
7
  6
CONTINUOUS
 10
114.6692473368
 20
255.5944743983
 11
115.2692473368
 21
255.5944743983
  0
LINE
  5
50C
100
AcDbEntity
  8
0
100
AcDbLine
 62
7
  6
CONTINUOUS
 10
115.2692473368
 20
258.4545429983
 11
114.6692473368
 21
258.4545429983
  0
LINE
  5
50D
100
AcDbEntity
  8
0
100
AcDbLine
 62
7
  6
CONTINUOUS
 10
114.6692473368
 20
259.0944743983
 11
115.2692473368
 21
259.0944743983
  0
LINE
  5
50E
100
AcDbEntity
  8
0
100
AcDbLine
 62
7
  6
CONTINUOUS
 10
115.2692473368
 20
261.9545429983
 11
114.6692473368
 21
261.9545429983
  0
LINE
  5
50F
100
AcDbEntity
  8
_1
100
AcDbLine
 62
7
  6
CONTINUOUS
 10
122.9692473368
 20
262.6705395683
 11
115.2692473368
 21
262.6705395683
  0
LINE
  5
510
100
AcDbEntity
  8
_1
100
AcDbLine
 62
7
  6
CONTINUOUS
 10
114.6692473368
 20
262.6705395683
 11
106.9692473368
 21
262.6705395683
  0
LINE
  5
511
100
AcDbEntity
  8
0
100
AcDbLine
 62
7
  6
CONTINUOUS
 10
107.8192473368
 20
262.7205395683
 11
108.6692473368
 21
262.7205395683
  0
LINE
  5
512
100
AcDbEntity
  8
0
100
AcDbLine
 62
7
  6
CONTINUOUS
 10
114.4692473368
 20
262.7205395683
 11
116.9692473368
 21
262.7205395683
  0
LINE
  5
513
100
AcDbEntity
  8
0
100
AcDbLine
 62
7
  6
CONTINUOUS
 10
122.7692473368
 20
262.7205395683
 11
123.0192564706
 21
262.7205395683
  0
LINE
  5
514
100
AcDbEntity
  8
0
100
AcDbLine
 62
7
  6
CONTINUOUS
 10
123.0227345396
 20
263.2205395683
 11
122.7692473368
 21
263.2205395683
  0
LINE
  5
515
100
AcDbEntity
  8
0
100
AcDbLine
 62
7
  6
CONTINUOUS
 10
116.9692473368
 20
263.2855395683
 11
114.4692473368
 21
263.2855395683
  0
LINE
  5
516
100
AcDbEntity
  8
0
100
AcDbLine
 62
7
  6
CONTINUOUS
 10
108.6692473368
 20
263.2855395683
 11
106.4227345396
 21
263.2855395683
  0
LINE
  5
517
100
AcDbEntity
  8
0
100
AcDbLine
 62
7
  6
CONTINUOUS
 10
123.0227345396
 20
263.5205395683
 11
122.8727345396
 21
263.5205395683
  0
LINE
  5
518
100
AcDbEntity
  8
_1
100
AcDbLine
 62
7
  6
CONTINUOUS
 10
108.6692473368
 20
265.5839015385
 11
114.4692473368
 21
265.5839015385
  0
LINE
  5
519
100
AcDbEntity
  8
_1
100
AcDbLine
 62
7
  6
CONTINUOUS
 10
116.9692473368
 20
265.5839015385
 11
122.7692473368
 21
265.5839015385
  0
LINE
  5
51A
100
AcDbEntity
  8
_1
100
AcDbLine
 62
7
  6
CONTINUOUS
 10
124.0227345396
 20
266.5855395683
 11
148.1227345396
 21
266.5855395683
  0
LINE
  5
51B
100
AcDbEntity
  8
0
100
AcDbLine
 62
7
  6
CONTINUOUS
 10
123.4227345396
 20
267.2855395683
 11
122.7692473368
 21
267.2855395683
  0
LINE
  5
51C
100
AcDbEntity
  8
0
100
AcDbLine
 62
7
  6
CONTINUOUS
 10
116.9692473368
 20
267.2855395683
 11
114.4692473368
 21
267.2855395683
  0
LINE
  5
51D
100
AcDbEntity
  8
0
100
AcDbLine
 62
7
  6
CONTINUOUS
 10
108.6692473368
 20
267.2855395683
 11
106.4227345396
 21
267.2855395683
  0
LINE
  5
51E
100
AcDbEntity
  8
_1
100
AcDbLine
 62
7
  6
CONTINUOUS
 10
108.6692473368
 20
267.6705395683
 11
114.4692473368
 21
267.6705395683
  0
LINE
  5
51F
100
AcDbEntity
  8
_1
100
AcDbLine
 62
7
  6
CONTINUOUS
 10
116.9692473368
 20
267.6705395683
 11
122.7692473368
 21
267.6705395683
  0
LINE
  5
520
100
AcDbEntity
  8
0
100
AcDbLine
 62
7
  6
CONTINUOUS
 10
123.4227345396
 20
272.7855395683
 11
149.4227345396
 21
272.7855395683
  0
LINE
  5
521
100
AcDbEntity
  8
0
100
AcDbLine
 62
7
  6
CONTINUOUS
 10
122.663887276
 20
273.0405395683
 11
123.0227345396
 21
273.0405395683
  0
LINE
  5
522
100
AcDbEntity
  8
0
100
AcDbLine
 62
7
  6
CONTINUOUS
 10
83.4227345396
 20
275.2855395683
 11
83.3227345396
 21
275.2855395683
  0
LINE
  5
523
100
AcDbEntity
  8
0
100
AcDbLine
 62
7
  6
CONTINUOUS
 10
97.5427345396
 20
276.2835395683
 11
96.2727345396
 21
276.2835395683
  0
LINE
  5
524
100
AcDbEntity
  8
0
100
AcDbLine
 62
7
  6
CONTINUOUS
 10
91.2727345396
 20
276.2835395683
 11
90.0227345396
 21
276.2835395683
  0
LINE
  5
525
100
AcDbEntity
  8
_1
100
AcDbLine
 62
7
  6
CONTINUOUS
 10
87.4727345396
 20
276.2835395683
 11
90.0227345396
 21
276.2835395683
  0
LINE
  5
526
100
AcDbEntity
  8
_1
100
AcDbLine
 62
7
  6
CONTINUOUS
 10
97.5427345396
 20
276.2835395683
 11
109.1727345396
 21
276.2835395683
  0
LINE
  5
527
100
AcDbEntity
  8
_1
100
AcDbLine
 62
7
  6
CONTINUOUS
 10
101.2727345396
 20
276.9265513719
 11
96.2727345396
 21
276.9265513719
  0
LINE
  5
528
100
AcDbEntity
  8
_1
100
AcDbLine
 62
7
  6
CONTINUOUS
 10
109.1727345396
 20
277.5855395683
 11
110.5738877256
 21
277.5855395683
  0
LINE
  5
529
100
AcDbEntity
  8
0
100
AcDbLine
 62
7
  6
CONTINUOUS
 10
83.4227345396
 20
280.2855395683
 11
83.3227345396
 21
280.2855395683
  0
LINE
  5
52A
100
AcDbEntity
  8
_1
100
AcDbLine
 62
7
  6
CONTINUOUS
 10
109.1727345396
 20
283.5855395683
 11
110.5738877256
 21
283.5855395683
  0
LINE
  5
52B
100
AcDbEntity
  8
0
100
AcDbLine
 62
7
  6
CONTINUOUS
 10
145.4227345396
 20
290.2400693597
 11
147.4227345396
 21
290.2400693597
  0
LINE
  5
52C
100
AcDbEntity
  8
_1
100
AcDbLine
 62
7
  6
CONTINUOUS
 10
101.2727345396
 20
291.5835395683
 11
91.2727345396
 21
291.5835395683
  0
LINE
  5
52D
100
AcDbEntity
  8
_1
100
AcDbLine
 62
7
  6
CONTINUOUS
 10
87.4727345396
 20
292.2835395683
 11
109.1727345396
 21
292.2835395683
  0
LINE
  5
52E
100
AcDbEntity
  8
_1
100
AcDbLine
 62
7
  6
CONTINUOUS
 10
90.3738877256
 20
292.4855395683
 11
104.1738877256
 21
292.4855395683
  0
LINE
  5
52F
100
AcDbEntity
  8
0
100
AcDbLine
 62
7
  6
CONTINUOUS
 10
145.4227345396
 20
292.7855395683
 11
147.4227345396
 21
292.7855395683
  0
LINE
  5
530
100
AcDbEntity
  8
_1
100
AcDbLine
 62
7
  6
CONTINUOUS
 10
89.8738877256
 20
293.4855395683
 11
101.4738877256
 21
293.4855395683
  0
LINE
  5
531
100
AcDbEntity
  8
_1
100
AcDbLine
 62
7
  6
CONTINUOUS
 10
107.9738877256
 20
292.3555395683
 11
101.4738877256
 21
293.4855395683
  0
ARC
  5
532
100
AcDbEntity
  8
0
100
AcDbCircle
 62
7
  6
CONTINUOUS
 10
32.4954388222
 20
32.7856781538
 40
89.4902717387
100
AcDbArc
 50
359.7044312844
 51
0.2955687156
  0
ARC
  5
533
100
AcDbEntity
  8
0
100
AcDbCircle
 62
7
  6
CONTINUOUS
 10
28.4954388286
 20
51.2856781539
 40
89.4902717323
100
AcDbArc
 50
359.7044312844
 51
0.2955687156
  0
ARC
  5
534
100
AcDbEntity
  8
0
100
AcDbCircle
 62
7
  6
CONTINUOUS
 10
115.4458488984
 20
-35.9026390101
 40
87.6867208582
100
AcDbArc
 50
88.3409636521
 51
89.6883944458
  0
ARC
  5
535
100
AcDbEntity
  8
0
100
AcDbCircle
 62
7
  6
CONTINUOUS
 10
115.3727026268
 20
-34.3375548589
 40
86.121515428
100
AcDbArc
 50
90.2993606125
 51
91.6712812896
  0
ARC
  5
536
100
AcDbEntity
  8
0
100
AcDbCircle
 62
7
  6
CONTINUOUS
 10
103.3133385449
 20
32.7855395683
 40
4.0
100
AcDbArc
 50
335.00000007
 51
24.99999993
  0
ARC
  5
537
100
AcDbEntity
  8
0
100
AcDbCircle
 62
7
  6
CONTINUOUS
 10
105.4227345396
 20
27.2855395683
 40
2.75
100
AcDbArc
 50
62.8648205167
 51
180.0
  0
ARC
  5
538
100
AcDbEntity
  8
0
100
AcDbCircle
 62
7
  6
CONTINUOUS
 10
94.1727345396
 20
104.4355395683
 40
1.5
100
AcDbArc
 50
180.0
 51
270.0
  0
ARC
  5
539
100
AcDbEntity
  8
0
100
AcDbCircle
 62
7
  6
CONTINUOUS
 10
100.8727345396
 20
104.4355395683
 40
1.5
100
AcDbArc
 50
270.0
 51
360.0
  0
ARC
  5
53A
100
AcDbEntity
  8
0
100
AcDbCircle
 62
7
  6
CONTINUOUS
 10
101.3727345396
 20
102.3355395683
 40
1.0
100
AcDbArc
 50
270.0
 51
360.0
  0
ARC
  5
53B
100
AcDbEntity
  8
0
100
AcDbCircle
 62
7
  6
CONTINUOUS
 10
93.6727345396
 20
102.3355395683
 40
1.0
100
AcDbArc
 50
180.0
 51
270.0
  0
ARC
  5
53C
100
AcDbEntity
  8
0
100
AcDbCircle
 62
7
  6
CONTINUOUS
 10
97.5227345396
 20
102.1855395683
 40
0.85
100
AcDbArc
 50
180.0
 51
360.0
  0
ARC
  5
53D
100
AcDbEntity
  8
0
100
AcDbCircle
 62
7
  6
CONTINUOUS
 10
115.4227345396
 20
51.5355395683
 40
5.75
100
AcDbArc
 50
0.0
 51
180.0
  0
ARC
  5
53E
100
AcDbEntity
  8
0
100
AcDbCircle
 62
7
  6
CONTINUOUS
 10
115.4227345396
 20
51.2855395683
 40
5.5
100
AcDbArc
 50
0.0
 51
180.0
  0
CIRCLE
  5
53F
100
AcDbEntity
  8
0
100
AcDbCircle
 62
7
  6
CONTINUOUS
 10
115.4227345396
 20
51.2855395683
 40
5.0
  0
CIRCLE
  5
540
100
AcDbEntity
  8
0
100
AcDbCircle
 62
7
  6
CONTINUOUS
 10
115.4227345396
 20
51.2855395683
 40
4.75
  0
ARC
  5
541
100
AcDbEntity
  8
0
100
AcDbCircle
 62
7
  6
CONTINUOUS
 10
112.8727345396
 20
104.4355395683
 40
1.5
100
AcDbArc
 50
270.0
 51
360.0
  0
ARC
  5
542
100
AcDbEntity
  8
0
100
AcDbCircle
 62
7
  6
CONTINUOUS
 10
106.1727345396
 20
104.4355395683
 40
1.5
100
AcDbArc
 50
180.0
 51
270.0
  0
ARC
  5
543
100
AcDbEntity
  8
0
100
AcDbCircle
 62
7
  6
CONTINUOUS
 10
105.6727345396
 20
102.3355395683
 40
1.0
100
AcDbArc
 50
180.0
 51
270.0
  0
ARC
  5
544
100
AcDbEntity
  8
0
100
AcDbCircle
 62
7
  6
CONTINUOUS
 10
113.3727345396
 20
102.3355395683
 40
1.0
100
AcDbArc
 50
270.0
 51
360.0
  0
ARC
  5
545
100
AcDbEntity
  8
0
100
AcDbCircle
 62
7
  6
CONTINUOUS
 10
109.5227345396
 20
102.1855395683
 40
0.85
100
AcDbArc
 50
180.0
 51
360.0
  0
ARC
  5
546
100
AcDbEntity
  8
0
100
AcDbCircle
 62
7
  6
CONTINUOUS
 10
94.6443569148
 20
176.5072077006
 40
20.0766557322
100
AcDbArc
 50
38.6496505778
 51
51.5480188296
  0
ARC
  5
547
100
AcDbEntity
  8
0
100
AcDbCircle
 62
7
  6
CONTINUOUS
 10
82.1444278516
 20
189.0071870263
 40
20.0766202667
100
AcDbArc
 50
38.4519701055
 51
51.3503598794
  0
ARC
  5
548
100
AcDbEntity
  8
0
100
AcDbCircle
 62
7
  6
CONTINUOUS
 10
82.166333752
 20
188.9887513077
 40
20.0675101091
100
AcDbArc
 50
38.5409065257
 51
51.4067030061
  0
ARC
  5
549
100
AcDbEntity
  8
0
100
AcDbCircle
 62
7
  6
CONTINUOUS
 10
82.5861343297
 20
187.9752630674
 40
20.0675101082
100
AcDbArc
 50
353.5932968736
 51
6.4590933526
  0
ARC
  5
54A
100
AcDbEntity
  8
0
100
AcDbCircle
 62
7
  6
CONTINUOUS
 10
94.6259462705
 20
176.529138794
 40
20.0675101058
100
AcDbArc
 50
38.5932971876
 51
51.4590933349
  0
ARC
  5
54B
100
AcDbEntity
  8
0
100
AcDbCircle
 62
7
  6
CONTINUOUS
 10
93.6133747843
 20
176.9966604832
 40
20.0201902745
100
AcDbArc
 50
89.9732133167
 51
96.4245498069
  0
ARC
  5
54C
100
AcDbEntity
  8
0
100
AcDbCircle
 62
7
  6
CONTINUOUS
 10
93.6115850632
 20
176.99668369
 40
20.0201680137
100
AcDbArc
 50
83.5230529192
 51
89.9680912779
  0
CIRCLE
  5
54D
100
AcDbEntity
  8
0
100
AcDbCircle
 62
7
  6
CONTINUOUS
 10
92.7227345396
 20
125.6855395683
 40
1.0
  0
ARC
  5
54E
100
AcDbEntity
  8
0
100
AcDbCircle
 62
7
  6
CONTINUOUS
 10
93.6727345396
 20
119.2355395683
 40
1.0
100
AcDbArc
 50
90.0
 51
180.0
  0
ARC
  5
54F
100
AcDbEntity
  8
0
100
AcDbCircle
 62
7
  6
CONTINUOUS
 10
95.8562297131
 20
196.8279777239
 40
0.150021599
100
AcDbArc
 50
276.5685460386
 51
343.567814622
  0
ARC
  5
550
100
AcDbEntity
  8
0
100
AcDbCircle
 62
7
  6
CONTINUOUS
 10
95.8530183295
 20
196.7400752433
 40
0.1499507725
100
AcDbArc
 50
17.6499587863
 51
83.5247356471
  0
ARC
  5
551
100
AcDbEntity
  8
0
100
AcDbCircle
 62
7
  6
CONTINUOUS
 10
95.8530186421
 20
196.8310035105
 40
0.1499503585
100
AcDbArc
 50
276.4751625475
 51
342.3501444227
  0
ARC
  5
552
100
AcDbEntity
  8
0
100
AcDbCircle
 62
7
  6
CONTINUOUS
 10
97.7451028245
 20
192.1721961027
 40
0.1499446174
100
AcDbArc
 50
321.4737279343
 51
27.3518132694
  0
ARC
  5
553
100
AcDbEntity
  8
0
100
AcDbCircle
 62
7
  6
CONTINUOUS
 10
97.8093910748
 20
201.4631712777
 40
0.1499446117
100
AcDbArc
 50
231.4737259445
 51
297.351533113
  0
ARC
  5
554
100
AcDbEntity
  8
0
100
AcDbCircle
 62
7
  6
CONTINUOUS
 10
97.809390944
 20
192.1079091952
 40
0.1499434848
100
AcDbArc
 50
62.6483266086
 51
128.5265397047
  0
ARC
  5
555
100
AcDbEntity
  8
0
100
AcDbCircle
 62
7
  6
CONTINUOUS
 10
97.7451041709
 20
201.3988831643
 40
0.1499434812
100
AcDbArc
 50
332.6481205476
 51
38.5265406586
  0
ARC
  5
556
100
AcDbEntity
  8
0
100
AcDbCircle
 62
7
  6
CONTINUOUS
 10
94.6520742321
 20
188.9534966143
 40
0.149926858
100
AcDbArc
 50
141.4092314482
 51
208.1718542643
  0
ARC
  5
557
100
AcDbEntity
  8
0
100
AcDbCircle
 62
7
  6
CONTINUOUS
 10
94.5906915857
 20
189.0148792608
 40
0.149926858
100
AcDbArc
 50
241.8281349979
 51
308.5907998925
  0
ARC
  5
558
100
AcDbEntity
  8
0
100
AcDbCircle
 62
7
  6
CONTINUOUS
 10
91.3899572586
 20
196.7421354828
 40
0.1499268581
100
AcDbArc
 50
96.4092314493
 51
163.1718612286
  0
ARC
  5
559
100
AcDbEntity
  8
0
100
AcDbCircle
 62
7
  6
CONTINUOUS
 10
91.3899572584
 20
196.8289436538
 40
0.1499268579
100
AcDbArc
 50
196.8281387411
 51
263.5907545522
  0
ARC
  5
55A
100
AcDbEntity
  8
0
100
AcDbCircle
 62
7
  6
CONTINUOUS
 10
94.6443819976
 20
217.0638462564
 40
20.0766202667
100
AcDbArc
 50
308.4519701055
 51
321.3503598794
  0
ARC
  5
55B
100
AcDbEntity
  8
0
100
AcDbCircle
 62
7
  6
CONTINUOUS
 10
94.625946279
 20
217.041940356
 40
20.0675101092
100
AcDbArc
 50
308.5409065257
 51
321.4067030061
  0
ARC
  5
55C
100
AcDbEntity
  8
0
100
AcDbCircle
 62
7
  6
CONTINUOUS
 10
82.5861343297
 20
205.5958160694
 40
20.0675101082
100
AcDbArc
 50
353.5409065478
 51
6.4067030237
  0
ARC
  5
55D
100
AcDbEntity
  8
0
100
AcDbCircle
 62
7
  6
CONTINUOUS
 10
82.1663337652
 20
204.5823278376
 40
20.0675101059
100
AcDbArc
 50
308.5932971876
 51
321.4590933349
  0
ARC
  5
55E
100
AcDbEntity
  8
0
100
AcDbCircle
 62
7
  6
CONTINUOUS
 10
93.613374048
 20
216.5744326447
 40
20.0202040954
100
AcDbArc
 50
263.5754566625
 51
270.0267887722
  0
ARC
  5
55F
100
AcDbEntity
  8
0
100
AcDbCircle
 62
7
  6
CONTINUOUS
 10
93.6115876454
 20
216.5743816294
 40
20.020153995
100
AcDbArc
 50
270.0319013543
 51
276.4769442012
  0
ARC
  5
560
100
AcDbEntity
  8
0
100
AcDbCircle
 62
7
  6
CONTINUOUS
 10
84.6727345396
 20
289.2855395683
 40
1.25
100
AcDbArc
 50
102.3772319264
 51
180.0
  0
CIRCLE
  5
561
100
AcDbEntity
  8
0
100
AcDbCircle
 62
7
  6
CONTINUOUS
 10
94.8326665396
 20
219.2856055683
 40
0.5
  0
CIRCLE
  5
562
100
AcDbEntity
  8
0
100
AcDbCircle
 62
7
  6
CONTINUOUS
 10
87.9726665396
 20
224.2856055683
 40
0.5
  0
CIRCLE
  5
563
100
AcDbEntity
  8
0
100
AcDbCircle
 62
7
  6
CONTINUOUS
 10
87.9726665396
 20
221.7856055683
 40
0.5
  0
CIRCLE
  5
564
100
AcDbEntity
  8
0
100
AcDbCircle
 62
7
  6
CONTINUOUS
 10
87.9726665396
 20
219.2856055683
 40
0.5
  0
ARC
  5
565
100
AcDbEntity
  8
0
100
AcDbCircle
 62
7
  6
CONTINUOUS
 10
97.5427345396
 20
275.9835395683
 40
0.3
100
AcDbArc
 50
0.0
 51
90.0
  0
ARC
  5
566
100
AcDbEntity
  8
0
100
AcDbCircle
 62
7
  6
CONTINUOUS
 10
94.5906915867
 20
204.5561998705
 40
0.1499268633
100
AcDbArc
 50
51.4092336631
 51
118.171866704
  0
ARC
  5
567
100
AcDbEntity
  8
0
100
AcDbCircle
 62
7
  6
CONTINUOUS
 10
94.6520742322
 20
204.6175825224
 40
0.1499268581
100
AcDbArc
 50
151.8281448469
 51
218.5907998789
  0
ARC
  5
568
100
AcDbEntity
  8
0
100
AcDbCircle
 62
7
  6
CONTINUOUS
 10
101.3727345396
 20
119.2355395683
 40
1.0
100
AcDbArc
 50
0.0
 51
90.0
  0
ARC
  5
569
100
AcDbEntity
  8
0
100
AcDbCircle
 62
7
  6
CONTINUOUS
 10
105.6727345396
 20
119.2355395683
 40
1.0
100
AcDbArc
 50
90.0
 51
180.0
  0
ARC
  5
56A
100
AcDbEntity
  8
0
100
AcDbCircle
 62
7
  6
CONTINUOUS
 10
102.3802966001
 20
190.2190349234
 40
0.1500213636
100
AcDbArc
 50
6.5684848743
 51
73.5678741132
  0
ARC
  5
56B
100
AcDbEntity
  8
0
100
AcDbCircle
 62
7
  6
CONTINUOUS
 10
102.377275886
 20
190.2158280188
 40
0.1499446117
100
AcDbArc
 50
6.4737259439
 51
72.3515331132
  0
ARC
  5
56C
100
AcDbEntity
  8
0
100
AcDbCircle
 62
7
  6
CONTINUOUS
 10
102.4681921526
 20
190.2158288741
 40
0.1499434812
100
AcDbArc
 50
107.6481205268
 51
173.5265533227
  0
ARC
  5
56D
100
AcDbEntity
  8
0
100
AcDbCircle
 62
7
  6
CONTINUOUS
 10
102.4661386282
 20
185.7527622918
 40
0.1499268633
100
AcDbArc
 50
186.4092336631
 51
253.1718667037
  0
ARC
  5
56E
100
AcDbEntity
  8
0
100
AcDbCircle
 62
7
  6
CONTINUOUS
 10
102.3793304541
 20
185.7527622872
 40
0.1499268579
100
AcDbArc
 50
286.8281448223
 51
353.5907548881
  0
ARC
  5
56F
100
AcDbEntity
  8
0
100
AcDbCircle
 62
7
  6
CONTINUOUS
 10
102.4227345396
 20
196.7855395683
 40
11.75
100
AcDbArc
 50
270.0
 51
89.989740102
  0
ARC
  5
570
100
AcDbEntity
  8
0
100
AcDbCircle
 62
7
  6
CONTINUOUS
 10
102.4227345396
 20
196.7855395683
 40
11.75
100
AcDbArc
 50
90.0
 51
269.9768028727
  0
CIRCLE
  5
571
100
AcDbEntity
  8
0
100
AcDbCircle
 62
7
  6
CONTINUOUS
 10
102.4227345396
 20
196.7855395683
 40
11.5
  0
ARC
  5
572
100
AcDbEntity
  8
0
100
AcDbCircle
 62
7
  6
CONTINUOUS
 10
102.4227345396
 20
196.7855395683
 40
11.2149855104
100
AcDbArc
 50
0.0
 51
224.9619933217
  0
ARC
  5
573
100
AcDbEntity
  8
0
100
AcDbCircle
 62
7
  6
CONTINUOUS
 10
102.4227345396
 20
196.7855395683
 40
11.2149855104
100
AcDbArc
 50
270.0
 51
314.9409110659
  0
CIRCLE
  5
574
100
AcDbEntity
  8
0
100
AcDbCircle
 62
7
  6
CONTINUOUS
 10
102.4227345396
 20
196.7855395683
 40
6.1123300769
  0
ARC
  5
575
100
AcDbEntity
  8
0
100
AcDbCircle
 62
7
  6
CONTINUOUS
 10
102.4227345396
 20
200.7855395683
 40
75.0
100
AcDbArc
 50
73.7397952917
 51
106.2602047083
  0
ARC
  5
576
100
AcDbEntity
  8
0
100
AcDbCircle
 62
7
  6
CONTINUOUS
 10
102.4651745931
 20
203.3520459913
 40
0.150023667
100
AcDbArc
 50
186.5690472336
 51
253.5672918545
  0
ARC
  5
577
100
AcDbEntity
  8
0
100
AcDbCircle
 62
7
  6
CONTINUOUS
 10
102.4681931968
 20
203.3552511225
 40
0.1499446174
100
AcDbArc
 50
186.4737279347
 51
252.3518132689
  0
ARC
  5
578
100
AcDbEntity
  8
0
100
AcDbCircle
 62
7
  6
CONTINUOUS
 10
102.3772769234
 20
203.3552502655
 40
0.1499434848
100
AcDbArc
 50
287.6483266085
 51
353.5265397044
  0
ARC
  5
579
100
AcDbEntity
  8
0
100
AcDbCircle
 62
7
  6
CONTINUOUS
 10
103.3201564146
 20
197.660225762
 40
12.4549224965
100
AcDbArc
 50
225.0739195476
 51
225.6777721697
  0
ARC
  5
57A
100
AcDbEntity
  8
0
100
AcDbCircle
 62
7
  6
CONTINUOUS
 10
107.0359463475
 20
192.1123114459
 40
0.1500213674
100
AcDbArc
 50
51.5684858248
 51
118.5678731629
  0
ARC
  5
57B
100
AcDbEntity
  8
0
100
AcDbCircle
 62
7
  6
CONTINUOUS
 10
107.0360780057
 20
192.1079078534
 40
0.149944617
100
AcDbArc
 50
51.4737280019
 51
117.3513138817
  0
ARC
  5
57C
100
AcDbEntity
  8
0
100
AcDbCircle
 62
7
  6
CONTINUOUS
 10
107.1003649091
 20
192.1721959727
 40
0.149943482
100
AcDbArc
 50
152.6478213843
 51
218.5265405826
  0
ARC
  5
57D
100
AcDbEntity
  8
0
100
AcDbCircle
 62
7
  6
CONTINUOUS
 10
105.4227345396
 20
194.7299840128
 40
98.0555555556
100
AcDbArc
 50
77.6227680735
 51
89.0980827424
  0
ARC
  5
57E
100
AcDbEntity
  8
0
100
AcDbCircle
 62
7
  6
CONTINUOUS
 10
105.4227345396
 20
194.7299840128
 40
98.0555555556
100
AcDbArc
 50
100.5556376595
 51
102.3772319265
  0
ARC
  5
57F
100
AcDbEntity
  8
0
100
AcDbCircle
 62
7
  6
CONTINUOUS
 10
107.0959654097
 20
201.3987511391
 40
0.1500236671
100
AcDbArc
 50
141.5690472526
 51
208.5672918446
  0
ARC
  5
580
100
AcDbEntity
  8
0
100
AcDbCircle
 62
7
  6
CONTINUOUS
 10
107.100366249
 20
201.3988830332
 40
0.1499446117
100
AcDbArc
 50
141.4737259437
 51
207.3515331133
  0
ARC
  5
581
100
AcDbEntity
  8
0
100
AcDbCircle
 62
7
  6
CONTINUOUS
 10
107.0360781356
 20
201.4631699371
 40
0.1499434812
100
AcDbArc
 50
242.6481205473
 51
308.5265406589
  0
ARC
  5
582
100
AcDbEntity
  8
0
100
AcDbCircle
 62
7
  6
CONTINUOUS
 10
115.4458446179
 20
138.4739670301
 40
87.6869697612
100
AcDbArc
 50
270.3116074667
 51
271.6590344355
  0
ARC
  5
583
100
AcDbEntity
  8
0
100
AcDbCircle
 62
7
  6
CONTINUOUS
 10
115.3727067076
 20
136.9088712691
 40
86.1217527196
100
AcDbArc
 50
268.3287206005
 51
269.7006374973
  0
ARC
  5
584
100
AcDbEntity
  8
0
100
AcDbCircle
 62
7
  6
CONTINUOUS
 10
113.3727345396
 20
119.2355395683
 40
1.0
100
AcDbArc
 50
0.0
 51
90.0
  0
ARC
  5
585
100
AcDbEntity
  8
0
100
AcDbCircle
 62
7
  6
CONTINUOUS
 10
110.2009179283
 20
176.5074027491
 40
20.0763822263
100
AcDbArc
 50
128.4518930645
 51
141.3504379733
  0
ARC
  5
586
100
AcDbEntity
  8
0
100
AcDbCircle
 62
7
  6
CONTINUOUS
 10
110.2195228057
 20
176.5291387862
 40
20.0675101082
100
AcDbArc
 50
128.5409065477
 51
141.4067030237
  0
ARC
  5
587
100
AcDbEntity
  8
0
100
AcDbCircle
 62
7
  6
CONTINUOUS
 10
111.232093885
 20
176.9966465595
 40
20.0202041566
100
AcDbArc
 50
83.5754533833
 51
90.0267854913
  0
ARC
  5
588
100
AcDbEntity
  8
0
100
AcDbCircle
 62
7
  6
CONTINUOUS
 10
111.2338828581
 20
176.9966975852
 40
20.0201540766
100
AcDbArc
 50
90.0319054301
 51
96.4769481741
  0
ARC
  5
589
100
AcDbEntity
  8
0
100
AcDbCircle
 62
7
  6
CONTINUOUS
 10
108.9924623616
 20
196.7400611129
 40
0.1499661225
100
AcDbArc
 50
96.4790503505
 51
162.3464894555
  0
ARC
  5
58A
100
AcDbEntity
  8
0
100
AcDbCircle
 62
7
  6
CONTINUOUS
 10
108.9924452366
 20
196.8309971844
 40
0.1499434846
100
AcDbArc
 50
197.6483265424
 51
263.5265396755
  0
ARC
  5
58B
100
AcDbEntity
  8
0
100
AcDbCircle
 62
7
  6
CONTINUOUS
 10
110.2547774937
 20
189.0148792608
 40
0.149926858
100
AcDbArc
 50
231.4092314482
 51
298.1718542645
  0
ARC
  5
58C
100
AcDbEntity
  8
0
100
AcDbCircle
 62
7
  6
CONTINUOUS
 10
110.1933948472
 20
188.9534966144
 40
0.149926858
100
AcDbArc
 50
331.8281349983
 51
38.5907998924
  0
ARC
  5
58D
100
AcDbEntity
  8
0
100
AcDbCircle
 62
7
  6
CONTINUOUS
 10
113.4555440277
 20
196.7421741517
 40
0.1498848381
100
AcDbArc
 50
16.8175745532
 51
83.60133944
  0
ARC
  5
58E
100
AcDbEntity
  8
0
100
AcDbCircle
 62
7
  6
CONTINUOUS
 10
113.4555440681
 20
196.828904934
 40
0.1498847847
100
AcDbArc
 50
276.3986640755
 51
343.1824768109
  0
ARC
  5
58F
100
AcDbEntity
  8
0
100
AcDbCircle
 62
7
  6
CONTINUOUS
 10
110.2195228033
 20
217.0419403482
 40
20.067510105
100
AcDbArc
 50
218.5932972097
 51
231.4590933543
  0
ARC
  5
590
100
AcDbEntity
  8
0
100
AcDbCircle
 62
7
  6
CONTINUOUS
 10
111.2320950352
 20
216.5744326543
 40
20.0202041
100
AcDbArc
 50
269.9732112168
 51
276.4245434296
  0
ARC
  5
591
100
AcDbEntity
  8
0
100
AcDbCircle
 62
7
  6
CONTINUOUS
 10
111.2338814121
 20
216.5743816218
 40
20.0201539833
100
AcDbArc
 50
263.5230558603
 51
269.968098708
  0
ARC
  5
592
100
AcDbEntity
  8
0
100
AcDbCircle
 62
7
  6
CONTINUOUS
 10
105.4227345396
 20
279.8355395683
 40
5.0
100
AcDbArc
 50
301.3724899486
 51
325.1570142526
  0
CIRCLE
  5
593
100
AcDbEntity
  8
_1
100
AcDbCircle
 62
7
  6
CONTINUOUS
 10
112.6192473368
 20
257.0705395683
 40
1.55
  0
CIRCLE
  5
594
100
AcDbEntity
  8
_1
100
AcDbCircle
 62
7
  6
CONTINUOUS
 10
112.6192473368
 20
260.5705395683
 40
1.55
  0
CIRCLE
  5
595
100
AcDbEntity
  8
_1
100
AcDbCircle
 62
7
  6
CONTINUOUS
 10
112.6192473368
 20
253.5705395683
 40
1.55
  0
CIRCLE
  5
596
100
AcDbEntity
  8
_1
100
AcDbCircle
 62
7
  6
CONTINUOUS
 10
112.6192473368
 20
250.0705395683
 40
1.55
  0
CIRCLE
  5
597
100
AcDbEntity
  8
_1
100
AcDbCircle
 62
7
  6
CONTINUOUS
 10
112.6192473368
 20
246.5705395683
 40
1.55
  0
CIRCLE
  5
598
100
AcDbEntity
  8
_1
100
AcDbCircle
 62
7
  6
CONTINUOUS
 10
112.6192473368
 20
243.0705395683
 40
1.55
  0
CIRCLE
  5
599
100
AcDbEntity
  8
0
100
AcDbCircle
 62
7
  6
CONTINUOUS
 10
116.6726665396
 20
224.2856055683
 40
0.5
  0
CIRCLE
  5
59A
100
AcDbEntity
  8
0
100
AcDbCircle
 62
7
  6
CONTINUOUS
 10
116.6726665396
 20
219.2856055683
 40
0.5
  0
CIRCLE
  5
59B
100
AcDbEntity
  8
0
100
AcDbCircle
 62
7
  6
CONTINUOUS
 10
109.0326665396
 20
219.2856055683
 40
0.5
  0
CIRCLE
  5
59C
100
AcDbEntity
  8
0
100
AcDbCircle
 62
7
  6
CONTINUOUS
 10
102.6413881985
 20
224.2856055683
 40
0.5
  0
CIRCLE
  5
59D
100
AcDbEntity
  8
0
100
AcDbCircle
 62
7
  6
CONTINUOUS
 10
102.2039448808
 20
219.2856055683
 40
0.5
  0
ARC
  5
59E
100
AcDbEntity
  8
0
100
AcDbCircle
 62
7
  6
CONTINUOUS
 10
110.1933948418
 20
204.6175825213
 40
0.1499268633
100
AcDbArc
 50
321.409233663
 51
28.171866704
  0
ARC
  5
59F
100
AcDbEntity
  8
0
100
AcDbCircle
 62
7
  6
CONTINUOUS
 10
110.2547774937
 20
204.5561998758
 40
0.1499268581
100
AcDbArc
 50
61.8281448464
 51
128.5907998789
  0
ARC
  5
5A0
100
AcDbEntity
  8
0
100
AcDbCircle
 62
7
  6
CONTINUOUS
 10
102.4661386251
 20
207.8183168494
 40
0.149926858
100
AcDbArc
 50
106.8281349979
 51
173.5907998924
  0
ARC
  5
5A1
100
AcDbEntity
  8
0
100
AcDbCircle
 62
7
  6
CONTINUOUS
 10
102.3793529603
 20
207.8183355946
 40
0.1499024008
100
AcDbArc
 50
6.4030716989
 51
73.1780140135
  0
ARC
  5
5A2
100
AcDbEntity
  8
0
100
AcDbCircle
 62
7
  6
CONTINUOUS
 10
202.3500302635
 20
51.2854009828
 40
89.4902717451
100
AcDbArc
 50
179.7044312844
 51
180.2955687156
  0
ARC
  5
5A3
100
AcDbEntity
  8
0
100
AcDbCircle
 62
7
  6
CONTINUOUS
 10
206.3500302635
 20
32.7854009828
 40
89.4902717452
100
AcDbArc
 50
179.7044312844
 51
180.2955687156
  0
ARC
  5
5A4
100
AcDbEntity
  8
0
100
AcDbCircle
 62
7
  6
CONTINUOUS
 10
119.3996244614
 20
-54.4028878936
 40
87.6869697613
100
AcDbArc
 50
90.3116074667
 51
91.6590344355
  0
ARC
  5
5A5
100
AcDbEntity
  8
0
100
AcDbCircle
 62
7
  6
CONTINUOUS
 10
119.4727623716
 20
-52.8377921325
 40
86.1217527197
100
AcDbArc
 50
88.3287206005
 51
89.7006374973
  0
CIRCLE
  5
5A6
100
AcDbEntity
  8
0
100
AcDbCircle
 62
7
  6
CONTINUOUS
 10
119.4227345396
 20
32.7855395683
 40
5.0
  0
CIRCLE
  5
5A7
100
AcDbEntity
  8
0
100
AcDbCircle
 62
7
  6
CONTINUOUS
 10
119.4227345396
 20
32.7855395683
 40
4.75
  0
CIRCLE
  5
5A8
100
AcDbEntity
  8
_1
100
AcDbCircle
 62
7
  6
CONTINUOUS
 10
123.2027345396
 20
81.3155395683
 40
2.0
  0
CIRCLE
  5
5A9
100
AcDbEntity
  8
_1
100
AcDbCircle
 62
7
  6
CONTINUOUS
 10
123.2027345396
 20
76.2355395683
 40
2.0
  0
ARC
  5
5AA
100
AcDbEntity
  8
0
100
AcDbCircle
 62
7
  6
CONTINUOUS
 10
119.3996201809
 20
119.9737181465
 40
87.686720858
100
AcDbArc
 50
268.3409636521
 51
269.6883944458
  0
ARC
  5
5AB
100
AcDbEntity
  8
0
100
AcDbCircle
 62
7
  6
CONTINUOUS
 10
119.4727664525
 20
118.4086339956
 40
86.121515428
100
AcDbArc
 50
270.2993606125
 51
271.6712812896
  0
ARC
  5
5AC
100
AcDbEntity
  8
0
100
AcDbCircle
 62
7
  6
CONTINUOUS
 10
122.7012128089
 20
189.007016036
 40
20.0768609688
100
AcDbArc
 50
128.6497178252
 51
141.5479520248
  0
ARC
  5
5AD
100
AcDbEntity
  8
0
100
AcDbCircle
 62
7
  6
CONTINUOUS
 10
122.2593347487
 20
187.9752630595
 40
20.0675101083
100
AcDbArc
 50
173.54090662
 51
186.4067030065
  0
ARC
  5
5AE
100
AcDbEntity
  8
0
100
AcDbCircle
 62
7
  6
CONTINUOUS
 10
122.6791353195
 20
188.9887513046
 40
20.067510105
100
AcDbArc
 50
128.5932972097
 51
141.4590933543
  0
ARC
  5
5AF
100
AcDbEntity
  8
0
100
AcDbCircle
 62
7
  6
CONTINUOUS
 10
122.2620307727
 20
205.6243423274
 40
20.0768609682
100
AcDbArc
 50
173.6497178035
 51
186.547952025
  0
ARC
  5
5B0
100
AcDbEntity
  8
0
100
AcDbCircle
 62
7
  6
CONTINUOUS
 10
122.7008713401
 20
204.5637229353
 40
20.076382198
100
AcDbArc
 50
218.4518930498
 51
231.3504379774
  0
ARC
  5
5B1
100
AcDbEntity
  8
0
100
AcDbCircle
 62
7
  6
CONTINUOUS
 10
122.6791353218
 20
204.5823278345
 40
20.0675101083
100
AcDbArc
 50
218.5409065478
 51
231.4067030237
  0
ARC
  5
5B2
100
AcDbEntity
  8
0
100
AcDbCircle
 62
7
  6
CONTINUOUS
 10
122.2593347463
 20
205.5958160617
 40
20.0675101058
100
AcDbArc
 50
173.5932971876
 51
186.4590933349
  0
CIRCLE
  5
5B3
100
AcDbEntity
  8
_1
100
AcDbCircle
 62
7
  6
CONTINUOUS
 10
120.9192473368
 20
243.0705395683
 40
1.55
  0
CIRCLE
  5
5B4
100
AcDbEntity
  8
_1
100
AcDbCircle
 62
7
  6
CONTINUOUS
 10
120.9192473368
 20
246.5705395683
 40
1.55
  0
CIRCLE
  5
5B5
100
AcDbEntity
  8
_1
100
AcDbCircle
 62
7
  6
CONTINUOUS
 10
120.9192473368
 20
250.0705395683
 40
1.55
  0
CIRCLE
  5
5B6
100
AcDbEntity
  8
_1
100
AcDbCircle
 62
7
  6
CONTINUOUS
 10
120.9192473368
 20
257.0705395683
 40
1.55
  0
CIRCLE
  5
5B7
100
AcDbEntity
  8
_1
100
AcDbCircle
 62
7
  6
CONTINUOUS
 10
120.9192473368
 20
260.5705395683
 40
1.55
  0
CIRCLE
  5
5B8
100
AcDbEntity
  8
_1
100
AcDbCircle
 62
7
  6
CONTINUOUS
 10
120.9192473368
 20
253.5705395683
 40
1.55
  0
ARC
  5
5B9
100
AcDbEntity
  8
0
100
AcDbCircle
 62
7
  6
CONTINUOUS
 10
124.4256473358
 20
243.0205395733
 40
1.6863587967
100
AcDbArc
 50
146.5109914474
 51
150.1711855984
  0
ARC
  5
5BA
100
AcDbEntity
  8
0
100
AcDbCircle
 62
7
  6
CONTINUOUS
 10
124.4256473358
 20
243.0205395733
 40
1.6863587967
100
AcDbArc
 50
209.8569002552
 51
213.4037728711
  0
ARC
  5
5BB
100
AcDbEntity
  8
0
100
AcDbCircle
 62
7
  6
CONTINUOUS
 10
124.4256473358
 20
260.5205395733
 40
1.6863587912
100
AcDbArc
 50
146.5104239052
 51
150.1713403453
  0
ARC
  5
5BC
100
AcDbEntity
  8
0
100
AcDbCircle
 62
7
  6
CONTINUOUS
 10
124.4256473358
 20
260.5205395733
 40
1.6863587912
100
AcDbArc
 50
209.8286596547
 51
213.4895760948
  0
ARC
  5
5BD
100
AcDbEntity
  8
0
100
AcDbCircle
 62
7
  6
CONTINUOUS
 10
124.4256473358
 20
257.0205395733
 40
1.6863587912
100
AcDbArc
 50
146.5109917387
 51
150.1711859138
  0
ARC
  5
5BE
100
AcDbEntity
  8
0
100
AcDbCircle
 62
7
  6
CONTINUOUS
 10
124.4256473358
 20
257.0205395733
 40
1.6863587912
100
AcDbArc
 50
209.8568999686
 51
213.4037725134
  0
ARC
  5
5BF
100
AcDbEntity
  8
0
100
AcDbCircle
 62
7
  6
CONTINUOUS
 10
124.4256473358
 20
253.5205395733
 40
1.6863587912
100
AcDbArc
 50
146.5109917387
 51
150.1711859139
  0
ARC
  5
5C0
100
AcDbEntity
  8
0
100
AcDbCircle
 62
7
  6
CONTINUOUS
 10
124.4256473358
 20
253.5205395733
 40
1.6863587912
100
AcDbArc
 50
209.8568999686
 51
213.4037725134
  0
ARC
  5
5C1
100
AcDbEntity
  8
0
100
AcDbCircle
 62
7
  6
CONTINUOUS
 10
124.4256473358
 20
250.0205395733
 40
1.6863587912
100
AcDbArc
 50
146.5109917387
 51
150.1711859139
  0
ARC
  5
5C2
100
AcDbEntity
  8
0
100
AcDbCircle
 62
7
  6
CONTINUOUS
 10
124.4256473358
 20
250.0205395733
 40
1.6863587912
100
AcDbArc
 50
209.8568999686
 51
213.4037725134
  0
ARC
  5
5C3
100
AcDbEntity
  8
0
100
AcDbCircle
 62
7
  6
CONTINUOUS
 10
124.4256473358
 20
246.5205395733
 40
1.6863587912
100
AcDbArc
 50
146.5104239052
 51
150.1713403453
  0
ARC
  5
5C4
100
AcDbEntity
  8
0
100
AcDbCircle
 62
7
  6
CONTINUOUS
 10
124.4256473358
 20
246.5205395733
 40
1.6863587912
100
AcDbArc
 50
209.8286596547
 51
213.4895760948
  0
ARC
  5
5C5
100
AcDbEntity
  8
0
100
AcDbCircle
 62
7
  6
CONTINUOUS
 10
124.4256473358
 20
250.0205395733
 40
1.5864999999
100
AcDbArc
 50
152.4341638015
 51
157.0713750026
  0
ARC
  5
5C6
100
AcDbEntity
  8
0
100
AcDbCircle
 62
7
  6
CONTINUOUS
 10
124.4256473358
 20
250.0205395733
 40
1.5864999999
100
AcDbArc
 50
202.9378146207
 51
207.5658361986
  0
ARC
  5
5C7
100
AcDbEntity
  8
0
100
AcDbCircle
 62
7
  6
CONTINUOUS
 10
124.4256473358
 20
246.5205395733
 40
1.5864999999
100
AcDbArc
 50
152.4341638015
 51
157.0717660548
  0
ARC
  5
5C8
100
AcDbEntity
  8
0
100
AcDbCircle
 62
7
  6
CONTINUOUS
 10
124.4256473358
 20
246.5205395733
 40
1.5864999999
100
AcDbArc
 50
202.9378146207
 51
207.5658361986
  0
ARC
  5
5C9
100
AcDbEntity
  8
0
100
AcDbCircle
 62
7
  6
CONTINUOUS
 10
124.4256473358
 20
243.0205395733
 40
1.5864999999
100
AcDbArc
 50
152.4341638015
 51
157.0717660545
  0
ARC
  5
5CA
100
AcDbEntity
  8
0
100
AcDbCircle
 62
7
  6
CONTINUOUS
 10
124.4256473358
 20
243.0205395733
 40
1.5864999999
100
AcDbArc
 50
202.9378146319
 51
207.5658361985
  0
ARC
  5
5CB
100
AcDbEntity
  8
0
100
AcDbCircle
 62
7
  6
CONTINUOUS
 10
124.4256473358
 20
260.5205395733
 40
1.5864999999
100
AcDbArc
 50
152.4341638015
 51
157.0717660548
  0
ARC
  5
5CC
100
AcDbEntity
  8
0
100
AcDbCircle
 62
7
  6
CONTINUOUS
 10
124.4256473358
 20
260.5205395733
 40
1.5864999999
100
AcDbArc
 50
202.9378146207
 51
207.5658361986
  0
ARC
  5
5CD
100
AcDbEntity
  8
0
100
AcDbCircle
 62
7
  6
CONTINUOUS
 10
124.4256473358
 20
257.0205395733
 40
1.5864999999
100
AcDbArc
 50
152.4341638015
 51
157.0717660548
  0
ARC
  5
5CE
100
AcDbEntity
  8
0
100
AcDbCircle
 62
7
  6
CONTINUOUS
 10
124.4256473358
 20
257.0205395733
 40
1.5864999999
100
AcDbArc
 50
202.9378146207
 51
207.5658361986
  0
ARC
  5
5CF
100
AcDbEntity
  8
0
100
AcDbCircle
 62
7
  6
CONTINUOUS
 10
124.4256473358
 20
253.5205395733
 40
1.5864999999
100
AcDbArc
 50
152.4341638015
 51
157.0717660548
  0
ARC
  5
5D0
100
AcDbEntity
  8
0
100
AcDbCircle
 62
7
  6
CONTINUOUS
 10
124.4256473358
 20
253.5205395733
 40
1.5864999999
100
AcDbArc
 50
202.9378146207
 51
207.5658361985
  0
ARC
  5
5D1
100
AcDbEntity
  8
0
100
AcDbCircle
 62
7
  6
CONTINUOUS
 10
126.1727345396
 20
289.2855395683
 40
1.25
100
AcDbArc
 50
0.0
 51
77.6227680736
  0
SPLINE
  5
5D2
100
AcDbEntity
  8
0
100
AcDbSpline
 62
7
  6
CONTINUOUS
 70
0
 71
3
 72
9
 73
5
 74
0
 42
0.0000001
 43
0.0000001
 44
0.0000000001
 40
0.0
 40
0.0
 40
0.0
 40
0.0
 40
0.3330457597
 40
1.0
 40
1.0
 40
1.0
 40
1.0
 10
112.8227345396
 20
178.2204995683
 30
0.0
 10
112.8782422243
 20
178.1649918837
 30
0.0
 10
113.0443970528
 20
177.9978140192
 30
0.0
 10
113.2105503808
 20
177.8306350051
 30
0.0
 10
113.3227345396
 20
177.7204995683
 30
0.0
  0
SPLINE
  5
5D3
100
AcDbEntity
  8
0
100
AcDbSpline
 62
7
  6
CONTINUOUS
 70
0
 71
3
 72
9
 73
5
 74
0
 42
0.0000001
 43
0.0000001
 44
0.0000000001
 40
0.0
 40
0.0
 40
0.0
 40
0.0
 40
0.3330457597
 40
1.0
 40
1.0
 40
1.0
 40
1.0
 10
112.8227345397
 20
165.3204995684
 30
0.0
 10
112.8782422244
 20
165.3760072531
 30
0.0
 10
113.0454200889
 20
165.5421620816
 30
0.0
 10
113.2125991029
 20
165.7083154095
 30
0.0
 10
113.3227345396
 20
165.8204995683
 30
0.0
  0
SPLINE
  5
5D4
100
AcDbEntity
  8
0
100
AcDbSpline
 62
7
  6
CONTINUOUS
 70
0
 71
3
 72
19
 73
15
 74
0
 42
0.0000001
 43
0.0000001
 44
0.0000000001
 40
0.0
 40
0.0
 40
0.0
 40
0.0
 40
0.062348572
 40
0.1248517354
 40
0.1874521545
 40
0.2500790011
 40
0.3751045144
 40
0.5001820534
 40
0.6252090794
 40
0.7500883237
 40
0.8126368061
 40
0.8751660108
 40
0.9376314893
 40
1.0
 40
1.0
 40
1.0
 40
1.0
 10
96.6532772082
 20
125.6855395683
 30
0.0
 10
96.653290224
 20
125.8942067726
 30
0.0
 10
96.5571249803
 20
126.3158610755
 30
0.0
 10
96.1973615704
 20
126.8415775774
 30
0.0
 10
95.7180273251
 20
127.2553789092
 30
0.0
 10
94.9900101537
 20
127.6763467239
 30
0.0
 10
93.9823173229
 20
127.9994290234
 30
0.0
 10
92.7259144111
 20
128.1271703109
 30
0.0
 10
91.4686718345
 20
128.0114561551
 30
0.0
 10
90.4598720233
 20
127.691847624
 30
0.0
 10
89.7348668608
 20
127.2670996233
 30
0.0
 10
89.2609454769
 20
126.8475469839
 30
0.0
 10
88.9105270534
 20
126.3158505081
 30
0.0
 10
88.8187723128
 20
125.8942735032
 30
0.0
 10
88.8187829538
 20
125.6855395683
 30
0.0
  0
SPLINE
  5
5D5
100
AcDbEntity
  8
0
100
AcDbSpline
 62
7
  6
CONTINUOUS
 70
0
 71
3
 72
19
 73
15
 74
0
 42
0.0000001
 43
0.0000001
 44
0.0000000001
 40
0.0
 40
0.0
 40
0.0
 40
0.0
 40
0.0623684708
 40
0.124833974
 40
0.1873632103
 40
0.2499117116
 40
0.3747909851
 40
0.499818015
 40
0.6248955476
 40
0.7499210456
 40
0.8125478737
 40
0.8751482777
 40
0.937651431
 40
1.0
 40
1.0
 40
1.0
 40
1.0
 10
88.8187829538
 20
125.6855395683
 30
0.0
 10
88.8187723121
 20
125.4768057664
 30
0.0
 10
88.910526953
 20
125.0552288084
 30
0.0
 10
89.2609453698
 20
124.5235322395
 30
0.0
 10
89.7348669392
 20
124.1039794199
 30
0.0
 10
90.4598723847
 20
123.6792313692
 30
0.0
 10
91.4686723712
 20
123.3596227907
 30
0.0
 10
92.7259150679
 20
123.2439088818
 30
0.0
 10
93.9823179053
 20
123.3716502176
 30
0.0
 10
94.9900105903
 20
123.6947325689
 30
0.0
 10
95.7180275571
 20
124.1157004102
 30
0.0
 10
96.1973616559
 20
124.5295016821
 30
0.0
 10
96.5571249984
 20
125.0552181127
 30
0.0
 10
96.6532902249
 20
125.4768723736
 30
0.0
 10
96.6532772082
 20
125.6855395683
 30
0.0
  0
SPLINE
  5
5D6
100
AcDbEntity
  8
0
100
AcDbSpline
 62
7
  6
CONTINUOUS
 70
0
 71
3
 72
11
 73
7
 74
0
 42
0.0000001
 43
0.0000001
 44
0.0000000001
 40
0.0
 40
0.0
 40
0.0
 40
0.0
 40
0.2499471309
 40
0.5000390313
 40
0.7500437944
 40
1.0
 40
1.0
 40
1.0
 40
1.0
 10
110.333777353
 20
188.872150341
 30
0.0
 10
110.8533210267
 20
189.3881984778
 30
0.0
 10
111.802956459
 20
190.5171989829
 30
0.0
 10
112.8611639936
 20
192.4607843168
 30
0.0
 10
113.487837562
 20
194.5837583208
 30
0.0
 10
113.6115259649
 20
196.0532348186
 30
0.0
 10
113.6115259649
 20
196.7855395683
 30
0.0
  0
SPLINE
  5
5D7
100
AcDbEntity
  8
0
100
AcDbSpline
 62
7
  6
CONTINUOUS
 70
0
 71
3
 72
11
 73
7
 74
0
 42
0.0000001
 43
0.0000001
 44
0.0000000001
 40
0.0
 40
0.0
 40
0.0
 40
0.0
 40
0.2499879364
 40
0.4999819286
 40
0.7499840075
 40
1.0
 40
1.0
 40
1.0
 40
1.0
 10
94.6179906828
 20
188.7497035568
 30
0.0
 10
95.1324874295
 20
188.2472467859
 30
0.0
 10
96.2536445196
 20
187.3289721648
 30
0.0
 10
98.181963395
 20
186.3302311294
 30
0.0
 10
100.2609782204
 20
185.7092790431
 30
0.0
 10
101.7035087063
 20
185.5705540579
 30
0.0
 10
102.4227345396
 20
185.5705540579
 30
0.0
  0
ENDSEC
  0
SECTION
  2
OBJECTS
  0
DICTIONARY
  5
C
100
AcDbDictionary
280
0
281
1
  3
ACAD_GROUP
350
D
  3
ACAD_MLINESTYLE
350
17
  3
ACAD_LAYOUT
350
1A
  3
ACAD_PLOTSETTINGS
350
19
  3
ACAD_PLOTSTYLENAME
350
E
  0
DICTIONARY
  5
D
102
{ACAD_REACTORS
330
C
102
}
100
AcDbDictionary
280
0
281
1
  0
ACDBDICTIONARYWDFLT
  5
E
102
{ACAD_REACTORS
330
C
102
}
100
AcDbDictionary
281
1
  3
Normal
350
F
100
AcDbDictionaryWithDefault
340
F
  0
DICTIONARY
  5
17
102
{ACAD_REACTORS
330
C
102
}
100
AcDbDictionary
280
0
281
1
  3
Standard
350
18
  0
DICTIONARY
  5
19
102
{ACAD_REACTORS
330
C
102
}
100
AcDbDictionary
281
1
  0
DICTIONARY
  5
1A
102
{ACAD_REACTORS
330
C
102
}
100
AcDbDictionary
281
1
  3
Model
350
5D8
  3
Layout1
350
5D9
  0
ACDBPLACEHOLDER
  5
F
102
{ACAD_REACTORS
330
E
102
}
  0
MLINESTYLE
  5
18
102
{ACAD_REACTORS
330
17
102
}
100
AcDbMlineStyle
  2
STANDARD
 70
0
  3

 62
256
 51
90.0
 52
90.0
 71
2
 49
0.5
 62
256
  6
BYLAYER
 49
-0.5
 62
256
  6
BYLAYER
  0
LAYOUT
  5
5D8
102
{ACAD_REACTORS
330
1A
102
}
100
AcDbPlotSettings
  1

  2
none_device
  4

  6

 40
0.0
 41
0.0
 42
0.0
 43
0.0
 44
210.0
 45
297.0
 46
0.0
 47
0.0
 48
0.0
 49
0.0
140
0.0
141
0.0
142
1.0
143
1.0
 70
1024
 72
1
 73
0
 74
0
  7

 75
0
147
1.0
148
0.0
149
0.0
100
AcDbLayout
  1
Model
 70
0
 71
0
 10
0.0
 20
0.0
 11
210.0
 21
297.0
 12
0.0
 22
0.0
 32
0.0
 14
0.0
 24
0.0
 34
0.0
 15
0.0
 25
0.0
 35
0.0
146
0.0
 13
0.0
 23
0.0
 33
0.0
 16
1.0
 26
0.0
 36
0.0
 17
0.0
 27
1.0
 37
0.0
 76
0
330
211
345
0
346
0
  0
LAYOUT
  5
5D9
102
{ACAD_REACTORS
330
1A
102
}
100
AcDbPlotSettings
  1

  2
none_device
  4

  6

 40
0.0
 41
0.0
 42
0.0
 43
0.0
 44
210.0
 45
297.0
 46
0.0
 47
0.0
 48
0.0
 49
0.0
140
0.0
141
0.0
142
1.0
143
1.0
 70
0
 72
1
 73
0
 74
0
  7

 75
0
147
1.0
148
0.0
149
0.0
100
AcDbLayout
  1
Layout1
 70
0
 71
1
 10
0.0
 20
0.0
 11
210.0
 21
297.0
 12
0.0
 22
0.0
 32
0.0
 14
0.0
 24
0.0
 34
0.0
 15
0.0
 25
0.0
 35
0.0
146
0.0
 13
0.0
 23
0.0
 33
0.0
 16
1.0
 26
0.0
 36
0.0
 17
0.0
 27
1.0
 37
0.0
 76
0
330
212
345
0
346
0
  0
ENDSEC
  0
EOF
