999
DXF file: C:\Users\sesa63760\Dev\_Creo\CAD\MCADPD0004508_3D-CAD\drw0001_2.dxf
999
Pro/ENGINEER 2019471 by Parametric Technology Corporation
  0
SECTION
  2
HEADER
  9
$ACADVER
  1
AC1024
  9
$DWGCODEPAGE
  3
ANSI_1252
  9
$EXTMAX
 10
205.7737505776
 20
291.0228758169
 30
0.0
  9
$EXTMIN
 10
0.0
 20
0.0
 30
0.0
  9
$LIMMIN
 10
0.0
 20
0.0
  9
$LIMMAX
 10
205.7737505776
 20
291.0228758169
  9
$VIEWCTR
 10
102.8868752888
 20
145.5114379084
  9
$VIEWSIZE
 40
291.0228758169
  9
$CLAYER
  8
0
  9
$LTSCALE
 40
18.9703800532
  9
$CELTYPE
  6
BYLAYER
  9
$DIMSCALE
 40
1.0
  9
$DIMASZ
 40
2.4496875069
  9
$DIMEXO
 40
1.0
  9
$DIMDLI
 40
13.1068080368
  9
$DIMEXE
 40
1.0
  9
$DIMCEN
 40
3.1042440087
  9
$DIMLFAC
 40
1.0
  9
$DIMBLK
  1
_FILLED
  9
$DIMALT
 70
0
  9
$DIMALTF
 40
0.0393700787
  9
$DIMTXT
 40
3.4295625096
  9
$DIMTOL
 70
1
  9
$DIMLIM
 70
0
  9
$DIMTFAC
 40
1.0
  9
$DIMTP
 40
0.01
  9
$DIMTM
 40
0.01
  9
$DIMGAP
 40
0.625
  9
$DIMDSEP
 70
46
  9
$AUNITS
 70
0
  9
$PDMODE
 70
3
  9
$PDSIZE
 40
0.3125
  9
$HANDSEED
  5
2D2
  9
$TILEMODE
 70
1
  9
$MEASUREMENT
 70
1
  9
$INSUNITS
 70
4
  0
ENDSEC
  0
SECTION
  2
CLASSES
  0
CLASS
  1
ACDBDICTIONARYWDFLT
  2
AcDbDictionaryWithDefault
  3
AutoCAD 2000
 90
0
 91
1
280
0
281
0
  0
CLASS
  1
ACDBPLACEHOLDER
  2
AcDbPlaceHolder
  3
AutoCAD 2000
 90
0
 91
1
280
0
281
0
  0
CLASS
  1
LAYOUT
  2
AcDbLayout
  3
AutoCAD 2000
 90
0
 91
0
280
0
281
0
  0
ENDSEC
  0
SECTION
  2
TABLES
  0
TABLE
  2
VPORT
  5
8
100
AcDbSymbolTable
 70
2
  0
VPORT
  5
1F4
100
AcDbSymbolTableRecord
100
AcDbViewportTableRecord
  2
*ACTIVE
 70
0
 10
0.0
 20
0.0
 11
1.0
 21
1.0
 12
102.8868752888
 22
145.5114379084
 13
0.0
 23
0.0
 14
1.0
 24
1.0
 15
0.0
 25
0.0
 16
0.0
 26
0.0
 36
1.0
 17
0.0
 27
0.0
 37
0.0
 40
291.0228758169
 41
0.7070707071
 42
50.0
 43
0.0
 44
0.0
 50
0.0
 51
0.0
 71
0
 72
100
 73
1
 74
1
 75
0
 76
0
 77
0
 78
0
  0
ENDTAB
  0
TABLE
  2
LTYPE
  5
5
100
AcDbSymbolTable
 70
6
  0
LTYPE
  5
14
100
AcDbSymbolTableRecord
100
AcDbLinetypeTableRecord
  2
BYBLOCK
 70
0
  3

 72
65
 73
0
 40
0.0
  0
LTYPE
  5
15
100
AcDbSymbolTableRecord
100
AcDbLinetypeTableRecord
  2
BYLAYER
 70
0
  3

 72
65
 73
0
 40
0.0
  0
LTYPE
  5
16
100
AcDbSymbolTableRecord
100
AcDbLinetypeTableRecord
  2
CONTINUOUS
 70
64
  3
Solid line
 72
65
 73
0
 40
0.0
  0
LTYPE
  5
1F5
100
AcDbSymbolTableRecord
100
AcDbLinetypeTableRecord
  2
CENTER
 70
64
  3
____ _ ____ _ ____ _ ____ _ ____ _ ____ _ ____
 72
65
 73
4
 40
0.6
 49
0.375
 74
0
 49
-0.075
 74
0
 49
0.075
 74
0
 49
-0.075
 74
0
  0
LTYPE
  5
1F6
100
AcDbSymbolTableRecord
100
AcDbLinetypeTableRecord
  2
HIDDEN
 70
64
  3
- - - - - - - - - - - - - - - - - - - -
 72
65
 73
2
 40
0.2
 49
0.1
 74
0
 49
-0.1
 74
0
  0
LTYPE
  5
1F7
100
AcDbSymbolTableRecord
100
AcDbLinetypeTableRecord
  2
PHANTOM
 70
64
  3
_____ _ _ _____ _ _ _____ _ _ _____
 72
65
 73
6
 40
0.8
 49
0.45
 74
0
 49
-0.05
 74
0
 49
0.1
 74
0
 49
-0.05
 74
0
 49
0.1
 74
0
 49
-0.05
 74
0
  0
LTYPE
  5
1F8
100
AcDbSymbolTableRecord
100
AcDbLinetypeTableRecord
  2
DOT
 70
64
  3
. . . . . . . . . . . . . . . . . . . .
 72
65
 73
2
 40
0.2
 49
0.1
 74
0
 49
-0.1
 74
0
  0
LTYPE
  5
1F9
100
AcDbSymbolTableRecord
100
AcDbLinetypeTableRecord
  2
DASHED
 70
64
  3
- - - - - - - - - - - - - - - - - - - -
 72
65
 73
2
 40
0.2
 49
0.1
 74
0
 49
-0.1
 74
0
  0
ENDTAB
  0
TABLE
  2
LAYER
  5
2
100
AcDbSymbolTable
 70
36
  0
LAYER
  5
10
100
AcDbSymbolTableRecord
100
AcDbLayerTableRecord
  2
0
 70
0
 62
7
  6
CONTINUOUS
370
-3
390
F
  0
LAYER
  5
1FA
100
AcDbSymbolTableRecord
100
AcDbLayerTableRecord
  2
DEFAULT_1
 70
0
 62
7
  6
CENTER
370
-3
390
F
  0
LAYER
  5
1FB
100
AcDbSymbolTableRecord
100
AcDbLayerTableRecord
  2
DEFAULT_2
 70
0
 62
7
  6
HIDDEN
370
-3
390
F
  0
LAYER
  5
1FC
100
AcDbSymbolTableRecord
100
AcDbLayerTableRecord
  2
DEFAULT_3
 70
0
 62
7
  6
PHANTOM
370
-3
390
F
  0
LAYER
  5
1FD
100
AcDbSymbolTableRecord
100
AcDbLayerTableRecord
  2
00_COMPONENTS
 70
0
 62
7
  6
CONTINUOUS
370
-3
390
F
  0
LAYER
  5
1FE
100
AcDbSymbolTableRecord
100
AcDbLayerTableRecord
  2
01_1_DEFAULT_DATUMS
 70
0
 62
7
  6
CONTINUOUS
370
-3
390
F
  0
LAYER
  5
1FF
100
AcDbSymbolTableRecord
100
AcDbLayerTableRecord
  2
01_PLANES
 70
0
 62
7
  6
CONTINUOUS
370
-3
390
F
  0
LAYER
  5
200
100
AcDbSymbolTableRecord
100
AcDbLayerTableRecord
  2
02_COORD_SYS
 70
0
 62
7
  6
CONTINUOUS
370
-3
390
F
  0
LAYER
  5
201
100
AcDbSymbolTableRecord
100
AcDbLayerTableRecord
  2
03_AXES
 70
0
 62
7
  6
CONTINUOUS
370
-3
390
F
  0
LAYER
  5
202
100
AcDbSymbolTableRecord
100
AcDbLayerTableRecord
  2
04_POINTS
 70
0
 62
7
  6
CONTINUOUS
370
-3
390
F
  0
LAYER
  5
203
100
AcDbSymbolTableRecord
100
AcDbLayerTableRecord
  2
05_CURVES
 70
0
 62
7
  6
CONTINUOUS
370
-3
390
F
  0
LAYER
  5
204
100
AcDbSymbolTableRecord
100
AcDbLayerTableRecord
  2
06_SURFS
 70
0
 62
7
  6
CONTINUOUS
370
-3
390
F
  0
LAYER
  5
205
100
AcDbSymbolTableRecord
100
AcDbLayerTableRecord
  2
07_COSMETICS
 70
0
 62
7
  6
CONTINUOUS
370
-3
390
F
  0
LAYER
  5
206
100
AcDbSymbolTableRecord
100
AcDbLayerTableRecord
  2
10_NOTES
 70
0
 62
7
  6
CONTINUOUS
370
-3
390
F
  0
LAYER
  5
207
100
AcDbSymbolTableRecord
100
AcDbLayerTableRecord
  2
11_NOTES_PUB
 70
0
 62
7
  6
CONTINUOUS
370
-3
390
F
  0
LAYER
  5
208
100
AcDbSymbolTableRecord
100
AcDbLayerTableRecord
  2
13_REF_GTOL
 70
0
 62
7
  6
CONTINUOUS
370
-3
390
F
  0
LAYER
  5
209
100
AcDbSymbolTableRecord
100
AcDbLayerTableRecord
  2
16_MISC
 70
0
 62
7
  6
CONTINUOUS
370
-3
390
F
  0
LAYER
  5
20A
100
AcDbSymbolTableRecord
100
AcDbLayerTableRecord
  2
17_NO_PRINT
 70
0
 62
7
  6
CONTINUOUS
370
-3
390
F
  0
LAYER
  5
20B
100
AcDbSymbolTableRecord
100
AcDbLayerTableRecord
  2
18_DATUM_CAMS_JOINTS
 70
0
 62
7
  6
CONTINUOUS
370
-3
390
F
  0
LAYER
  5
20C
100
AcDbSymbolTableRecord
100
AcDbLayerTableRecord
  2
19_DATUM_FUNCTIONAL
 70
0
 62
7
  6
CONTINUOUS
370
-3
390
F
  0
LAYER
  5
20D
100
AcDbSymbolTableRecord
100
AcDbLayerTableRecord
  2
20_DATUM_KINEMATIC_SCHEME
 70
0
 62
7
  6
CONTINUOUS
370
-3
390
F
  0
ENDTAB
  0
TABLE
  2
STYLE
  5
3
100
AcDbSymbolTable
 70
1
  0
STYLE
  5
11
100
AcDbSymbolTableRecord
100
AcDbTextStyleTableRecord
  2
STANDARD
 70
0
 40
0.0
 41
1.0
 50
0.0
 71
0
 42
0.2
  3
ARIAL.TTF
  4

  0
STYLE
  5
20E
100
AcDbSymbolTableRecord
100
AcDbTextStyleTableRecord
  2
TEXTSTYLE_1
 70
0
 40
0.0
 41
0.8
 50
0.0
 71
0
 42
0.2
  3
gdt
  4

  0
ENDTAB
  0
TABLE
  2
VIEW
  5
6
100
AcDbSymbolTable
 70
0
  0
ENDTAB
  0
TABLE
  2
UCS
  5
7
100
AcDbSymbolTable
 70
0
  0
ENDTAB
  0
TABLE
  2
APPID
  5
9
100
AcDbSymbolTable
 70
1
  0
APPID
  5
20F
100
AcDbSymbolTableRecord
100
AcDbRegAppTableRecord
  2
ACAD
 70
0
  0
ENDTAB
  0
TABLE
  2
BLOCK_RECORD
  5
1
100
AcDbSymbolTable
 70
0
  0
BLOCK_RECORD
  5
210
100
AcDbSymbolTableRecord
100
AcDbBlockTableRecord
  2
*Model_Space
  0
BLOCK_RECORD
  5
211
100
AcDbSymbolTableRecord
100
AcDbBlockTableRecord
  2
*Paper_Space
  0
BLOCK_RECORD
  5
212
100
AcDbSymbolTableRecord
100
AcDbBlockTableRecord
  2
_FILLED
  0
ENDTAB
  0
TABLE
  2
DIMSTYLE
  5
A
100
AcDbSymbolTable
 70
1
100
AcDbDimStyleTable
 71
0
  0
DIMSTYLE
105
213
100
AcDbSymbolTableRecord
100
AcDbDimStyleTableRecord
  2
STANDARD
 70
0
  3

  4

 40
1.0
 41
2.4496875069
 42
1.0
 43
0.38
 44
1.0
 45
0.0
 46
0.0
 47
0.01
 48
0.01
140
3.4295625096
141
0.09
142
0.0
143
25.4
144
1.0
145
0.0
146
1.0
147
0.625
 71
1
 72
0
 73
0
 74
0
 75
0
 76
0
 77
1
 78
8
 79
2
170
0
171
1
172
0
173
0
174
0
175
0
176
0
177
0
178
0
270
2
179
2
271
2
272
2
273
2
274
2
275
0
280
0
281
0
282
0
283
1
284
8
285
0
286
0
287
3
288
0
340
11
278
46
341
212
342
212
343
212
344
212
  0
ENDTAB
  0
ENDSEC
  0
SECTION
  2
BLOCKS
  0
BLOCK
  5
20
100
AcDbEntity
  8
0
100
AcDbBlockBegin
  2
*Model_Space
 70
0
 10
0.0
 20
0.0
 30
0.0
  3
*Model_Space
  1

  0
ENDBLK
  5
21
100
AcDbEntity
  8
0
100
AcDbBlockEnd
  0
BLOCK
  5
1C
100
AcDbEntity
  8
0
100
AcDbBlockBegin
  2
*Paper_Space
 70
0
 10
0.0
 20
0.0
 30
0.0
  3
*Paper_Space
  1

  0
ENDBLK
  5
1D
100
AcDbEntity
  8
0
100
AcDbBlockEnd
  0
BLOCK
  5
214
100
AcDbEntity
  8
0
100
AcDbBlockBegin
  2
_FILLED
 70
64
 10
0.0
 20
0.0
  3
_FILLED
  1

  0
SOLID
  5
215
100
AcDbEntity
  8
0
  6
BYBLOCK
 62
0
100
AcDbTrace
 10
0.0
 20
0.0
 11
-1.0
 21
0.25
 12
-1.0
 22
-0.25
 13
-1.0
 23
-0.25
  0
ENDBLK
  5
216
100
AcDbEntity
  8
0
  6
BYBLOCK
 62
0
100
AcDbBlockEnd
  0
ENDSEC
  0
SECTION
  2
ENTITIES
  0
LINE
  5
217
100
AcDbEntity
  8
0
100
AcDbLine
 62
7
  6
BYLAYER
 10
22.5617118901
 20
115.8587465084
 11
22.5617118901
 21
119.0087465084
  0
LINE
  5
218
100
AcDbEntity
  8
0
100
AcDbLine
 62
7
  6
BYLAYER
 10
94.4617118901
 20
60.4087465084
 11
72.6617118901
 21
60.4087465084
  0
LINE
  5
219
100
AcDbEntity
  8
0
100
AcDbLine
 62
7
  6
BYLAYER
 10
71.1617118901
 20
61.5087465084
 11
96.1617144177
 21
61.5087465084
  0
LINE
  5
21A
100
AcDbEntity
  8
0
100
AcDbLine
 62
7
  6
BYLAYER
 10
96.2356921402
 20
63.5087463971
 11
71.1617118901
 21
63.5087465084
  0
LINE
  5
21B
100
AcDbEntity
  8
0
100
AcDbLine
 62
7
  6
BYLAYER
 10
169.9617118901
 20
63.8878640496
 11
168.4617118901
 21
63.8878640496
  0
LINE
  5
21C
100
AcDbEntity
  8
0
100
AcDbLine
 62
7
  6
BYLAYER
 10
70.6617118901
 20
64.0087465084
 11
69.1617118901
 21
64.0087465084
  0
LINE
  5
21D
100
AcDbEntity
  8
0
100
AcDbLine
 62
7
  6
BYLAYER
 10
68.3117118901
 20
65.5087465084
 11
170.8117118901
 21
65.5087465084
  0
LINE
  5
21E
100
AcDbEntity
  8
0
100
AcDbLine
 62
7
  6
BYLAYER
 10
33.5617118901
 20
110.8587465084
 11
33.5617118901
 21
113.7587465084
  0
LINE
  5
21F
100
AcDbEntity
  8
0
100
AcDbLine
 62
7
  6
BYLAYER
 10
35.1683760895
 20
115.8587465084
 11
35.4617118901
 21
114.7640023967
  0
LINE
  5
220
100
AcDbEntity
  8
0
100
AcDbLine
 62
7
  6
BYLAYER
 10
36.5081220516
 20
110.8587465084
 11
36.5617118901
 21
110.6587465084
  0
LINE
  5
221
100
AcDbEntity
  8
0
100
AcDbLine
 62
7
  6
BYLAYER
 10
35.3617118901
 20
149.8087465084
 11
35.3617118901
 21
129.5087465084
  0
LINE
  5
222
100
AcDbEntity
  8
0
100
AcDbLine
 62
7
  6
BYLAYER
 10
35.4617118901
 20
115.8587465084
 11
35.4617118901
 21
113.7587465084
  0
LINE
  5
223
100
AcDbEntity
  8
0
100
AcDbLine
 62
7
  6
BYLAYER
 10
37.4617118901
 20
115.8587465084
 11
37.4617118901
 21
110.8587465084
  0
LINE
  5
224
100
AcDbEntity
  8
0
100
AcDbLine
 62
7
  6
BYLAYER
 10
39.5617118901
 20
110.8587465084
 11
39.5617118901
 21
109.3587465084
  0
LINE
  5
225
100
AcDbEntity
  8
0
100
AcDbLine
 62
7
  6
BYLAYER
 10
40.1225403693
 20
176.8087465084
 11
35.3617118901
 21
149.8087465084
  0
LINE
  5
226
100
AcDbEntity
  8
0
100
AcDbLine
 62
7
  6
BYLAYER
 10
49.5617118901
 20
110.8587465084
 11
49.5617118901
 21
109.3587465084
  0
LINE
  5
227
100
AcDbEntity
  8
0
100
AcDbLine
 62
7
  6
BYLAYER
 10
51.6617118901
 20
115.8587465084
 11
51.6617118901
 21
110.8587465084
  0
LINE
  5
228
100
AcDbEntity
  8
0
100
AcDbLine
 62
7
  6
BYLAYER
 10
53.6617118901
 20
115.8587465084
 11
53.6617118901
 21
113.7587465084
  0
LINE
  5
229
100
AcDbEntity
  8
0
100
AcDbLine
 62
7
  6
BYLAYER
 10
55.5617118901
 20
110.8587465084
 11
55.5617118901
 21
113.7587465084
  0
LINE
  5
22A
100
AcDbEntity
  8
0
100
AcDbLine
 62
7
  6
BYLAYER
 10
66.5617118901
 20
110.6587465084
 11
66.5617118901
 21
119.1087465084
  0
LINE
  5
22B
100
AcDbEntity
  8
0
100
AcDbLine
 62
7
  6
BYLAYER
 10
66.5617118901
 20
176.8087465084
 11
66.5617118901
 21
229.8087465084
  0
LINE
  5
22C
100
AcDbEntity
  8
0
100
AcDbLine
 62
7
  6
BYLAYER
 10
68.3117118901
 20
118.0087465084
 11
68.3117118901
 21
65.5087465084
  0
LINE
  5
22D
100
AcDbEntity
  8
0
100
AcDbLine
 62
7
  6
BYLAYER
 10
68.5617118901
 20
118.0087465084
 11
68.5617118901
 21
176.8087465084
  0
LINE
  5
22E
100
AcDbEntity
  8
0
100
AcDbLine
 62
7
  6
BYLAYER
 10
69.1617118901
 20
63.5087465084
 11
69.1617118901
 21
65.5087465084
  0
LINE
  5
22F
100
AcDbEntity
  8
0
100
AcDbLine
 62
7
  6
BYLAYER
 10
69.5617118901
 20
125.9087465084
 11
69.5617118901
 21
122.9087465084
  0
LINE
  5
230
100
AcDbEntity
  8
0
100
AcDbLine
 62
7
  6
BYLAYER
 10
70.6617118901
 20
64.0087465084
 11
70.6617118901
 21
65.5087465084
  0
LINE
  5
231
100
AcDbEntity
  8
0
100
AcDbLine
 62
7
  6
BYLAYER
 10
71.1617118901
 20
61.5087465084
 11
71.1617118901
 21
63.5087465084
  0
LINE
  5
232
100
AcDbEntity
  8
0
100
AcDbLine
 62
7
  6
BYLAYER
 10
71.3117118901
 20
65.5087465084
 11
71.3117118901
 21
118.0087465084
  0
LINE
  5
233
100
AcDbEntity
  8
0
100
AcDbLine
 62
7
  6
BYLAYER
 10
71.5617118901
 20
118.0087465084
 11
71.5617118901
 21
122.9087465084
  0
LINE
  5
234
100
AcDbEntity
  8
0
100
AcDbLine
 62
7
  6
BYLAYER
 10
71.5617118901
 20
125.9087465084
 11
71.5617118901
 21
150.8087465084
  0
LINE
  5
235
100
AcDbEntity
  8
0
100
AcDbLine
 62
7
  6
BYLAYER
 10
72.6617118901
 20
61.5087465084
 11
72.6617118901
 21
60.4087465084
  0
LINE
  5
236
100
AcDbEntity
  8
0
100
AcDbLine
 62
7
  6
BYLAYER
 10
35.3617118901
 20
129.5087465084
 11
24.8617118901
 21
119.0087465084
  0
LINE
  5
237
100
AcDbEntity
  8
0
100
AcDbLine
 62
7
  6
BYLAYER
 10
49.5617118901
 20
109.3587465084
 11
39.5617118901
 21
109.3587465084
  0
LINE
  5
238
100
AcDbEntity
  8
0
100
AcDbLine
 62
7
  6
BYLAYER
 10
36.5617118901
 20
110.6587465084
 11
39.5617118901
 21
110.6587465084
  0
LINE
  5
239
100
AcDbEntity
  8
0
100
AcDbLine
 62
7
  6
BYLAYER
 10
49.5617118901
 20
110.6587465084
 11
66.5617118901
 21
110.6587465084
  0
LINE
  5
23A
100
AcDbEntity
  8
0
100
AcDbLine
 62
7
  6
BYLAYER
 10
55.5617118901
 20
110.8587465084
 11
49.5617118901
 21
110.8587465084
  0
LINE
  5
23B
100
AcDbEntity
  8
0
100
AcDbLine
 62
7
  6
BYLAYER
 10
39.5617118901
 20
110.8587465084
 11
33.5617118901
 21
110.8587465084
  0
LINE
  5
23C
100
AcDbEntity
  8
0
100
AcDbLine
 62
7
  6
BYLAYER
 10
55.5617118901
 20
113.7587465084
 11
53.6617118901
 21
113.7587465084
  0
LINE
  5
23D
100
AcDbEntity
  8
0
100
AcDbLine
 62
7
  6
BYLAYER
 10
35.4617118901
 20
113.7587465084
 11
33.5617118901
 21
113.7587465084
  0
LINE
  5
23E
100
AcDbEntity
  8
0
100
AcDbLine
 62
7
  6
BYLAYER
 10
74.3117118901
 20
65.5087465084
 11
74.3117118901
 21
122.9087465084
  0
LINE
  5
23F
100
AcDbEntity
  8
0
100
AcDbLine
 62
7
  6
BYLAYER
 10
74.3117118901
 20
125.9087465084
 11
74.3117118901
 21
150.8087465084
  0
LINE
  5
240
100
AcDbEntity
  8
0
100
AcDbLine
 62
7
  6
BYLAYER
 10
76.8117118901
 20
118.0087465084
 11
76.8117118901
 21
122.9087465084
  0
LINE
  5
241
100
AcDbEntity
  8
0
100
AcDbLine
 62
7
  6
BYLAYER
 10
76.8117118901
 20
125.9087465084
 11
76.8117118901
 21
150.8087465084
  0
LINE
  5
242
100
AcDbEntity
  8
0
100
AcDbLine
 62
7
  6
BYLAYER
 10
79.3117118901
 20
65.5087465084
 11
79.3117118901
 21
118.0087465084
  0
LINE
  5
243
100
AcDbEntity
  8
0
100
AcDbLine
 62
7
  6
BYLAYER
 10
81.0617118901
 20
118.0087465084
 11
81.0617118901
 21
122.9087465084
  0
LINE
  5
244
100
AcDbEntity
  8
0
100
AcDbLine
 62
7
  6
BYLAYER
 10
66.5617118901
 20
115.8587465084
 11
22.5617118901
 21
115.8587465084
  0
LINE
  5
245
100
AcDbEntity
  8
0
100
AcDbLine
 62
7
  6
BYLAYER
 10
22.5617118901
 20
116.8087465084
 11
66.5617118901
 21
116.8087465084
  0
LINE
  5
246
100
AcDbEntity
  8
0
100
AcDbLine
 62
7
  6
BYLAYER
 10
68.3117118901
 20
118.0087465084
 11
170.8117118901
 21
118.0087465084
  0
LINE
  5
247
100
AcDbEntity
  8
0
100
AcDbLine
 62
7
  6
BYLAYER
 10
24.8617118901
 20
119.0087465084
 11
22.5617118901
 21
119.0087465084
  0
LINE
  5
248
100
AcDbEntity
  8
0
100
AcDbLine
 62
7
  6
BYLAYER
 10
66.5617118901
 20
119.1087465084
 11
68.5617118901
 21
119.1087465084
  0
LINE
  5
249
100
AcDbEntity
  8
0
100
AcDbLine
 62
7
  6
BYLAYER
 10
89.5617118901
 20
125.9087465084
 11
89.5617118901
 21
122.9087465084
  0
LINE
  5
24A
100
AcDbEntity
  8
0
100
AcDbLine
 62
7
  6
BYLAYER
 10
129.5617118901
 20
122.9087465084
 11
109.5617118901
 21
122.9087465084
  0
LINE
  5
24B
100
AcDbEntity
  8
0
100
AcDbLine
 62
7
  6
BYLAYER
 10
92.9617118901
 20
122.9087465084
 11
69.5617118901
 21
122.9087465084
  0
LINE
  5
24C
100
AcDbEntity
  8
0
100
AcDbLine
 62
7
  6
BYLAYER
 10
146.1617118901
 20
122.9087465084
 11
169.5617118901
 21
122.9087465084
  0
LINE
  5
24D
100
AcDbEntity
  8
0
100
AcDbLine
 62
7
  6
BYLAYER
 10
129.5617118901
 20
125.9087465084
 11
109.5617118901
 21
125.9087465084
  0
LINE
  5
24E
100
AcDbEntity
  8
0
100
AcDbLine
 62
7
  6
BYLAYER
 10
69.5617118901
 20
125.9087465084
 11
93.0617118901
 21
125.9087465084
  0
LINE
  5
24F
100
AcDbEntity
  8
0
100
AcDbLine
 62
7
  6
BYLAYER
 10
146.0617118901
 20
125.9087465084
 11
169.5617118901
 21
125.9087465084
  0
LINE
  5
250
100
AcDbEntity
  8
0
100
AcDbLine
 62
7
  6
BYLAYER
 10
172.5617118901
 20
128.3087465084
 11
186.0617118901
 21
128.3087465084
  0
LINE
  5
251
100
AcDbEntity
  8
0
100
AcDbLine
 62
7
  6
BYLAYER
 10
90.4403915466
 20
122.9087465084
 11
90.4403915466
 21
125.9087465084
  0
LINE
  5
252
100
AcDbEntity
  8
0
100
AcDbLine
 62
7
  6
BYLAYER
 10
92.0830322337
 20
125.9087465084
 11
92.0830322337
 21
122.9087465084
  0
LINE
  5
253
100
AcDbEntity
  8
0
100
AcDbLine
 62
7
  6
BYLAYER
 10
92.9617118901
 20
122.9087465084
 11
92.9617118901
 21
125.9087465084
  0
LINE
  5
254
100
AcDbEntity
  8
0
100
AcDbLine
 62
7
  6
BYLAYER
 10
93.0617118901
 20
118.0087465084
 11
93.0617118901
 21
125.9087465084
  0
LINE
  5
255
100
AcDbEntity
  8
0
100
AcDbLine
 62
7
  6
BYLAYER
 10
94.4617118901
 20
61.5087465084
 11
94.4617118901
 21
60.4087465084
  0
LINE
  5
256
100
AcDbEntity
  8
0
100
AcDbLine
 62
7
  6
BYLAYER
 10
94.8117118901
 20
118.0087465084
 11
94.8117118901
 21
65.5087465084
  0
LINE
  5
257
100
AcDbEntity
  8
0
100
AcDbLine
 62
7
  6
BYLAYER
 10
97.3117118901
 20
150.8087465084
 11
97.3117118901
 21
118.0087465084
  0
LINE
  5
258
100
AcDbEntity
  8
0
100
AcDbLine
 62
7
  6
BYLAYER
 10
172.5617118901
 20
132.3087465084
 11
184.0617118901
 21
132.3087465084
  0
LINE
  5
259
100
AcDbEntity
  8
0
100
AcDbLine
 62
7
  6
BYLAYER
 10
186.0617118901
 20
134.3087465084
 11
172.5617118901
 21
134.3087465084
  0
LINE
  5
25A
100
AcDbEntity
  8
0
100
AcDbLine
 62
7
  6
BYLAYER
 10
170.5617118901
 20
136.8087465084
 11
172.5617118901
 21
136.8087465084
  0
LINE
  5
25B
100
AcDbEntity
  8
0
100
AcDbLine
 62
7
  6
BYLAYER
 10
172.5617118901
 20
137.8087465084
 11
170.5617118901
 21
137.8087465084
  0
LINE
  5
25C
100
AcDbEntity
  8
0
100
AcDbLine
 62
7
  6
BYLAYER
 10
99.8117118901
 20
65.5087465084
 11
99.8117118901
 21
150.8087465084
  0
LINE
  5
25D
100
AcDbEntity
  8
0
100
AcDbLine
 62
7
  6
BYLAYER
 10
96.2356874428
 20
63.5087465084
 11
96.1617122126
 21
61.5087465084
  0
LINE
  5
25E
100
AcDbEntity
  8
0
100
AcDbLine
 62
7
  6
BYLAYER
 10
170.5617118901
 20
139.3087465084
 11
172.5617118901
 21
139.3087465084
  0
LINE
  5
25F
100
AcDbEntity
  8
0
100
AcDbLine
 62
7
  6
BYLAYER
 10
170.5617118901
 20
140.3087465084
 11
172.5617118901
 21
140.3087465084
  0
LINE
  5
260
100
AcDbEntity
  8
0
100
AcDbLine
 62
7
  6
BYLAYER
 10
172.5617118901
 20
140.6016397272
 11
170.5617118901
 21
140.6016397272
  0
LINE
  5
261
100
AcDbEntity
  8
0
100
AcDbLine
 62
7
  6
BYLAYER
 10
170.5617118901
 20
142.0186153532
 11
172.5617118901
 21
142.0186153532
  0
LINE
  5
262
100
AcDbEntity
  8
0
100
AcDbLine
 62
7
  6
BYLAYER
 10
172.5617118901
 20
142.8051814457
 11
170.5617118901
 21
142.8051814457
  0
LINE
  5
263
100
AcDbEntity
  8
0
100
AcDbLine
 62
7
  6
BYLAYER
 10
170.5617118901
 20
143.674613142
 11
172.5617118901
 21
143.674613142
  0
LINE
  5
264
100
AcDbEntity
  8
0
100
AcDbLine
 62
7
  6
BYLAYER
 10
170.5617118901
 20
143.7416004401
 11
172.5617118901
 21
143.7416004401
  0
LINE
  5
265
100
AcDbEntity
  8
0
100
AcDbLine
 62
7
  6
BYLAYER
 10
170.5617118901
 20
143.7837465084
 11
172.5617118901
 21
143.7837465084
  0
LINE
  5
266
100
AcDbEntity
  8
0
100
AcDbLine
 62
7
  6
BYLAYER
 10
170.5617118901
 20
144.3687541317
 11
172.5617118901
 21
144.3687541317
  0
LINE
  5
267
100
AcDbEntity
  8
0
100
AcDbLine
 62
7
  6
BYLAYER
 10
170.5617118901
 20
144.8087465084
 11
172.5617118901
 21
144.8087465084
  0
LINE
  5
268
100
AcDbEntity
  8
0
100
AcDbLine
 62
7
  6
BYLAYER
 10
170.5617118901
 20
145.248738885
 11
172.5617118901
 21
145.248738885
  0
LINE
  5
269
100
AcDbEntity
  8
0
100
AcDbLine
 62
7
  6
BYLAYER
 10
170.5617118901
 20
145.8337465084
 11
172.5617118901
 21
145.8337465084
  0
LINE
  5
26A
100
AcDbEntity
  8
0
100
AcDbLine
 62
7
  6
BYLAYER
 10
172.5617118901
 20
145.8758925766
 11
170.5617118901
 21
145.8758925766
  0
LINE
  5
26B
100
AcDbEntity
  8
0
100
AcDbLine
 62
7
  6
BYLAYER
 10
172.5617118901
 20
145.9428798747
 11
170.5617118901
 21
145.9428798747
  0
LINE
  5
26C
100
AcDbEntity
  8
0
100
AcDbLine
 62
7
  6
BYLAYER
 10
106.8117118901
 20
65.5087465084
 11
106.8117118901
 21
150.8087465084
  0
LINE
  5
26D
100
AcDbEntity
  8
0
100
AcDbLine
 62
7
  6
BYLAYER
 10
109.3117118901
 20
118.0087465084
 11
109.3117118901
 21
150.8087465084
  0
LINE
  5
26E
100
AcDbEntity
  8
0
100
AcDbLine
 62
7
  6
BYLAYER
 10
109.5617118901
 20
125.9087465084
 11
109.5617118901
 21
122.9087465084
  0
LINE
  5
26F
100
AcDbEntity
  8
0
100
AcDbLine
 62
7
  6
BYLAYER
 10
111.8117118901
 20
65.5087465084
 11
111.8117118901
 21
118.0087465084
  0
LINE
  5
270
100
AcDbEntity
  8
0
100
AcDbLine
 62
7
  6
BYLAYER
 10
170.5617118901
 20
146.8123115711
 11
172.5617118901
 21
146.8123115711
  0
LINE
  5
271
100
AcDbEntity
  8
0
100
AcDbLine
 62
7
  6
BYLAYER
 10
172.5617118901
 20
147.5988776636
 11
170.5617118901
 21
147.5988776636
  0
LINE
  5
272
100
AcDbEntity
  8
0
100
AcDbLine
 62
7
  6
BYLAYER
 10
172.5617118901
 20
149.3087465084
 11
170.5617118901
 21
149.3087465084
  0
LINE
  5
273
100
AcDbEntity
  8
0
100
AcDbLine
 62
7
  6
BYLAYER
 10
172.5617118901
 20
150.3087465084
 11
170.5617118901
 21
150.3087465084
  0
LINE
  5
274
100
AcDbEntity
  8
0
100
AcDbLine
 62
7
  6
BYLAYER
 10
68.5617118901
 20
150.8087465084
 11
172.5617118901
 21
150.8087465084
  0
LINE
  5
275
100
AcDbEntity
  8
0
100
AcDbLine
 62
7
  6
BYLAYER
 10
113.5617118901
 20
118.0087465084
 11
113.5617118901
 21
122.9087465084
  0
LINE
  5
276
100
AcDbEntity
  8
0
100
AcDbLine
 62
7
  6
BYLAYER
 10
113.5617118901
 20
226.3087465084
 11
113.5617118901
 21
229.3087465084
  0
LINE
  5
277
100
AcDbEntity
  8
0
100
AcDbLine
 62
7
  6
BYLAYER
 10
116.3117118901
 20
225.8087465084
 11
116.3117118901
 21
229.8087465084
  0
LINE
  5
278
100
AcDbEntity
  8
0
100
AcDbLine
 62
7
  6
BYLAYER
 10
122.8117118901
 20
225.8087465084
 11
122.8117118901
 21
229.8087465084
  0
LINE
  5
279
100
AcDbEntity
  8
0
100
AcDbLine
 62
7
  6
BYLAYER
 10
125.5617118901
 20
118.0087465084
 11
125.5617118901
 21
122.9087465084
  0
LINE
  5
27A
100
AcDbEntity
  8
0
100
AcDbLine
 62
7
  6
BYLAYER
 10
125.5617118901
 20
226.3087465084
 11
125.5617118901
 21
229.3087465084
  0
LINE
  5
27B
100
AcDbEntity
  8
0
100
AcDbLine
 62
7
  6
BYLAYER
 10
127.3117118901
 20
118.0087465084
 11
127.3117118901
 21
65.5087465084
  0
LINE
  5
27C
100
AcDbEntity
  8
0
100
AcDbLine
 62
7
  6
BYLAYER
 10
68.5617118901
 20
161.8295617885
 11
170.5617118901
 21
161.8295617885
  0
LINE
  5
27D
100
AcDbEntity
  8
0
100
AcDbLine
 62
7
  6
BYLAYER
 10
170.5617118901
 20
162.8902219603
 11
68.5617118901
 21
162.8902219603
  0
LINE
  5
27E
100
AcDbEntity
  8
0
100
AcDbLine
 62
7
  6
BYLAYER
 10
38.7119245236
 20
168.8087465084
 11
68.5617118901
 21
168.8087465084
  0
LINE
  5
27F
100
AcDbEntity
  8
0
100
AcDbLine
 62
7
  6
BYLAYER
 10
170.5617118901
 20
168.8087465079
 11
186.0617118901
 21
168.8087465084
  0
LINE
  5
280
100
AcDbEntity
  8
0
100
AcDbLine
 62
7
  6
BYLAYER
 10
129.5617118901
 20
125.9087465084
 11
129.5617118901
 21
122.9087465084
  0
LINE
  5
281
100
AcDbEntity
  8
0
100
AcDbLine
 62
7
  6
BYLAYER
 10
129.8117118901
 20
150.8087465084
 11
129.8117118901
 21
118.0087465084
  0
LINE
  5
282
100
AcDbEntity
  8
0
100
AcDbLine
 62
7
  6
BYLAYER
 10
132.3117118901
 20
65.5087465084
 11
132.3117118901
 21
150.8087465084
  0
LINE
  5
283
100
AcDbEntity
  8
0
100
AcDbLine
 62
7
  6
BYLAYER
 10
170.5617118901
 20
174.8508821321
 11
68.5617118901
 21
174.8508821321
  0
LINE
  5
284
100
AcDbEntity
  8
0
100
AcDbLine
 62
7
  6
BYLAYER
 10
184.0617118901
 20
176.8087465084
 11
170.5617118901
 21
176.8087465084
  0
LINE
  5
285
100
AcDbEntity
  8
0
100
AcDbLine
 62
7
  6
BYLAYER
 10
68.5617118901
 20
176.8087465084
 11
40.1225403693
 21
176.8087465084
  0
LINE
  5
286
100
AcDbEntity
  8
0
100
AcDbLine
 62
7
  6
BYLAYER
 10
139.3117118901
 20
65.5087465084
 11
139.3117118901
 21
150.8087465084
  0
LINE
  5
287
100
AcDbEntity
  8
0
100
AcDbLine
 62
7
  6
BYLAYER
 10
141.8117118901
 20
118.0087465084
 11
141.8117118901
 21
150.8087465084
  0
LINE
  5
288
100
AcDbEntity
  8
0
100
AcDbLine
 62
7
  6
BYLAYER
 10
144.3117118901
 20
65.5087465084
 11
144.3117118901
 21
118.0087465084
  0
LINE
  5
289
100
AcDbEntity
  8
0
100
AcDbLine
 62
7
  6
BYLAYER
 10
183.8029017843
 20
177.8087468989
 11
170.5617118901
 21
177.8087465084
  0
LINE
  5
28A
100
AcDbEntity
  8
0
100
AcDbLine
 62
7
  6
BYLAYER
 10
178.0617118901
 20
179.8087466958
 11
184.320530921
 21
179.8087434355
  0
LINE
  5
28B
100
AcDbEntity
  8
0
100
AcDbLine
 62
7
  6
BYLAYER
 10
179.0617118901
 20
180.8087465084
 11
184.0617118666
 21
180.8087465084
  0
LINE
  5
28C
100
AcDbEntity
  8
0
100
AcDbLine
 62
7
  6
BYLAYER
 10
146.0617118901
 20
118.0087465084
 11
146.0617118901
 21
125.9087465084
  0
LINE
  5
28D
100
AcDbEntity
  8
0
100
AcDbLine
 62
7
  6
BYLAYER
 10
146.1617118901
 20
125.9087465084
 11
146.1617118901
 21
122.9087465084
  0
LINE
  5
28E
100
AcDbEntity
  8
0
100
AcDbLine
 62
7
  6
BYLAYER
 10
147.0403915466
 20
122.9087465084
 11
147.0403915466
 21
125.9087465084
  0
LINE
  5
28F
100
AcDbEntity
  8
0
100
AcDbLine
 62
7
  6
BYLAYER
 10
148.6830322337
 20
125.9087465084
 11
148.6830322337
 21
122.9087465084
  0
LINE
  5
290
100
AcDbEntity
  8
0
100
AcDbLine
 62
7
  6
BYLAYER
 10
149.5617118901
 20
122.9087465084
 11
149.5617118901
 21
125.9087465084
  0
LINE
  5
291
100
AcDbEntity
  8
0
100
AcDbLine
 62
7
  6
BYLAYER
 10
158.0617118901
 20
118.0087465084
 11
158.0617118901
 21
122.9087465084
  0
LINE
  5
292
100
AcDbEntity
  8
0
100
AcDbLine
 62
7
  6
BYLAYER
 10
159.8117118901
 20
118.0087465084
 11
159.8117118901
 21
65.5087465084
  0
LINE
  5
293
100
AcDbEntity
  8
0
100
AcDbLine
 62
7
  6
BYLAYER
 10
167.961703204
 20
63.3698088642
 11
168.1018725327
 21
61.3746015561
  0
LINE
  5
294
100
AcDbEntity
  8
0
100
AcDbLine
 62
7
  6
BYLAYER
 10
162.3117118901
 20
150.8087465084
 11
162.3117118901
 21
125.9087465084
  0
LINE
  5
295
100
AcDbEntity
  8
0
100
AcDbLine
 62
7
  6
BYLAYER
 10
162.3117118901
 20
122.9087465084
 11
162.3117118901
 21
118.0087465084
  0
LINE
  5
296
100
AcDbEntity
  8
0
100
AcDbLine
 62
7
  6
BYLAYER
 10
164.8117118901
 20
65.5087465084
 11
164.8117118901
 21
122.9087465084
  0
LINE
  5
297
100
AcDbEntity
  8
0
100
AcDbLine
 62
7
  6
BYLAYER
 10
164.8117118901
 20
125.9087465084
 11
164.8117118901
 21
150.8087465084
  0
LINE
  5
298
100
AcDbEntity
  8
0
100
AcDbLine
 62
7
  6
BYLAYER
 10
167.5617118901
 20
150.8087465084
 11
167.5617118901
 21
125.9087465084
  0
LINE
  5
299
100
AcDbEntity
  8
0
100
AcDbLine
 62
7
  6
BYLAYER
 10
167.5617118901
 20
122.9087465084
 11
167.5617118901
 21
118.0087465084
  0
LINE
  5
29A
100
AcDbEntity
  8
0
100
AcDbLine
 62
7
  6
BYLAYER
 10
167.8117118901
 20
118.0087465084
 11
167.8117118901
 21
65.5087465084
  0
LINE
  5
29B
100
AcDbEntity
  8
0
100
AcDbLine
 62
7
  6
BYLAYER
 10
168.4617118901
 20
65.5087465084
 11
168.4617118901
 21
63.8878640497
  0
LINE
  5
29C
100
AcDbEntity
  8
0
100
AcDbLine
 62
7
  6
BYLAYER
 10
169.5617118901
 20
122.9087465084
 11
169.5617118901
 21
125.9087465084
  0
LINE
  5
29D
100
AcDbEntity
  8
0
100
AcDbLine
 62
7
  6
BYLAYER
 10
169.9617118901
 20
63.3696842597
 11
169.9617118901
 21
65.5087465084
  0
LINE
  5
29E
100
AcDbEntity
  8
0
100
AcDbLine
 62
7
  6
BYLAYER
 10
170.5617118901
 20
118.0087465084
 11
170.5617118901
 21
225.8087465084
  0
LINE
  5
29F
100
AcDbEntity
  8
0
100
AcDbLine
 62
7
  6
BYLAYER
 10
170.8117118901
 20
65.5087465084
 11
170.8117118901
 21
118.0087465084
  0
LINE
  5
2A0
100
AcDbEntity
  8
0
100
AcDbLine
 62
7
  6
BYLAYER
 10
172.5617118901
 20
128.3087465084
 11
172.5617118901
 21
150.8087465084
  0
LINE
  5
2A1
100
AcDbEntity
  8
0
100
AcDbLine
 62
7
  6
BYLAYER
 10
172.5617118901
 20
225.8087465084
 11
172.5617118901
 21
229.8087465084
  0
LINE
  5
2A2
100
AcDbEntity
  8
0
100
AcDbLine
 62
7
  6
BYLAYER
 10
177.0617118901
 20
229.0087465084
 11
177.0617118901
 21
176.8087465084
  0
LINE
  5
2A3
100
AcDbEntity
  8
0
100
AcDbLine
 62
7
  6
BYLAYER
 10
178.0617118901
 20
177.8087465084
 11
178.0617118901
 21
228.0087465084
  0
LINE
  5
2A4
100
AcDbEntity
  8
0
100
AcDbLine
 62
7
  6
BYLAYER
 10
178.802892845
 20
177.8087465084
 11
178.8028928449
 21
179.808746435
  0
LINE
  5
2A5
100
AcDbEntity
  8
0
100
AcDbLine
 62
7
  6
BYLAYER
 10
66.5617118901
 20
223.3151716464
 11
170.5617118901
 21
223.3151716464
  0
LINE
  5
2A6
100
AcDbEntity
  8
0
100
AcDbLine
 62
7
  6
BYLAYER
 10
184.0617118901
 20
176.8087465084
 11
184.0617118901
 21
132.3087465084
  0
LINE
  5
2A7
100
AcDbEntity
  8
0
100
AcDbLine
 62
7
  6
BYLAYER
 10
184.57934558
 20
179.7746709329
 11
184.5793501767
 21
177.7065263937
  0
LINE
  5
2A8
100
AcDbEntity
  8
0
100
AcDbLine
 62
7
  6
BYLAYER
 10
185.0617118901
 20
132.5766957008
 11
185.0617118901
 21
128.3087465084
  0
LINE
  5
2A9
100
AcDbEntity
  8
0
100
AcDbLine
 62
7
  6
BYLAYER
 10
186.0617118901
 20
128.3087465084
 11
186.0617118901
 21
178.8087465084
  0
LINE
  5
2AA
100
AcDbEntity
  8
0
100
AcDbLine
 62
7
  6
BYLAYER
 10
170.5617118901
 20
224.6899443548
 11
66.5617118901
 21
224.6899443548
  0
LINE
  5
2AB
100
AcDbEntity
  8
0
100
AcDbLine
 62
7
  6
BYLAYER
 10
66.5617118901
 20
225.8087465084
 11
172.5617118901
 21
225.8087465084
  0
LINE
  5
2AC
100
AcDbEntity
  8
0
100
AcDbLine
 62
7
  6
BYLAYER
 10
172.5617118901
 20
226.3087465084
 11
125.5617118901
 21
226.3087465084
  0
LINE
  5
2AD
100
AcDbEntity
  8
0
100
AcDbLine
 62
7
  6
BYLAYER
 10
113.5617118901
 20
226.3087465084
 11
66.5617118901
 21
226.3087465084
  0
LINE
  5
2AE
100
AcDbEntity
  8
0
100
AcDbLine
 62
7
  6
BYLAYER
 10
172.5617118901
 20
227.0087465086
 11
178.0617118901
 21
227.0087465084
  0
LINE
  5
2AF
100
AcDbEntity
  8
0
100
AcDbLine
 62
7
  6
BYLAYER
 10
177.0617118901
 20
229.0087465084
 11
172.5617118901
 21
229.0087465084
  0
LINE
  5
2B0
100
AcDbEntity
  8
0
100
AcDbLine
 62
7
  6
BYLAYER
 10
66.5617118901
 20
229.3087465084
 11
113.5617118901
 21
229.3087465084
  0
LINE
  5
2B1
100
AcDbEntity
  8
0
100
AcDbLine
 62
7
  6
BYLAYER
 10
125.5617118901
 20
229.3087465084
 11
172.5617118901
 21
229.3087465084
  0
LINE
  5
2B2
100
AcDbEntity
  8
0
100
AcDbLine
 62
7
  6
BYLAYER
 10
66.5617118901
 20
229.8087465084
 11
172.5617118901
 21
229.8087465084
  0
ARC
  5
2B3
100
AcDbEntity
  8
0
100
AcDbCircle
 62
7
  6
BYLAYER
 10
133.0617118901
 20
560.1452774606
 40
500.0
100
AcDbArc
 50
265.7677239701
 51
274.0186006184
  0
ARC
  5
2B4
100
AcDbEntity
  8
0
100
AcDbCircle
 62
7
  6
BYLAYER
 10
133.0617118901
 20
560.1452774606
 40
498.0
100
AcDbArc
 50
265.7592304285
 51
274.0185723604
  0
ARC
  5
2B5
100
AcDbEntity
  8
0
100
AcDbCircle
 62
7
  6
BYLAYER
 10
183.8012709904
 20
174.7963689447
 40
3.0123783956
100
AcDbArc
 50
75.031143367
 51
89.9689821134
  0
ARC
  5
2B6
100
AcDbEntity
  8
0
100
AcDbCircle
 62
7
  6
BYLAYER
 10
71.1617118901
 20
63.5087465084
 40
2.0
100
AcDbArc
 50
180.0
 51
270.0
  0
ARC
  5
2B7
100
AcDbEntity
  8
0
100
AcDbCircle
 62
7
  6
BYLAYER
 10
167.9617118901
 20
63.3696842597
 40
2.0
100
AcDbArc
 50
274.0186006184
 51
360.0
  0
ARC
  5
2B8
100
AcDbEntity
  8
0
100
AcDbCircle
 62
7
  6
BYLAYER
 10
184.0617118901
 20
174.8087465084
 40
2.0
100
AcDbArc
 50
0.0
 51
90.0000018367
  0
ARC
  5
2B9
100
AcDbEntity
  8
0
100
AcDbCircle
 62
7
  6
BYLAYER
 10
184.0617118901
 20
178.8087465084
 40
2.0
100
AcDbArc
 50
0.0
 51
90.0000012148
  0
ARC
  5
2BA
100
AcDbEntity
  8
0
100
AcDbCircle
 62
7
  6
BYLAYER
 10
184.0617118901
 20
134.3087465084
 40
2.0
100
AcDbArc
 50
270.0
 51
360.0
  0
ARC
  5
2BB
100
AcDbEntity
  8
0
100
AcDbCircle
 62
7
  6
BYLAYER
 10
184.319970177
 20
178.8044699674
 40
1.0042736247
100
AcDbArc
 50
75.0324675346
 51
89.9680084534
  0
ARC
  5
2BC
100
AcDbEntity
  8
0
100
AcDbCircle
 62
7
  6
BYLAYER
 10
177.0617118901
 20
228.0087465084
 40
1.0
100
AcDbArc
 50
0.0
 51
90.0000000002
  0
ARC
  5
2BD
100
AcDbEntity
  8
0
100
AcDbCircle
 62
7
  6
BYLAYER
 10
179.0617118901
 20
181.8087465084
 40
1.0
100
AcDbArc
 50
179.9999999928
 51
270.0
  0
ARC
  5
2BE
100
AcDbEntity
  8
0
100
AcDbCircle
 62
7
  6
BYLAYER
 10
179.0617118901
 20
177.8087465084
 40
1.0
100
AcDbArc
 50
180.0
 51
270.0
  0
SPLINE
  5
2BF
100
AcDbEntity
  8
0
100
AcDbSpline
 62
7
  6
BYLAYER
 70
0
 71
3
 72
12
 73
8
 74
0
 42
0.0000001
 43
0.0000001
 44
0.0000000001
 40
0.0
 40
0.0
 40
0.0
 40
0.0
 40
0.3497198234
 40
0.6689147686
 40
0.7942625989
 40
0.8901066922
 40
1.0
 40
1.0
 40
1.0
 40
1.0
 10
184.5792980329
 20
177.7065363799
 30
0.0
 10
184.5510186494
 20
177.5933917178
 30
0.0
 10
184.5066822263
 20
177.3742535113
 30
0.0
 10
184.478784266
 20
177.11086691
 30
0.0
 10
184.4876991565
 20
176.9286124883
 30
0.0
 10
184.5050077225
 20
176.8235413066
 30
0.0
 10
184.5439640099
 20
176.7500847718
 30
0.0
 10
184.5793659774
 20
176.7406119625
 30
0.0
  0
SPLINE
  5
2C0
100
AcDbEntity
  8
0
100
AcDbSpline
 62
7
  6
BYLAYER
 70
0
 71
3
 72
13
 73
9
 74
0
 42
0.0000001
 43
0.0000001
 44
0.0000000001
 40
0.0
 40
0.0
 40
0.0
 40
0.0
 40
0.2399440461
 40
0.48239999
 40
0.6062619948
 40
0.7329058523
 40
0.8635333503
 40
1.0
 40
1.0
 40
1.0
 40
1.0
 10
186.0617118901
 20
174.8087464317
 30
0.0
 10
186.0616687012
 20
175.0831363395
 30
0.0
 10
186.0120775286
 20
175.6360227341
 30
0.0
 10
185.8153108296
 20
176.3068473408
 30
0.0
 10
185.5626569389
 20
176.8123456945
 30
0.0
 10
185.3140696613
 20
177.1726057836
 30
0.0
 10
184.9921976532
 20
177.4921813999
 30
0.0
 10
184.7241291038
 20
177.6482838345
 30
0.0
 10
184.5793478782
 20
177.7065276764
 30
0.0
  0
SPLINE
  5
2C1
100
AcDbEntity
  8
0
100
AcDbSpline
 62
7
  6
BYLAYER
 70
0
 71
3
 72
12
 73
8
 74
0
 42
0.0000001
 43
0.0000001
 44
0.0000000001
 40
0.0
 40
0.0
 40
0.0
 40
0.0
 40
0.3441758316
 40
0.6653163247
 40
0.7923485649
 40
0.8894772266
 40
1.0
 40
1.0
 40
1.0
 40
1.0
 10
183.802892898
 20
177.8087465084
 30
0.0
 10
183.8028928849
 20
177.6858990402
 30
0.0
 10
183.8145045373
 20
177.4481327513
 30
0.0
 10
183.8557394312
 20
177.168314454
 30
0.0
 10
183.9145869372
 20
176.9801848692
 30
0.0
 10
183.961323713
 20
176.8749438424
 30
0.0
 10
184.0222626273
 20
176.8087463248
 30
0.0
 10
184.061711774
 20
176.8087462466
 30
0.0
  0
SPLINE
  5
2C2
100
AcDbEntity
  8
0
100
AcDbSpline
 62
7
  6
BYLAYER
 70
0
 71
3
 72
12
 73
8
 74
0
 42
0.0000001
 43
0.0000001
 44
0.0000000001
 40
0.0
 40
0.0
 40
0.0
 40
0.0
 40
0.1166997225
 40
0.2126940485
 40
0.3344390597
 40
0.6420185276
 40
1.0
 40
1.0
 40
1.0
 40
1.0
 10
179.061711755
 20
176.8087465084
 30
0.0
 10
179.0200725609
 20
176.8087465924
 30
0.0
 10
178.9590377603
 20
176.8790869952
 30
0.0
 10
178.9130520342
 20
176.9841147658
 30
0.0
 10
178.8570693492
 20
177.1655971551
 30
0.0
 10
178.8147995722
 20
177.4431337481
 30
0.0
 10
178.802892845
 20
177.6810164702
 30
0.0
 10
178.802892845
 20
177.8087465084
 30
0.0
  0
SPLINE
  5
2C3
100
AcDbEntity
  8
0
100
AcDbSpline
 62
7
  6
BYLAYER
 70
0
 71
3
 72
17
 73
13
 74
0
 42
0.0000001
 43
0.0000001
 44
0.0000000001
 40
0.0
 40
0.0
 40
0.0
 40
0.0
 40
0.1416518092
 40
0.2718253869
 40
0.3357619835
 40
0.394828437
 40
0.4483276304
 40
0.4993500456
 40
0.6042530262
 40
0.7223411186
 40
0.8560528577
 40
1.0
 40
1.0
 40
1.0
 40
1.0
 10
69.1617118901
 20
63.5087465084
 30
0.0
 10
69.1617118901
 20
63.3307663416
 30
0.0
 10
69.2044488804
 20
62.9859758085
 30
0.0
 10
69.3893925748
 20
62.5986849752
 30
0.0
 10
69.5899153545
 20
62.3499479369
 30
0.0
 10
69.7637844531
 20
62.2086754129
 30
0.0
 10
69.9550019383
 20
62.1256066321
 30
0.0
 10
70.2197225727
 20
62.0952003274
 30
0.0
 10
70.5641273811
 20
62.197888983
 30
0.0
 10
70.9022860709
 20
62.5139144619
 30
0.0
 10
71.1017298227
 20
62.9802073597
 30
0.0
 10
71.1533825966
 20
63.3280742373
 30
0.0
 10
71.1617118901
 20
63.5087465084
 30
0.0
  0
SPLINE
  5
2C4
100
AcDbEntity
  8
0
100
AcDbSpline
 62
7
  6
BYLAYER
 70
0
 71
3
 72
14
 73
10
 74
0
 42
0.0000001
 43
0.0000001
 44
0.0000000001
 40
0.0
 40
0.0
 40
0.0
 40
0.0
 40
0.0472696546
 40
0.1094651846
 40
0.1975331592
 40
0.3135666225
 40
0.456312079
 40
0.6222262019
 40
1.0
 40
1.0
 40
1.0
 40
1.0
 10
179.0617118901
 20
180.8087465084
 30
0.0
 10
179.0448642045
 20
180.8087465084
 30
0.0
 10
179.0057065733
 20
180.7926957608
 30
0.0
 10
178.9647880168
 20
180.733211605
 30
0.0
 10
178.9287629451
 20
180.6454248533
 30
0.0
 10
178.8951035163
 20
180.5262002687
 30
0.0
 10
178.8619816149
 20
180.3784962298
 30
0.0
 10
178.8214550684
 20
180.1370769113
 30
0.0
 10
178.8069143548
 20
179.943328848
 30
0.0
 10
178.8028925604
 20
179.8087441053
 30
0.0
  0
SPLINE
  5
2C5
100
AcDbEntity
  8
0
100
AcDbSpline
 62
7
  6
BYLAYER
 70
0
 71
3
 72
12
 73
8
 74
0
 42
0.0000001
 43
0.0000001
 44
0.0000000001
 40
0.0
 40
0.0
 40
0.0
 40
0.0
 40
0.1154753206
 40
0.2103032546
 40
0.3308630591
 40
0.6376134233
 40
1.0
 40
1.0
 40
1.0
 40
1.0
 10
184.5793515914
 20
180.7406000415
 30
0.0
 10
184.616536204
 20
180.7306369508
 30
0.0
 10
184.6546679476
 20
180.6537801535
 30
0.0
 10
184.6713928982
 20
180.5490394458
 30
0.0
 10
184.6793752211
 20
180.3728905162
 30
0.0
 10
184.6528053602
 20
180.111154197
 30
0.0
 10
184.6086631098
 20
179.8918691822
 30
0.0
 10
184.5793726916
 20
179.7746642415
 30
0.0
  0
SPLINE
  5
2C6
100
AcDbEntity
  8
0
100
AcDbSpline
 62
7
  6
BYLAYER
 70
0
 71
3
 72
13
 73
9
 74
0
 42
0.0000001
 43
0.0000001
 44
0.0000000001
 40
0.0
 40
0.0
 40
0.0
 40
0.0
 40
0.3348683093
 40
0.611799376
 40
0.7267331409
 40
0.8271383991
 40
0.9161026821
 40
1.0
 40
1.0
 40
1.0
 40
1.0
 10
184.5793478782
 20
179.7746718576
 30
0.0
 10
184.7894019313
 20
179.7465189966
 30
0.0
 10
185.1697024217
 20
179.6628556373
 30
0.0
 10
185.594024396
 20
179.4703190264
 30
0.0
 10
185.8392644095
 20
179.2757242944
 30
0.0
 10
185.9656054881
 20
179.1284238192
 30
0.0
 10
186.0441992568
 20
178.9719965277
 30
0.0
 10
186.0617118901
 20
178.8618435983
 30
0.0
 10
186.0617118901
 20
178.8087464587
 30
0.0
  0
SPLINE
  5
2C7
100
AcDbEntity
  8
0
100
AcDbSpline
 62
7
  6
BYLAYER
 70
0
 71
3
 72
9
 73
5
 74
0
 42
0.0000001
 43
0.0000001
 44
0.0000000001
 40
0.0
 40
0.0
 40
0.0
 40
0.0
 40
0.4991555697
 40
1.0
 40
1.0
 40
1.0
 40
1.0
 10
70.6617118901
 20
64.0087465084
 30
0.0
 10
70.6644077461
 20
63.8842715329
 30
0.0
 10
70.7991974021
 20
63.6431981223
 30
0.0
 10
71.0371876078
 20
63.5187496535
 30
0.0
 10
71.1617118901
 20
63.5087465084
 30
0.0
  0
SPLINE
  5
2C8
100
AcDbEntity
  8
0
100
AcDbSpline
 62
7
  6
BYLAYER
 70
0
 71
3
 72
9
 73
5
 74
0
 42
0.0000001
 43
0.0000001
 44
0.0000000001
 40
0.0
 40
0.0
 40
0.0
 40
0.0
 40
0.5009283734
 40
1.0
 40
1.0
 40
1.0
 40
1.0
 10
167.9614664646
 20
63.3696730042
 30
0.0
 10
168.0875397959
 20
63.3848924101
 30
0.0
 10
168.325687932
 20
63.5151906577
 30
0.0
 10
168.4594806808
 20
63.7613657811
 30
0.0
 10
168.4617118901
 20
63.8878640497
 30
0.0
  0
SPLINE
  5
2C9
100
AcDbEntity
  8
0
100
AcDbSpline
 62
7
  6
BYLAYER
 70
0
 71
3
 72
15
 73
11
 74
0
 42
0.0000001
 43
0.0000001
 44
0.0000000001
 40
0.0
 40
0.0
 40
0.0
 40
0.0
 40
0.1450994925
 40
0.2804143188
 40
0.4005536023
 40
0.5071760817
 40
0.6120328247
 40
0.7258051058
 40
0.8572017011
 40
1.0
 40
1.0
 40
1.0
 40
1.0
 10
167.961703204
 20
63.3698088642
 30
0.0
 10
167.9809463565
 20
63.1952282237
 30
0.0
 10
168.0537535486
 20
62.8607663963
 30
0.0
 10
168.2748392307
 20
62.4195433133
 30
0.0
 10
168.6128760635
 20
62.1223841713
 30
0.0
 10
169.0151898122
 20
62.003775023
 30
0.0
 10
169.4116239944
 20
62.121759099
 30
0.0
 10
169.7249391829
 20
62.4256604826
 30
0.0
 10
169.9179068513
 20
62.8632497823
 30
0.0
 10
169.9617118901
 20
63.196831799
 30
0.0
 10
169.9617118901
 20
63.3696842597
 30
0.0
  0
SPLINE
  5
2CA
100
AcDbEntity
  8
0
100
AcDbSpline
 62
7
  6
BYLAYER
 70
0
 71
3
 72
10
 73
6
 74
0
 42
0.0000001
 43
0.0000001
 44
0.0000000001
 40
0.0
 40
0.0
 40
0.0
 40
0.0
 40
0.3489713865
 40
0.6359971728
 40
1.0
 40
1.0
 40
1.0
 40
1.0
 10
184.0616877708
 20
180.8087465084
 30
0.0
 10
184.1033325025
 20
180.8087635454
 30
0.0
 10
184.1644129737
 20
180.7383784685
 30
0.0
 10
184.2102762945
 20
180.6334697677
 30
0.0
 10
184.2338388304
 20
180.5579062643
 30
0.0
 10
184.2447214817
 20
180.5158530466
 30
0.0
  0
SPLINE
  5
2CB
100
AcDbEntity
  8
0
100
AcDbSpline
 62
7
  6
BYLAYER
 70
0
 71
3
 72
9
 73
5
 74
0
 42
0.0000001
 43
0.0000001
 44
0.0000000001
 40
0.0
 40
0.0
 40
0.0
 40
0.0
 40
0.4621335741
 40
1.0
 40
1.0
 40
1.0
 40
1.0
 10
184.2447214817
 20
180.5158530466
 30
0.0
 10
184.2722163051
 20
180.4096063456
 30
0.0
 10
184.3089981129
 20
180.1739902645
 30
0.0
 10
184.3205604816
 20
179.9364756508
 30
0.0
 10
184.3205914993
 20
179.8087441053
 30
0.0
  0
ELLIPSE
  5
2CC
100
AcDbEntity
  8
0
100
AcDbEllipse
 62
7
  6
BYLAYER
 10
114.0617118901
 20
229.3087465084
 30
0.0
 11
0.0
 21
0.5
 31
0.0
 40
1.0
 41
0.0
 42
1.5707963268
  0
ELLIPSE
  5
2CD
100
AcDbEntity
  8
0
100
AcDbEllipse
 62
7
  6
BYLAYER
 10
114.0617118901
 20
226.3087465084
 30
0.0
 11
0.0
 21
0.5
 31
0.0
 40
1.0
 41
-4.7123889804
 42
-3.1415926536
  0
ELLIPSE
  5
2CE
100
AcDbEntity
  8
0
100
AcDbEllipse
 62
7
  6
BYLAYER
 10
125.0617118901
 20
229.3087465084
 30
0.0
 11
0.5
 21
0.0
 31
0.0
 40
1.0
 41
0.0
 42
1.5707963268
  0
ELLIPSE
  5
2CF
100
AcDbEntity
  8
0
100
AcDbEllipse
 62
7
  6
BYLAYER
 10
125.0617118901
 20
226.3087465084
 30
0.0
 11
0.5
 21
0.0
 31
0.0
 40
1.0
 41
-1.5707963268
 42
-0.0
  0
ENDSEC
  0
SECTION
  2
OBJECTS
  0
DICTIONARY
  5
C
100
AcDbDictionary
280
0
281
1
  3
ACAD_GROUP
350
D
  3
ACAD_MLINESTYLE
350
17
  3
ACAD_LAYOUT
350
1A
  3
ACAD_PLOTSETTINGS
350
19
  3
ACAD_PLOTSTYLENAME
350
E
  0
DICTIONARY
  5
D
102
{ACAD_REACTORS
330
C
102
}
100
AcDbDictionary
280
0
281
1
  0
ACDBDICTIONARYWDFLT
  5
E
102
{ACAD_REACTORS
330
C
102
}
100
AcDbDictionary
281
1
  3
Normal
350
F
100
AcDbDictionaryWithDefault
340
F
  0
DICTIONARY
  5
17
102
{ACAD_REACTORS
330
C
102
}
100
AcDbDictionary
280
0
281
1
  3
Standard
350
18
  0
DICTIONARY
  5
19
102
{ACAD_REACTORS
330
C
102
}
100
AcDbDictionary
281
1
  0
DICTIONARY
  5
1A
102
{ACAD_REACTORS
330
C
102
}
100
AcDbDictionary
281
1
  3
Model
350
2D0
  3
Layout1
350
2D1
  0
ACDBPLACEHOLDER
  5
F
102
{ACAD_REACTORS
330
E
102
}
  0
MLINESTYLE
  5
18
102
{ACAD_REACTORS
330
17
102
}
100
AcDbMlineStyle
  2
STANDARD
 70
0
  3

 62
256
 51
90.0
 52
90.0
 71
2
 49
0.5
 62
256
  6
BYLAYER
 49
-0.5
 62
256
  6
BYLAYER
  0
LAYOUT
  5
2D0
102
{ACAD_REACTORS
330
1A
102
}
100
AcDbPlotSettings
  1

  2
none_device
  4

  6

 40
0.0
 41
0.0
 42
0.0
 43
0.0
 44
210.0
 45
297.0
 46
0.0
 47
0.0
 48
0.0
 49
0.0
140
0.0
141
0.0
142
1.0
143
1.0
 70
1024
 72
1
 73
0
 74
0
  7

 75
0
147
1.0
148
0.0
149
0.0
100
AcDbLayout
  1
Model
 70
0
 71
0
 10
0.0
 20
0.0
 11
210.0
 21
297.0
 12
0.0
 22
0.0
 32
0.0
 14
0.0
 24
0.0
 34
0.0
 15
0.0
 25
0.0
 35
0.0
146
0.0
 13
0.0
 23
0.0
 33
0.0
 16
1.0
 26
0.0
 36
0.0
 17
0.0
 27
1.0
 37
0.0
 76
0
330
210
345
0
346
0
  0
LAYOUT
  5
2D1
102
{ACAD_REACTORS
330
1A
102
}
100
AcDbPlotSettings
  1

  2
none_device
  4

  6

 40
0.0
 41
0.0
 42
0.0
 43
0.0
 44
210.0
 45
297.0
 46
0.0
 47
0.0
 48
0.0
 49
0.0
140
0.0
141
0.0
142
1.0
143
1.0
 70
0
 72
1
 73
0
 74
0
  7

 75
0
147
1.0
148
0.0
149
0.0
100
AcDbLayout
  1
Layout1
 70
0
 71
1
 10
0.0
 20
0.0
 11
210.0
 21
297.0
 12
0.0
 22
0.0
 32
0.0
 14
0.0
 24
0.0
 34
0.0
 15
0.0
 25
0.0
 35
0.0
146
0.0
 13
0.0
 23
0.0
 33
0.0
 16
1.0
 26
0.0
 36
0.0
 17
0.0
 27
1.0
 37
0.0
 76
0
330
211
345
0
346
0
  0
ENDSEC
  0
EOF
