999
DXF file: C:\Users\sesa63760\Dev\_Creo\CAD\MCADPD0004712_3D-CAD\drw0001_5.dxf
999
Pro/ENGINEER 2019471 by Parametric Technology Corporation
  0
SECTION
  2
HEADER
  9
$ACADVER
  1
AC1024
  9
$DWGCODEPAGE
  3
ANSI_1252
  9
$EXTMAX
 10
76.5198804152
 20
108.2209737301
 30
0.0
  9
$EXTMIN
 10
0.0
 20
0.0
 30
0.0
  9
$LIMMIN
 10
0.0
 20
0.0
  9
$LIMMAX
 10
76.5198804152
 20
108.2209737301
  9
$VIEWCTR
 10
38.2599402076
 20
54.1104868651
  9
$VIEWSIZE
 40
108.2209737301
  9
$CLAYER
  8
0
  9
$LTSCALE
 40
7.0544042135
  9
$CELTYPE
  6
BYLAYER
  9
$DIMSCALE
 40
1.0
  9
$DIMASZ
 40
0.9109509573
  9
$DIMEXO
 40
1.0
  9
$DIMDLI
 40
4.8739520021
  9
$DIMEXE
 40
1.0
  9
$DIMCEN
 40
1.1543570531
  9
$DIMLFAC
 40
1.0
  9
$DIMBLK
  1
_FILLED
  9
$DIMALT
 70
0
  9
$DIMALTF
 40
0.0393700787
  9
$DIMTXT
 40
1.2753313403
  9
$DIMTOL
 70
1
  9
$DIMLIM
 70
0
  9
$DIMTFAC
 40
1.0
  9
$DIMTP
 40
0.01
  9
$DIMTM
 40
0.01
  9
$DIMGAP
 40
0.625
  9
$DIMDSEP
 70
46
  9
$AUNITS
 70
0
  9
$PDMODE
 70
3
  9
$PDSIZE
 40
0.3125
  9
$HANDSEED
  5
23E
  9
$TILEMODE
 70
1
  9
$MEASUREMENT
 70
1
  9
$INSUNITS
 70
4
  0
ENDSEC
  0
SECTION
  2
CLASSES
  0
CLASS
  1
ACDBDICTIONARYWDFLT
  2
AcDbDictionaryWithDefault
  3
AutoCAD 2000
 90
0
 91
1
280
0
281
0
  0
CLASS
  1
ACDBPLACEHOLDER
  2
AcDbPlaceHolder
  3
AutoCAD 2000
 90
0
 91
1
280
0
281
0
  0
CLASS
  1
LAYOUT
  2
AcDbLayout
  3
AutoCAD 2000
 90
0
 91
0
280
0
281
0
  0
ENDSEC
  0
SECTION
  2
TABLES
  0
TABLE
  2
VPORT
  5
8
100
AcDbSymbolTable
 70
2
  0
VPORT
  5
1F4
100
AcDbSymbolTableRecord
100
AcDbViewportTableRecord
  2
*ACTIVE
 70
0
 10
0.0
 20
0.0
 11
1.0
 21
1.0
 12
38.2599402076
 22
54.1104868651
 13
0.0
 23
0.0
 14
1.0
 24
1.0
 15
0.0
 25
0.0
 16
0.0
 26
0.0
 36
1.0
 17
0.0
 27
0.0
 37
0.0
 40
108.2209737301
 41
0.7070707071
 42
50.0
 43
0.0
 44
0.0
 50
0.0
 51
0.0
 71
0
 72
100
 73
1
 74
1
 75
0
 76
0
 77
0
 78
0
  0
ENDTAB
  0
TABLE
  2
LTYPE
  5
5
100
AcDbSymbolTable
 70
6
  0
LTYPE
  5
14
100
AcDbSymbolTableRecord
100
AcDbLinetypeTableRecord
  2
BYBLOCK
 70
0
  3

 72
65
 73
0
 40
0.0
  0
LTYPE
  5
15
100
AcDbSymbolTableRecord
100
AcDbLinetypeTableRecord
  2
BYLAYER
 70
0
  3

 72
65
 73
0
 40
0.0
  0
LTYPE
  5
16
100
AcDbSymbolTableRecord
100
AcDbLinetypeTableRecord
  2
CONTINUOUS
 70
64
  3
Solid line
 72
65
 73
0
 40
0.0
  0
LTYPE
  5
1F5
100
AcDbSymbolTableRecord
100
AcDbLinetypeTableRecord
  2
CENTER
 70
64
  3
____ _ ____ _ ____ _ ____ _ ____ _ ____ _ ____
 72
65
 73
4
 40
0.6
 49
0.375
 74
0
 49
-0.075
 74
0
 49
0.075
 74
0
 49
-0.075
 74
0
  0
LTYPE
  5
1F6
100
AcDbSymbolTableRecord
100
AcDbLinetypeTableRecord
  2
HIDDEN
 70
64
  3
- - - - - - - - - - - - - - - - - - - -
 72
65
 73
2
 40
0.2
 49
0.1
 74
0
 49
-0.1
 74
0
  0
LTYPE
  5
1F7
100
AcDbSymbolTableRecord
100
AcDbLinetypeTableRecord
  2
PHANTOM
 70
64
  3
_____ _ _ _____ _ _ _____ _ _ _____
 72
65
 73
6
 40
0.8
 49
0.45
 74
0
 49
-0.05
 74
0
 49
0.1
 74
0
 49
-0.05
 74
0
 49
0.1
 74
0
 49
-0.05
 74
0
  0
LTYPE
  5
1F8
100
AcDbSymbolTableRecord
100
AcDbLinetypeTableRecord
  2
DOT
 70
64
  3
. . . . . . . . . . . . . . . . . . . .
 72
65
 73
2
 40
0.2
 49
0.1
 74
0
 49
-0.1
 74
0
  0
LTYPE
  5
1F9
100
AcDbSymbolTableRecord
100
AcDbLinetypeTableRecord
  2
DASHED
 70
64
  3
- - - - - - - - - - - - - - - - - - - -
 72
65
 73
2
 40
0.2
 49
0.1
 74
0
 49
-0.1
 74
0
  0
ENDTAB
  0
TABLE
  2
LAYER
  5
2
100
AcDbSymbolTable
 70
36
  0
LAYER
  5
10
100
AcDbSymbolTableRecord
100
AcDbLayerTableRecord
  2
0
 70
0
 62
7
  6
CONTINUOUS
370
-3
390
F
  0
LAYER
  5
1FA
100
AcDbSymbolTableRecord
100
AcDbLayerTableRecord
  2
DEFAULT_1
 70
0
 62
7
  6
CENTER
370
-3
390
F
  0
LAYER
  5
1FB
100
AcDbSymbolTableRecord
100
AcDbLayerTableRecord
  2
DEFAULT_2
 70
0
 62
7
  6
HIDDEN
370
-3
390
F
  0
LAYER
  5
1FC
100
AcDbSymbolTableRecord
100
AcDbLayerTableRecord
  2
DEFAULT_3
 70
0
 62
7
  6
PHANTOM
370
-3
390
F
  0
LAYER
  5
1FD
100
AcDbSymbolTableRecord
100
AcDbLayerTableRecord
  2
00_COMPONENTS
 70
0
 62
7
  6
CONTINUOUS
370
-3
390
F
  0
LAYER
  5
1FE
100
AcDbSymbolTableRecord
100
AcDbLayerTableRecord
  2
01_1_DEFAULT_DATUMS
 70
0
 62
7
  6
CONTINUOUS
370
-3
390
F
  0
LAYER
  5
1FF
100
AcDbSymbolTableRecord
100
AcDbLayerTableRecord
  2
01_PLANES
 70
0
 62
7
  6
CONTINUOUS
370
-3
390
F
  0
LAYER
  5
200
100
AcDbSymbolTableRecord
100
AcDbLayerTableRecord
  2
02_COORD_SYS
 70
0
 62
7
  6
CONTINUOUS
370
-3
390
F
  0
LAYER
  5
201
100
AcDbSymbolTableRecord
100
AcDbLayerTableRecord
  2
03_AXES
 70
0
 62
7
  6
CONTINUOUS
370
-3
390
F
  0
LAYER
  5
202
100
AcDbSymbolTableRecord
100
AcDbLayerTableRecord
  2
04_POINTS
 70
0
 62
7
  6
CONTINUOUS
370
-3
390
F
  0
LAYER
  5
203
100
AcDbSymbolTableRecord
100
AcDbLayerTableRecord
  2
05_CURVES
 70
0
 62
7
  6
CONTINUOUS
370
-3
390
F
  0
LAYER
  5
204
100
AcDbSymbolTableRecord
100
AcDbLayerTableRecord
  2
06_SURFS
 70
0
 62
7
  6
CONTINUOUS
370
-3
390
F
  0
LAYER
  5
205
100
AcDbSymbolTableRecord
100
AcDbLayerTableRecord
  2
07_COSMETICS
 70
0
 62
7
  6
CONTINUOUS
370
-3
390
F
  0
LAYER
  5
206
100
AcDbSymbolTableRecord
100
AcDbLayerTableRecord
  2
10_NOTES
 70
0
 62
7
  6
CONTINUOUS
370
-3
390
F
  0
LAYER
  5
207
100
AcDbSymbolTableRecord
100
AcDbLayerTableRecord
  2
11_NOTES_PUB
 70
0
 62
7
  6
CONTINUOUS
370
-3
390
F
  0
LAYER
  5
208
100
AcDbSymbolTableRecord
100
AcDbLayerTableRecord
  2
13_REF_GTOL
 70
0
 62
7
  6
CONTINUOUS
370
-3
390
F
  0
LAYER
  5
209
100
AcDbSymbolTableRecord
100
AcDbLayerTableRecord
  2
16_MISC
 70
0
 62
7
  6
CONTINUOUS
370
-3
390
F
  0
LAYER
  5
20A
100
AcDbSymbolTableRecord
100
AcDbLayerTableRecord
  2
17_NO_PRINT
 70
0
 62
7
  6
CONTINUOUS
370
-3
390
F
  0
LAYER
  5
20B
100
AcDbSymbolTableRecord
100
AcDbLayerTableRecord
  2
18_DATUM_CAMS_JOINTS
 70
0
 62
7
  6
CONTINUOUS
370
-3
390
F
  0
LAYER
  5
20C
100
AcDbSymbolTableRecord
100
AcDbLayerTableRecord
  2
19_DATUM_FUNCTIONAL
 70
0
 62
7
  6
CONTINUOUS
370
-3
390
F
  0
LAYER
  5
20D
100
AcDbSymbolTableRecord
100
AcDbLayerTableRecord
  2
20_DATUM_KINEMATIC_SCHEME
 70
0
 62
7
  6
CONTINUOUS
370
-3
390
F
  0
ENDTAB
  0
TABLE
  2
STYLE
  5
3
100
AcDbSymbolTable
 70
1
  0
STYLE
  5
11
100
AcDbSymbolTableRecord
100
AcDbTextStyleTableRecord
  2
STANDARD
 70
0
 40
0.0
 41
1.0
 50
0.0
 71
0
 42
0.2
  3
ARIAL.TTF
  4

  0
STYLE
  5
20E
100
AcDbSymbolTableRecord
100
AcDbTextStyleTableRecord
  2
TEXTSTYLE_1
 70
0
 40
0.0
 41
0.8
 50
0.0
 71
0
 42
0.2
  3
gdt
  4

  0
ENDTAB
  0
TABLE
  2
VIEW
  5
6
100
AcDbSymbolTable
 70
0
  0
ENDTAB
  0
TABLE
  2
UCS
  5
7
100
AcDbSymbolTable
 70
0
  0
ENDTAB
  0
TABLE
  2
APPID
  5
9
100
AcDbSymbolTable
 70
1
  0
APPID
  5
20F
100
AcDbSymbolTableRecord
100
AcDbRegAppTableRecord
  2
ACAD
 70
0
  0
ENDTAB
  0
TABLE
  2
BLOCK_RECORD
  5
1
100
AcDbSymbolTable
 70
0
  0
BLOCK_RECORD
  5
210
100
AcDbSymbolTableRecord
100
AcDbBlockTableRecord
  2
*Model_Space
  0
BLOCK_RECORD
  5
211
100
AcDbSymbolTableRecord
100
AcDbBlockTableRecord
  2
*Paper_Space
  0
BLOCK_RECORD
  5
212
100
AcDbSymbolTableRecord
100
AcDbBlockTableRecord
  2
_FILLED
  0
ENDTAB
  0
TABLE
  2
DIMSTYLE
  5
A
100
AcDbSymbolTable
 70
1
100
AcDbDimStyleTable
 71
0
  0
DIMSTYLE
105
213
100
AcDbSymbolTableRecord
100
AcDbDimStyleTableRecord
  2
STANDARD
 70
0
  3

  4

 40
1.0
 41
0.9109509573
 42
1.0
 43
0.38
 44
1.0
 45
0.0
 46
0.0
 47
0.01
 48
0.01
140
1.2753313403
141
0.09
142
0.0
143
25.4
144
1.0
145
0.0
146
1.0
147
0.625
 71
1
 72
0
 73
0
 74
0
 75
0
 76
0
 77
1
 78
8
 79
2
170
0
171
1
172
0
173
0
174
0
175
0
176
0
177
0
178
0
270
2
179
2
271
2
272
2
273
2
274
2
275
0
280
0
281
0
282
0
283
1
284
8
285
0
286
0
287
3
288
0
340
11
278
46
341
212
342
212
343
212
344
212
  0
ENDTAB
  0
ENDSEC
  0
SECTION
  2
BLOCKS
  0
BLOCK
  5
20
100
AcDbEntity
  8
0
100
AcDbBlockBegin
  2
*Model_Space
 70
0
 10
0.0
 20
0.0
 30
0.0
  3
*Model_Space
  1

  0
ENDBLK
  5
21
100
AcDbEntity
  8
0
100
AcDbBlockEnd
  0
BLOCK
  5
1C
100
AcDbEntity
  8
0
100
AcDbBlockBegin
  2
*Paper_Space
 70
0
 10
0.0
 20
0.0
 30
0.0
  3
*Paper_Space
  1

  0
ENDBLK
  5
1D
100
AcDbEntity
  8
0
100
AcDbBlockEnd
  0
BLOCK
  5
214
100
AcDbEntity
  8
0
100
AcDbBlockBegin
  2
_FILLED
 70
64
 10
0.0
 20
0.0
  3
_FILLED
  1

  0
SOLID
  5
215
100
AcDbEntity
  8
0
  6
BYBLOCK
 62
0
100
AcDbTrace
 10
0.0
 20
0.0
 11
-1.0
 21
0.25
 12
-1.0
 22
-0.25
 13
-1.0
 23
-0.25
  0
ENDBLK
  5
216
100
AcDbEntity
  8
0
  6
BYBLOCK
 62
0
100
AcDbBlockEnd
  0
ENDSEC
  0
SECTION
  2
ENTITIES
  0
LINE
  5
217
100
AcDbEntity
  8
0
100
AcDbLine
 62
7
  6
BYLAYER
 10
8.9197374154
 20
62.3049372808
 11
8.9197374154
 21
55.8049372808
  0
LINE
  5
218
100
AcDbEntity
  8
0
100
AcDbLine
 62
7
  6
BYLAYER
 10
11.2197374154
 20
55.3049372808
 11
11.2197374154
 21
51.5049372808
  0
LINE
  5
219
100
AcDbEntity
  8
0
100
AcDbLine
 62
7
  6
BYLAYER
 10
9.4197374154
 20
55.3049372808
 11
8.9197374154
 21
55.8049372808
  0
LINE
  5
21A
100
AcDbEntity
  8
0
100
AcDbLine
 62
7
  6
BYLAYER
 10
67.9897374154
 20
46.1805864011
 11
69.4397374154
 21
46.1805864011
  0
LINE
  5
21B
100
AcDbEntity
  8
0
100
AcDbLine
 62
7
  6
BYLAYER
 10
67.9897374154
 20
46.2942476402
 11
69.4397374154
 21
46.2942476402
  0
LINE
  5
21C
100
AcDbEntity
  8
0
100
AcDbLine
 62
7
  6
BYLAYER
 10
69.4397374154
 20
46.3732975188
 11
67.9897374154
 21
46.3732975188
  0
LINE
  5
21D
100
AcDbEntity
  8
0
100
AcDbLine
 62
7
  6
BYLAYER
 10
67.9897374154
 20
47.2549372808
 11
51.5197374154
 21
47.2549372808
  0
LINE
  5
21E
100
AcDbEntity
  8
0
100
AcDbLine
 62
7
  6
BYLAYER
 10
69.4397374154
 20
47.2549372808
 11
69.6845763361
 21
47.2549372808
  0
LINE
  5
21F
100
AcDbEntity
  8
0
100
AcDbLine
 62
7
  6
BYLAYER
 10
67.9897374154
 20
48.2549372808
 11
48.2197374154
 21
48.2549372808
  0
LINE
  5
220
100
AcDbEntity
  8
0
100
AcDbLine
 62
7
  6
BYLAYER
 10
69.4397374154
 20
48.2549372808
 11
69.6633187316
 21
48.2549372808
  0
LINE
  5
221
100
AcDbEntity
  8
0
100
AcDbLine
 62
7
  6
BYLAYER
 10
69.6845763361
 20
48.2549372808
 11
69.7197372075
 21
48.2549372808
  0
LINE
  5
222
100
AcDbEntity
  8
0
100
AcDbLine
 62
7
  6
BYLAYER
 10
51.5197374154
 20
51.5049372808
 11
11.2197374154
 21
51.5049372808
  0
LINE
  5
223
100
AcDbEntity
  8
0
100
AcDbLine
 62
7
  6
BYLAYER
 10
69.4397374154
 20
54.2549372808
 11
67.9897374154
 21
54.2549372808
  0
LINE
  5
224
100
AcDbEntity
  8
0
100
AcDbLine
 62
7
  6
BYLAYER
 10
68.6197374154
 20
54.7365360734
 11
69.165372884
 21
54.7365360734
  0
LINE
  5
225
100
AcDbEntity
  8
0
100
AcDbLine
 62
7
  6
BYLAYER
 10
67.9897374154
 20
54.7549372808
 11
68.6197374154
 21
54.7549372808
  0
LINE
  5
226
100
AcDbEntity
  8
0
100
AcDbLine
 62
7
  6
BYLAYER
 10
9.4197374154
 20
55.3049372808
 11
11.2197374154
 21
55.3049372808
  0
LINE
  5
227
100
AcDbEntity
  8
0
100
AcDbLine
 62
7
  6
BYLAYER
 10
69.7196801022
 20
62.3049372808
 11
8.9197374154
 21
62.3049372808
  0
LINE
  5
228
100
AcDbEntity
  8
0
100
AcDbLine
 62
7
  6
BYLAYER
 10
48.2197374154
 20
51.5049372808
 11
48.2197374154
 21
48.2549372808
  0
LINE
  5
229
100
AcDbEntity
  8
0
100
AcDbLine
 62
7
  6
BYLAYER
 10
51.5197374154
 20
47.2549372808
 11
51.5197374154
 21
51.5049372808
  0
LINE
  5
22A
100
AcDbEntity
  8
0
100
AcDbLine
 62
7
  6
BYLAYER
 10
67.9897374154
 20
54.7549372808
 11
67.9897374154
 21
46.1806164032
  0
LINE
  5
22B
100
AcDbEntity
  8
0
100
AcDbLine
 62
7
  6
BYLAYER
 10
68.6197374154
 20
54.7365360734
 11
68.6197374154
 21
62.3049372808
  0
LINE
  5
22C
100
AcDbEntity
  8
0
100
AcDbLine
 62
7
  6
BYLAYER
 10
69.165372884
 20
54.7365360734
 11
69.165372884
 21
62.3049372808
  0
LINE
  5
22D
100
AcDbEntity
  8
0
100
AcDbLine
 62
7
  6
BYLAYER
 10
69.4397374154
 20
46.1806165865
 11
69.4397374154
 21
54.2549373177
  0
LINE
  5
22E
100
AcDbEntity
  8
0
100
AcDbLine
 62
7
  6
BYLAYER
 10
69.6633187316
 20
47.2549372808
 11
69.6633187316
 21
48.2549372808
  0
LINE
  5
22F
100
AcDbEntity
  8
0
100
AcDbLine
 62
7
  6
BYLAYER
 10
69.6845763361
 20
48.2549372808
 11
69.6845763361
 21
47.2549372808
  0
LINE
  5
230
100
AcDbEntity
  8
0
100
AcDbLine
 62
7
  6
BYLAYER
 10
69.7197374154
 20
48.2549372808
 11
69.7197374154
 21
51.949061697
  0
LINE
  5
231
100
AcDbEntity
  8
0
100
AcDbLine
 62
7
  6
BYLAYER
 10
69.7197374154
 20
57.0608128646
 11
69.7197374154
 21
62.3049372808
  0
ARC
  5
232
100
AcDbEntity
  8
0
100
AcDbCircle
 62
7
  6
BYLAYER
 10
66.8105772217
 20
54.2520830215
 40
2.5069876202
100
AcDbArc
 50
0.0100481973
 51
0.4148763058
  0
SPLINE
  5
233
100
AcDbEntity
  8
0
100
AcDbSpline
 62
7
  6
BYLAYER
 70
0
 71
3
 72
9
 73
5
 74
0
 42
0.0000001
 43
0.0000001
 44
0.0000000001
 40
0.0
 40
0.0
 40
0.0
 40
0.0
 40
0.2843132769
 40
1.0
 40
1.0
 40
1.0
 40
1.0
 10
69.4394425474
 20
52.0374334894
 30
0.0
 10
69.4410604976
 20
52.0278793353
 30
0.0
 10
69.4469780506
 20
51.9943171199
 30
0.0
 10
69.453768446
 20
51.9608855903
 30
0.0
 10
69.4596867257
 20
51.9372218639
 30
0.0
  0
SPLINE
  5
234
100
AcDbEntity
  8
0
100
AcDbSpline
 62
7
  6
BYLAYER
 70
0
 71
3
 72
9
 73
5
 74
0
 42
0.0000001
 43
0.0000001
 44
0.0000000001
 40
0.0
 40
0.0
 40
0.0
 40
0.0
 40
0.2902203627
 40
1.0
 40
1.0
 40
1.0
 40
1.0
 10
69.4596867257
 20
51.9372218639
 30
0.0
 10
69.4609347417
 20
51.9322317809
 30
0.0
 10
69.4654240761
 20
51.9150916663
 30
0.0
 10
69.4706269278
 20
51.8980959566
 30
0.0
 10
69.4752776304
 20
51.8864072668
 30
0.0
  0
SPLINE
  5
235
100
AcDbEntity
  8
0
100
AcDbSpline
 62
7
  6
BYLAYER
 70
0
 71
3
 72
10
 73
6
 74
0
 42
0.0000001
 43
0.0000001
 44
0.0000000001
 40
0.0
 40
0.0
 40
0.0
 40
0.0
 40
0.3665075687
 40
0.6485751275
 40
1.0
 40
1.0
 40
1.0
 40
1.0
 10
69.4752776304
 20
51.8864072668
 30
0.0
 10
69.4771383054
 20
51.8817308009
 30
0.0
 10
69.4808176062
 20
51.8734758629
 30
0.0
 10
69.4874873195
 20
51.8619559369
 30
0.0
 10
69.4949958456
 20
51.8549148959
 30
0.0
 10
69.4998217441
 20
51.8549268972
 30
0.0
  0
SPLINE
  5
236
100
AcDbEntity
  8
0
100
AcDbSpline
 62
7
  6
BYLAYER
 70
0
 71
3
 72
12
 73
8
 74
0
 42
0.0000001
 43
0.0000001
 44
0.0000000001
 40
0.0
 40
0.0
 40
0.0
 40
0.0
 40
0.3319345263
 40
0.6289105124
 40
0.8596351353
 40
0.9423270962
 40
1.0
 40
1.0
 40
1.0
 40
1.0
 10
69.7048830379
 20
54.5049372808
 30
0.0
 10
69.7048830379
 20
54.2221317264
 30
0.0
 10
69.7062142433
 20
53.6863041335
 30
0.0
 10
69.7112017382
 20
52.9539174096
 30
0.0
 10
69.7162776467
 20
52.4338919782
 30
0.0
 10
69.7190230378
 20
52.1177392648
 30
0.0
 10
69.7197360813
 20
51.9981504272
 30
0.0
 10
69.7197354141
 20
51.9490135757
 30
0.0
  0
SPLINE
  5
237
100
AcDbEntity
  8
0
100
AcDbSpline
 62
7
  6
BYLAYER
 70
0
 71
3
 72
23
 73
19
 74
0
 42
0.0000001
 43
0.0000001
 44
0.0000000001
 40
0.0
 40
0.0
 40
0.0
 40
0.0
 40
0.0030592398
 40
0.007706281
 40
0.0144572612
 40
0.0234632155
 40
0.0347748977
 40
0.0483921835
 40
0.0642913922
 40
0.0824417005
 40
0.1253475164
 40
0.1766867906
 40
0.2359099119
 40
0.3024202673
 40
0.4545412119
 40
0.626492412
 40
0.8108628757
 40
1.0
 40
1.0
 40
1.0
 40
1.0
 10
69.4998217446
 20
57.1549042742
 30
0.0
 10
69.4968605135
 20
57.1548995812
 30
0.0
 10
69.4897476834
 20
57.1508424921
 30
0.0
 10
69.4820678595
 20
57.13907787
 30
0.0
 10
69.4738798325
 20
57.1210348233
 30
0.0
 10
69.4657252043
 20
57.0961066496
 30
0.0
 10
69.4573816451
 20
57.0643241603
 30
0.0
 10
69.4490018156
 20
57.0256932205
 30
0.0
 10
69.4405890891
 20
56.9803218929
 30
0.0
 10
69.4287301619
 20
56.9067765092
 30
0.0
 10
69.4144855795
 20
56.7988986626
 30
0.0
 10
69.3986086526
 20
56.6511891879
 30
0.0
 10
69.3834372061
 20
56.4804534408
 30
0.0
 10
69.3636124187
 20
56.2122242815
 30
0.0
 10
69.3431520903
 20
55.8346722181
 30
0.0
 10
69.325948061
 20
55.3427959204
 30
0.0
 10
69.3164504962
 20
54.8148707417
 30
0.0
 10
69.3162055723
 20
54.4533092664
 30
0.0
 10
69.3174991197
 20
54.2702358537
 30
0.0
  0
SPLINE
  5
238
100
AcDbEntity
  8
0
100
AcDbSpline
 62
7
  6
BYLAYER
 70
0
 71
3
 72
12
 73
8
 74
0
 42
0.0000001
 43
0.0000001
 44
0.0000000001
 40
0.0
 40
0.0
 40
0.0
 40
0.0
 40
0.0576788264
 40
0.1403558324
 40
0.3710885903
 40
0.6680649433
 40
1.0
 40
1.0
 40
1.0
 40
1.0
 10
69.7197355236
 20
57.0608622366
 30
0.0
 10
69.7197364132
 20
57.011720315
 30
0.0
 10
69.7190228718
 20
56.8921391148
 30
0.0
 10
69.7162776286
 20
56.5759870129
 30
0.0
 10
69.7112021322
 20
56.0559668194
 30
0.0
 10
69.7062141961
 20
55.3235720459
 30
0.0
 10
69.7048830379
 20
54.7877434255
 30
0.0
 10
69.7048830379
 20
54.5049372808
 30
0.0
  0
LINE
  5
239
100
AcDbEntity
  8
0
100
AcDbLine
 62
7
  6
BYLAYER
 10
69.273526066
 20
54.2577892845
 11
69.2725390319
 21
54.2658766023
  0
SPLINE
  5
23A
100
AcDbEntity
  8
0
100
AcDbSpline
 62
7
  6
BYLAYER
 70
0
 71
3
 72
13
 73
9
 74
0
 42
0.0000001
 43
0.0000001
 44
0.0000000001
 40
0.0
 40
0.0
 40
0.0
 40
0.0
 40
0.3542407489
 40
0.6433379732
 40
0.7610745099
 40
0.8598915987
 40
0.9394513134
 40
1.0
 40
1.0
 40
1.0
 40
1.0
 10
69.2725390319
 20
54.2658766023
 30
0.0
 10
69.2655571199
 20
54.322778887
 30
0.0
 10
69.2515051692
 20
54.4259529731
 30
0.0
 10
69.2297235985
 20
54.5472741231
 30
0.0
 10
69.2104332166
 20
54.6268223961
 30
0.0
 10
69.1965528853
 20
54.6727422057
 30
0.0
 10
69.182368544
 20
54.7087363837
 30
0.0
 10
69.1713008004
 20
54.7287335245
 30
0.0
 10
69.165372884
 20
54.7365360734
 30
0.0
  0
SPLINE
  5
23B
100
AcDbEntity
  8
0
100
AcDbSpline
 62
7
  6
BYLAYER
 70
0
 71
3
 72
37
 73
33
 74
0
 42
0.0000001
 43
0.0000001
 44
0.0000000001
 40
0.0
 40
0.0
 40
0.0
 40
0.0
 40
0.0036935441
 40
0.0069725654
 40
0.0113436883
 40
0.0168371946
 40
0.0234592626
 40
0.0312014252
 40
0.0400507767
 40
0.0610085523
 40
0.0861661572
 40
0.1152813805
 40
0.1480928812
 40
0.2235084402
 40
0.3095460895
 40
0.4029077246
 40
0.5000033571
 40
0.5970982446
 40
0.6904589704
 40
0.7764979903
 40
0.8519149445
 40
0.8847228587
 40
0.9138395883
 40
0.9389964867
 40
0.9599548019
 40
0.9688073222
 40
0.9765513709
 40
0.983171707
 40
0.9886622195
 40
0.9930322793
 40
0.9963106473
 40
1.0
 40
1.0
 40
1.0
 40
1.0
 10
69.4998217441
 20
51.8549268972
 30
0.0
 10
69.5063811683
 20
51.8549432095
 30
0.0
 10
69.5155442764
 20
51.867426422
 30
0.0
 10
69.5228885952
 20
51.885064131
 30
0.0
 10
69.5299554154
 20
51.9077402612
 30
0.0
 10
69.5365881036
 20
51.9361268625
 30
0.0
 10
69.5431610163
 20
51.9708329736
 30
0.0
 10
69.549508357
 20
52.0115555025
 30
0.0
 10
69.5582077205
 20
52.0776819226
 30
0.0
 10
69.568134016
 20
52.1748025365
 30
0.0
 10
69.5785889215
 20
52.3080046205
 30
0.0
 10
69.5880844618
 20
52.462373338
 30
0.0
 10
69.5999445591
 20
52.7059987751
 30
0.0
 10
69.6115041724
 20
53.0508212978
 30
0.0
 10
69.6209677042
 20
53.5032603259
 30
0.0
 10
69.6265844903
 20
53.9942678366
 30
0.0
 10
69.6284489912
 20
54.5049390324
 30
0.0
 10
69.6265848631
 20
55.0156086112
 30
0.0
 10
69.6209674055
 20
55.5066156277
 30
0.0
 10
69.6115026104
 20
55.9590578805
 30
0.0
 10
69.5999476351
 20
56.3038791608
 30
0.0
 10
69.5880817353
 20
56.5475030897
 30
0.0
 10
69.5785898839
 20
56.7018670456
 30
0.0
 10
69.5681341508
 20
56.8350715351
 30
0.0
 10
69.5582040414
 20
56.9321970122
 30
0.0
 10
69.5495084936
 20
56.998333961
 30
0.0
 10
69.5431636373
 20
57.0390627829
 30
0.0
 10
69.5365889492
 20
57.0737637802
 30
0.0
 10
69.5299537534
 20
57.1021384844
 30
0.0
 10
69.522885531
 20
57.1248075164
 30
0.0
 10
69.5155553223
 20
57.1424327233
 30
0.0
 10
69.5063737372
 20
57.1549146581
 30
0.0
 10
69.4998217446
 20
57.1549042742
 30
0.0
  0
ENDSEC
  0
SECTION
  2
OBJECTS
  0
DICTIONARY
  5
C
100
AcDbDictionary
280
0
281
1
  3
ACAD_GROUP
350
D
  3
ACAD_MLINESTYLE
350
17
  3
ACAD_LAYOUT
350
1A
  3
ACAD_PLOTSETTINGS
350
19
  3
ACAD_PLOTSTYLENAME
350
E
  0
DICTIONARY
  5
D
102
{ACAD_REACTORS
330
C
102
}
100
AcDbDictionary
280
0
281
1
  0
ACDBDICTIONARYWDFLT
  5
E
102
{ACAD_REACTORS
330
C
102
}
100
AcDbDictionary
281
1
  3
Normal
350
F
100
AcDbDictionaryWithDefault
340
F
  0
DICTIONARY
  5
17
102
{ACAD_REACTORS
330
C
102
}
100
AcDbDictionary
280
0
281
1
  3
Standard
350
18
  0
DICTIONARY
  5
19
102
{ACAD_REACTORS
330
C
102
}
100
AcDbDictionary
281
1
  0
DICTIONARY
  5
1A
102
{ACAD_REACTORS
330
C
102
}
100
AcDbDictionary
281
1
  3
Model
350
23C
  3
Layout1
350
23D
  0
ACDBPLACEHOLDER
  5
F
102
{ACAD_REACTORS
330
E
102
}
  0
MLINESTYLE
  5
18
102
{ACAD_REACTORS
330
17
102
}
100
AcDbMlineStyle
  2
STANDARD
 70
0
  3

 62
256
 51
90.0
 52
90.0
 71
2
 49
0.5
 62
256
  6
BYLAYER
 49
-0.5
 62
256
  6
BYLAYER
  0
LAYOUT
  5
23C
102
{ACAD_REACTORS
330
1A
102
}
100
AcDbPlotSettings
  1

  2
none_device
  4

  6

 40
0.0
 41
0.0
 42
0.0
 43
0.0
 44
210.0
 45
297.0
 46
0.0
 47
0.0
 48
0.0
 49
0.0
140
0.0
141
0.0
142
1.0
143
1.0
 70
1024
 72
1
 73
0
 74
0
  7

 75
0
147
1.0
148
0.0
149
0.0
100
AcDbLayout
  1
Model
 70
0
 71
0
 10
0.0
 20
0.0
 11
210.0
 21
297.0
 12
0.0
 22
0.0
 32
0.0
 14
0.0
 24
0.0
 34
0.0
 15
0.0
 25
0.0
 35
0.0
146
0.0
 13
0.0
 23
0.0
 33
0.0
 16
1.0
 26
0.0
 36
0.0
 17
0.0
 27
1.0
 37
0.0
 76
0
330
210
345
0
346
0
  0
LAYOUT
  5
23D
102
{ACAD_REACTORS
330
1A
102
}
100
AcDbPlotSettings
  1

  2
none_device
  4

  6

 40
0.0
 41
0.0
 42
0.0
 43
0.0
 44
210.0
 45
297.0
 46
0.0
 47
0.0
 48
0.0
 49
0.0
140
0.0
141
0.0
142
1.0
143
1.0
 70
0
 72
1
 73
0
 74
0
  7

 75
0
147
1.0
148
0.0
149
0.0
100
AcDbLayout
  1
Layout1
 70
0
 71
1
 10
0.0
 20
0.0
 11
210.0
 21
297.0
 12
0.0
 22
0.0
 32
0.0
 14
0.0
 24
0.0
 34
0.0
 15
0.0
 25
0.0
 35
0.0
146
0.0
 13
0.0
 23
0.0
 33
0.0
 16
1.0
 26
0.0
 36
0.0
 17
0.0
 27
1.0
 37
0.0
 76
0
330
211
345
0
346
0
  0
ENDSEC
  0
EOF
