999
DXF file: C:\Users\sesa63760\Dev\_Creo\CAD\MCADPE0010291_3D-CAD\drw0001_1.dxf
999
Pro/ENGINEER 2019471 by Parametric Technology Corporation
  0
SECTION
  2
HEADER
  9
$ACADVER
  1
AC1024
  9
$DWGCODEPAGE
  3
ANSI_1252
  9
$EXTMAX
 10
13.9885690969
 20
19.7838334371
 30
0.0
  9
$EXTMIN
 10
0.0
 20
0.0
 30
0.0
  9
$LIMMIN
 10
0.0
 20
0.0
  9
$LIMMAX
 10
13.9885690969
 20
19.7838334371
  9
$VIEWCTR
 10
6.9942845485
 20
9.8919167185
  9
$VIEWSIZE
 40
19.7838334371
  9
$CLAYER
  8
0
  9
$LTSCALE
 40
1.2896128463
  9
$CELTYPE
  6
BYLAYER
  9
$DIMSCALE
 40
1.0
  9
$DIMASZ
 40
0.1665305845
  9
$DIMEXO
 40
1.0
  9
$DIMDLI
 40
0.8910052392
  9
$DIMEXE
 40
1.0
  9
$DIMCEN
 40
0.2110275567
  9
$DIMLFAC
 40
1.0
  9
$DIMBLK
  1
_FILLED
  9
$DIMALT
 70
0
  9
$DIMALTF
 40
0.0393700787
  9
$DIMTXT
 40
0.2331428183
  9
$DIMTOL
 70
1
  9
$DIMLIM
 70
0
  9
$DIMTFAC
 40
1.0
  9
$DIMTP
 40
0.01
  9
$DIMTM
 40
0.01
  9
$DIMGAP
 40
0.625
  9
$DIMDSEP
 70
46
  9
$AUNITS
 70
0
  9
$PDMODE
 70
3
  9
$PDSIZE
 40
0.3125
  9
$HANDSEED
  5
259
  9
$TILEMODE
 70
1
  9
$MEASUREMENT
 70
1
  9
$INSUNITS
 70
4
  0
ENDSEC
  0
SECTION
  2
CLASSES
  0
CLASS
  1
ACDBDICTIONARYWDFLT
  2
AcDbDictionaryWithDefault
  3
AutoCAD 2000
 90
0
 91
1
280
0
281
0
  0
CLASS
  1
ACDBPLACEHOLDER
  2
AcDbPlaceHolder
  3
AutoCAD 2000
 90
0
 91
1
280
0
281
0
  0
CLASS
  1
LAYOUT
  2
AcDbLayout
  3
AutoCAD 2000
 90
0
 91
0
280
0
281
0
  0
ENDSEC
  0
SECTION
  2
TABLES
  0
TABLE
  2
VPORT
  5
8
100
AcDbSymbolTable
 70
2
  0
VPORT
  5
1F4
100
AcDbSymbolTableRecord
100
AcDbViewportTableRecord
  2
*ACTIVE
 70
0
 10
0.0
 20
0.0
 11
1.0
 21
1.0
 12
6.9942845485
 22
9.8919167185
 13
0.0
 23
0.0
 14
1.0
 24
1.0
 15
0.0
 25
0.0
 16
0.0
 26
0.0
 36
1.0
 17
0.0
 27
0.0
 37
0.0
 40
19.7838334371
 41
0.7070707071
 42
50.0
 43
0.0
 44
0.0
 50
0.0
 51
0.0
 71
0
 72
100
 73
1
 74
1
 75
0
 76
0
 77
0
 78
0
  0
ENDTAB
  0
TABLE
  2
LTYPE
  5
5
100
AcDbSymbolTable
 70
6
  0
LTYPE
  5
14
100
AcDbSymbolTableRecord
100
AcDbLinetypeTableRecord
  2
BYBLOCK
 70
0
  3

 72
65
 73
0
 40
0.0
  0
LTYPE
  5
15
100
AcDbSymbolTableRecord
100
AcDbLinetypeTableRecord
  2
BYLAYER
 70
0
  3

 72
65
 73
0
 40
0.0
  0
LTYPE
  5
16
100
AcDbSymbolTableRecord
100
AcDbLinetypeTableRecord
  2
CONTINUOUS
 70
64
  3
Solid line
 72
65
 73
0
 40
0.0
  0
LTYPE
  5
1F5
100
AcDbSymbolTableRecord
100
AcDbLinetypeTableRecord
  2
CENTER
 70
64
  3
____ _ ____ _ ____ _ ____ _ ____ _ ____ _ ____
 72
65
 73
4
 40
0.6
 49
0.375
 74
0
 49
-0.075
 74
0
 49
0.075
 74
0
 49
-0.075
 74
0
  0
LTYPE
  5
1F6
100
AcDbSymbolTableRecord
100
AcDbLinetypeTableRecord
  2
HIDDEN
 70
64
  3
- - - - - - - - - - - - - - - - - - - -
 72
65
 73
2
 40
0.2
 49
0.1
 74
0
 49
-0.1
 74
0
  0
LTYPE
  5
1F7
100
AcDbSymbolTableRecord
100
AcDbLinetypeTableRecord
  2
PHANTOM
 70
64
  3
_____ _ _ _____ _ _ _____ _ _ _____
 72
65
 73
6
 40
0.8
 49
0.45
 74
0
 49
-0.05
 74
0
 49
0.1
 74
0
 49
-0.05
 74
0
 49
0.1
 74
0
 49
-0.05
 74
0
  0
LTYPE
  5
1F8
100
AcDbSymbolTableRecord
100
AcDbLinetypeTableRecord
  2
DOT
 70
64
  3
. . . . . . . . . . . . . . . . . . . .
 72
65
 73
2
 40
0.2
 49
0.1
 74
0
 49
-0.1
 74
0
  0
LTYPE
  5
1F9
100
AcDbSymbolTableRecord
100
AcDbLinetypeTableRecord
  2
DASHED
 70
64
  3
- - - - - - - - - - - - - - - - - - - -
 72
65
 73
2
 40
0.2
 49
0.1
 74
0
 49
-0.1
 74
0
  0
ENDTAB
  0
TABLE
  2
LAYER
  5
2
100
AcDbSymbolTable
 70
36
  0
LAYER
  5
10
100
AcDbSymbolTableRecord
100
AcDbLayerTableRecord
  2
0
 70
0
 62
7
  6
CONTINUOUS
370
-3
390
F
  0
LAYER
  5
1FA
100
AcDbSymbolTableRecord
100
AcDbLayerTableRecord
  2
DEFAULT_1
 70
0
 62
7
  6
CENTER
370
-3
390
F
  0
LAYER
  5
1FB
100
AcDbSymbolTableRecord
100
AcDbLayerTableRecord
  2
DEFAULT_2
 70
0
 62
7
  6
HIDDEN
370
-3
390
F
  0
LAYER
  5
1FC
100
AcDbSymbolTableRecord
100
AcDbLayerTableRecord
  2
DEFAULT_3
 70
0
 62
7
  6
PHANTOM
370
-3
390
F
  0
LAYER
  5
1FD
100
AcDbSymbolTableRecord
100
AcDbLayerTableRecord
  2
00_COMPONENTS
 70
0
 62
7
  6
CONTINUOUS
370
-3
390
F
  0
LAYER
  5
1FE
100
AcDbSymbolTableRecord
100
AcDbLayerTableRecord
  2
01_1_DEFAULT_DATUMS
 70
0
 62
7
  6
CONTINUOUS
370
-3
390
F
  0
LAYER
  5
1FF
100
AcDbSymbolTableRecord
100
AcDbLayerTableRecord
  2
01_PLANES
 70
0
 62
7
  6
CONTINUOUS
370
-3
390
F
  0
LAYER
  5
200
100
AcDbSymbolTableRecord
100
AcDbLayerTableRecord
  2
02_COORD_SYS
 70
0
 62
7
  6
CONTINUOUS
370
-3
390
F
  0
LAYER
  5
201
100
AcDbSymbolTableRecord
100
AcDbLayerTableRecord
  2
03_AXES
 70
0
 62
7
  6
CONTINUOUS
370
-3
390
F
  0
LAYER
  5
202
100
AcDbSymbolTableRecord
100
AcDbLayerTableRecord
  2
04_POINTS
 70
0
 62
7
  6
CONTINUOUS
370
-3
390
F
  0
LAYER
  5
203
100
AcDbSymbolTableRecord
100
AcDbLayerTableRecord
  2
05_CURVES
 70
0
 62
7
  6
CONTINUOUS
370
-3
390
F
  0
LAYER
  5
204
100
AcDbSymbolTableRecord
100
AcDbLayerTableRecord
  2
06_SURFS
 70
0
 62
7
  6
CONTINUOUS
370
-3
390
F
  0
LAYER
  5
205
100
AcDbSymbolTableRecord
100
AcDbLayerTableRecord
  2
07_COSMETICS
 70
0
 62
7
  6
CONTINUOUS
370
-3
390
F
  0
LAYER
  5
206
100
AcDbSymbolTableRecord
100
AcDbLayerTableRecord
  2
10_NOTES
 70
0
 62
7
  6
CONTINUOUS
370
-3
390
F
  0
LAYER
  5
207
100
AcDbSymbolTableRecord
100
AcDbLayerTableRecord
  2
11_NOTES_PUB
 70
0
 62
7
  6
CONTINUOUS
370
-3
390
F
  0
LAYER
  5
208
100
AcDbSymbolTableRecord
100
AcDbLayerTableRecord
  2
13_REF_GTOL
 70
0
 62
7
  6
CONTINUOUS
370
-3
390
F
  0
LAYER
  5
209
100
AcDbSymbolTableRecord
100
AcDbLayerTableRecord
  2
16_MISC
 70
0
 62
7
  6
CONTINUOUS
370
-3
390
F
  0
LAYER
  5
20A
100
AcDbSymbolTableRecord
100
AcDbLayerTableRecord
  2
17_NO_PRINT
 70
0
 62
7
  6
CONTINUOUS
370
-3
390
F
  0
LAYER
  5
20B
100
AcDbSymbolTableRecord
100
AcDbLayerTableRecord
  2
18_DATUM_CAMS_JOINTS
 70
0
 62
7
  6
CONTINUOUS
370
-3
390
F
  0
LAYER
  5
20C
100
AcDbSymbolTableRecord
100
AcDbLayerTableRecord
  2
19_DATUM_FUNCTIONAL
 70
0
 62
7
  6
CONTINUOUS
370
-3
390
F
  0
LAYER
  5
20D
100
AcDbSymbolTableRecord
100
AcDbLayerTableRecord
  2
20_DATUM_KINEMATIC_SCHEME
 70
0
 62
7
  6
CONTINUOUS
370
-3
390
F
  0
ENDTAB
  0
TABLE
  2
STYLE
  5
3
100
AcDbSymbolTable
 70
1
  0
STYLE
  5
11
100
AcDbSymbolTableRecord
100
AcDbTextStyleTableRecord
  2
STANDARD
 70
0
 40
0.0
 41
1.0
 50
0.0
 71
0
 42
0.2
  3
ARIAL.TTF
  4

  0
STYLE
  5
20E
100
AcDbSymbolTableRecord
100
AcDbTextStyleTableRecord
  2
TEXTSTYLE_1
 70
0
 40
0.0
 41
0.8
 50
0.0
 71
0
 42
0.2
  3
gdt
  4

  0
ENDTAB
  0
TABLE
  2
VIEW
  5
6
100
AcDbSymbolTable
 70
0
  0
ENDTAB
  0
TABLE
  2
UCS
  5
7
100
AcDbSymbolTable
 70
0
  0
ENDTAB
  0
TABLE
  2
APPID
  5
9
100
AcDbSymbolTable
 70
1
  0
APPID
  5
20F
100
AcDbSymbolTableRecord
100
AcDbRegAppTableRecord
  2
ACAD
 70
0
  0
ENDTAB
  0
TABLE
  2
BLOCK_RECORD
  5
1
100
AcDbSymbolTable
 70
0
  0
BLOCK_RECORD
  5
210
100
AcDbSymbolTableRecord
100
AcDbBlockTableRecord
  2
*Model_Space
  0
BLOCK_RECORD
  5
211
100
AcDbSymbolTableRecord
100
AcDbBlockTableRecord
  2
*Paper_Space
  0
BLOCK_RECORD
  5
212
100
AcDbSymbolTableRecord
100
AcDbBlockTableRecord
  2
_FILLED
  0
ENDTAB
  0
TABLE
  2
DIMSTYLE
  5
A
100
AcDbSymbolTable
 70
1
100
AcDbDimStyleTable
 71
0
  0
DIMSTYLE
105
213
100
AcDbSymbolTableRecord
100
AcDbDimStyleTableRecord
  2
STANDARD
 70
0
  3

  4

 40
1.0
 41
0.1665305845
 42
1.0
 43
0.38
 44
1.0
 45
0.0
 46
0.0
 47
0.01
 48
0.01
140
0.2331428183
141
0.09
142
0.0
143
25.4
144
1.0
145
0.0
146
1.0
147
0.625
 71
1
 72
0
 73
0
 74
0
 75
0
 76
0
 77
1
 78
8
 79
2
170
0
171
1
172
0
173
0
174
0
175
0
176
0
177
0
178
0
270
2
179
2
271
2
272
2
273
2
274
2
275
0
280
0
281
0
282
0
283
1
284
8
285
0
286
0
287
3
288
0
340
11
278
46
341
212
342
212
343
212
344
212
  0
ENDTAB
  0
ENDSEC
  0
SECTION
  2
BLOCKS
  0
BLOCK
  5
20
100
AcDbEntity
  8
0
100
AcDbBlockBegin
  2
*Model_Space
 70
0
 10
0.0
 20
0.0
 30
0.0
  3
*Model_Space
  1

  0
ENDBLK
  5
21
100
AcDbEntity
  8
0
100
AcDbBlockEnd
  0
BLOCK
  5
1C
100
AcDbEntity
  8
0
100
AcDbBlockBegin
  2
*Paper_Space
 70
0
 10
0.0
 20
0.0
 30
0.0
  3
*Paper_Space
  1

  0
ENDBLK
  5
1D
100
AcDbEntity
  8
0
100
AcDbBlockEnd
  0
BLOCK
  5
214
100
AcDbEntity
  8
0
100
AcDbBlockBegin
  2
_FILLED
 70
64
 10
0.0
 20
0.0
  3
_FILLED
  1

  0
SOLID
  5
215
100
AcDbEntity
  8
0
  6
BYBLOCK
 62
0
100
AcDbTrace
 10
0.0
 20
0.0
 11
-1.0
 21
0.25
 12
-1.0
 22
-0.25
 13
-1.0
 23
-0.25
  0
ENDBLK
  5
216
100
AcDbEntity
  8
0
  6
BYBLOCK
 62
0
100
AcDbBlockEnd
  0
ENDSEC
  0
SECTION
  2
ENTITIES
  0
LINE
  5
217
100
AcDbEntity
  8
0
100
AcDbLine
 62
7
  6
BYLAYER
 10
1.6228349576
 20
11.5789479492
 11
1.6228349576
 21
12.1504996412
  0
LINE
  5
218
100
AcDbEntity
  8
0
100
AcDbLine
 62
7
  6
BYLAYER
 10
5.1997765363
 20
14.2832775989
 11
1.6642573503
 21
12.2420568296
  0
LINE
  5
219
100
AcDbEntity
  8
0
100
AcDbLine
 62
7
  6
BYLAYER
 10
5.2997760887
 20
14.2733727431
 11
1.7642569026
 21
12.2321519738
  0
LINE
  5
21A
100
AcDbEntity
  8
0
100
AcDbLine
 62
7
  6
BYLAYER
 10
3.337576041
 20
7.894506143
 11
3.5633559723
 21
7.7641549879
  0
LINE
  5
21B
100
AcDbEntity
  8
0
100
AcDbLine
 62
7
  6
BYLAYER
 10
7.1069660569
 20
5.7182970351
 11
7.3327459881
 21
5.58794588
  0
LINE
  5
21C
100
AcDbEntity
  8
0
100
AcDbLine
 62
7
  6
BYLAYER
 10
3.6080677297
 20
8.7363964562
 11
3.9161227284
 21
9.8860813483
  0
LINE
  5
21D
100
AcDbEntity
  8
0
100
AcDbLine
 62
7
  6
BYLAYER
 10
3.337576041
 20
8.7110085601
 11
3.403163066
 21
8.6731427303
  0
LINE
  5
21E
100
AcDbEntity
  8
0
100
AcDbLine
 62
7
  6
BYLAYER
 10
7.2671589631
 20
6.442314127
 11
7.3327459881
 21
6.4044482971
  0
LINE
  5
21F
100
AcDbEntity
  8
0
100
AcDbLine
 62
7
  6
BYLAYER
 10
4.4481757511
 20
9.663437892
 11
3.9731652996
 21
7.8906624397
  0
LINE
  5
220
100
AcDbEntity
  8
0
100
AcDbLine
 62
7
  6
BYLAYER
 10
1.7642569026
 20
11.3339993149
 11
3.7795196193
 21
10.1705131645
  0
LINE
  5
221
100
AcDbEntity
  8
0
100
AcDbLine
 62
7
  6
BYLAYER
 10
4.5847788602
 20
9.7056070426
 11
6.085543169
 21
8.8391599666
  0
LINE
  5
222
100
AcDbEntity
  8
0
100
AcDbLine
 62
7
  6
BYLAYER
 10
6.8908024099
 20
8.3742538446
 11
8.9060651266
 21
7.2107676943
  0
LINE
  5
223
100
AcDbEntity
  8
0
100
AcDbLine
 62
7
  6
BYLAYER
 10
4.5413532333
 20
9.7172336153
 11
4.4481757511
 21
9.663437892
  0
LINE
  5
224
100
AcDbEntity
  8
0
100
AcDbLine
 62
7
  6
BYLAYER
 10
3.7031243047
 20
9.0911548878
 11
3.0875771603
 21
8.7357706996
  0
LINE
  5
225
100
AcDbEntity
  8
0
100
AcDbLine
 62
7
  6
BYLAYER
 10
6.6971567295
 20
6.3180008327
 11
6.2221462781
 21
8.6392587007
  0
LINE
  5
226
100
AcDbEntity
  8
0
100
AcDbLine
 62
7
  6
BYLAYER
 10
3.6495228225
 20
8.8911100433
 11
3.337576041
 21
8.7110085601
  0
LINE
  5
227
100
AcDbEntity
  8
0
100
AcDbLine
 62
7
  6
BYLAYER
 10
3.403163066
 20
8.6731427303
 11
3.6255168718
 21
8.8015179936
  0
LINE
  5
228
100
AcDbEntity
  8
0
100
AcDbLine
 62
7
  6
BYLAYER
 10
8.9060651266
 20
8.1089203531
 11
1.7642569026
 21
12.2321519738
  0
LINE
  5
229
100
AcDbEntity
  8
0
100
AcDbLine
 62
7
  6
BYLAYER
 10
6.7541993008
 20
8.2475541436
 11
7.0622542995
 21
6.7421660258
  0
LINE
  5
22A
100
AcDbEntity
  8
0
100
AcDbLine
 62
7
  6
BYLAYER
 10
3.9731652996
 20
7.8906624397
 11
5.8507801364
 21
8.9746974004
  0
LINE
  5
22B
100
AcDbEntity
  8
0
100
AcDbLine
 62
7
  6
BYLAYER
 10
5.9311685155
 20
8.928286198
 11
3.8633546292
 21
7.7344404205
  0
LINE
  5
22C
100
AcDbEntity
  8
0
100
AcDbLine
 62
7
  6
BYLAYER
 10
6.932227015
 20
8.3503378788
 11
6.7541993008
 21
8.2475541437
  0
LINE
  5
22D
100
AcDbEntity
  8
0
100
AcDbLine
 62
7
  6
BYLAYER
 10
9.0474870716
 20
7.8639717188
 11
9.0474870716
 21
7.2924200268
  0
LINE
  5
22E
100
AcDbEntity
  8
0
100
AcDbLine
 62
7
  6
BYLAYER
 10
8.9060651266
 20
8.1089203531
 11
12.4415843126
 21
10.1501411225
  0
LINE
  5
22F
100
AcDbEntity
  8
0
100
AcDbLine
 62
7
  6
BYLAYER
 10
7.0622542995
 20
6.7421660258
 11
8.3899787873
 21
7.5087235405
  0
LINE
  5
230
100
AcDbEntity
  8
0
100
AcDbLine
 62
7
  6
BYLAYER
 10
12.5830062577
 20
9.9051924881
 11
9.0474870716
 21
7.8639717188
  0
LINE
  5
231
100
AcDbEntity
  8
0
100
AcDbLine
 62
7
  6
BYLAYER
 10
8.7521150463
 20
7.2996488038
 11
7.2671589631
 21
6.442314127
  0
LINE
  5
232
100
AcDbEntity
  8
0
100
AcDbLine
 62
7
  6
BYLAYER
 10
7.3327459881
 20
6.4044482971
 11
8.8177020713
 21
7.2617829739
  0
LINE
  5
233
100
AcDbEntity
  8
0
100
AcDbLine
 62
7
  6
BYLAYER
 10
9.0474870716
 20
7.2924200268
 11
12.5830062577
 21
9.3336407961
  0
LINE
  5
234
100
AcDbEntity
  8
0
100
AcDbLine
 62
7
  6
BYLAYER
 10
12.5415838649
 20
9.2420836078
 11
9.0060646789
 21
7.2008628385
  0
LINE
  5
235
100
AcDbEntity
  8
0
100
AcDbLine
 62
7
  6
BYLAYER
 10
12.4415843126
 20
10.1501411225
 11
5.2997760887
 21
14.2733727431
  0
LINE
  5
236
100
AcDbEntity
  8
0
100
AcDbLine
 62
7
  6
BYLAYER
 10
11.118264055
 20
7.6044045098
 11
7.5827448689
 21
5.5631837405
  0
LINE
  5
237
100
AcDbEntity
  8
0
100
AcDbLine
 62
7
  6
BYLAYER
 10
12.5830062577
 20
9.9051924881
 11
12.5830062577
 21
9.3336407961
  0
SPLINE
  5
238
100
AcDbEntity
  8
0
100
AcDbSpline
 62
7
  6
BYLAYER
 70
0
 71
3
 72
15
 73
11
 74
0
 42
0.0000001
 43
0.0000001
 44
0.0000000001
 40
0.0
 40
0.0
 40
0.0
 40
0.0
 40
0.1080115942
 40
0.2180661562
 40
0.332002388
 40
0.4513387659
 40
0.5772455935
 40
0.7105262128
 40
0.8515201999
 40
1.0
 40
1.0
 40
1.0
 40
1.0
 10
7.5827430312
 20
5.5631869235
 30
0.0
 10
7.5745456209
 20
5.5584541743
 30
0.0
 10
7.5571424459
 20
5.5502988476
 30
0.0
 10
7.5289777584
 20
5.5425203699
 30
0.0
 10
7.4989593821
 20
5.5391670188
 30
0.0
 10
7.4674012848
 20
5.5402621092
 30
0.0
 10
7.4346023603
 20
5.5457627048
 30
0.0
 10
7.4008651212
 20
5.5556003878
 30
0.0
 10
7.3665271619
 20
5.5696627846
 30
0.0
 10
7.3440147315
 20
5.5814400151
 30
0.0
 10
7.3327459881
 20
5.58794588
 30
0.0
  0
SPLINE
  5
239
100
AcDbEntity
  8
0
100
AcDbSpline
 62
7
  6
BYLAYER
 70
0
 71
3
 72
15
 73
11
 74
0
 42
0.0000001
 43
0.0000001
 44
0.0000000001
 40
0.0
 40
0.0
 40
0.0
 40
0.0
 40
0.1080110861
 40
0.2180652169
 40
0.3320011628
 40
0.4513374338
 40
0.5772443465
 40
0.7105252324
 40
0.8515196519
 40
1.0
 40
1.0
 40
1.0
 40
1.0
 10
11.1182622173
 20
7.6044076928
 30
0.0
 10
11.1264598087
 20
7.6091405465
 30
0.0
 10
11.1422245105
 20
7.6201346731
 30
0.0
 10
11.163043692
 20
7.6406372528
 30
0.0
 10
11.1809573227
 20
7.6649579123
 30
0.0
 10
11.1957882248
 20
7.6928363801
 30
0.0
 10
11.2074241233
 20
7.7239923216
 30
0.0
 10
11.2157730149
 20
7.7581295215
 30
0.0
 10
11.2207634145
 20
7.794899405
 30
0.0
 10
11.2218200368
 20
7.8202851335
 30
0.0
 10
11.2218200368
 20
7.8332974806
 30
0.0
  0
SPLINE
  5
23A
100
AcDbEntity
  8
0
100
AcDbSpline
 62
7
  6
BYLAYER
 70
0
 71
3
 72
15
 73
11
 74
0
 42
0.0000001
 43
0.0000001
 44
0.0000000001
 40
0.0
 40
0.0
 40
0.0
 40
0.0
 40
0.1080209189
 40
0.2180712128
 40
0.3319844074
 40
0.4513169317
 40
0.5772480288
 40
0.7105990134
 40
0.8515981333
 40
1.0
 40
1.0
 40
1.0
 40
1.0
 10
9.0060641799
 20
7.2008637027
 30
0.0
 10
9.0027849595
 20
7.1989704567
 30
0.0
 10
8.9958211192
 20
7.1957137208
 30
0.0
 10
8.9845578676
 20
7.1925975604
 30
0.0
 10
8.9725514065
 20
7.1912548465
 30
0.0
 10
8.9599286204
 20
7.1916953614
 30
0.0
 10
8.9468054541
 20
7.1938932198
 30
0.0
 10
8.9333087481
 20
7.1978345967
 30
0.0
 10
8.9195733948
 20
7.2034579164
 30
0.0
 10
8.9105702202
 20
7.2081667361
 30
0.0
 10
8.9060651266
 20
7.2107676943
 30
0.0
  0
SPLINE
  5
23B
100
AcDbEntity
  8
0
100
AcDbSpline
 62
7
  6
BYLAYER
 70
0
 71
3
 72
15
 73
11
 74
0
 42
0.0000001
 43
0.0000001
 44
0.0000000001
 40
0.0
 40
0.0
 40
0.0
 40
0.0
 40
0.1080204103
 40
0.218070277
 40
0.3319831848
 40
0.4513156001
 40
0.5772467789
 40
0.7105980299
 40
0.8515975849
 40
1.0
 40
1.0
 40
1.0
 40
1.0
 10
12.541583366
 20
9.2420844721
 30
0.0
 10
12.5448626579
 20
9.2439777614
 30
0.0
 10
12.5511651519
 20
9.248380336
 30
0.0
 10
12.5594956418
 20
9.2565767125
 30
0.0
 10
12.5666618403
 20
9.2663035181
 30
0.0
 10
12.5725918269
 20
9.2774557529
 30
0.0
 10
12.5772500461
 20
9.2899200539
 30
0.0
 10
12.5805850486
 20
9.3035796536
 30
0.0
 10
12.5825827126
 20
9.3182869344
 30
0.0
 10
12.5830062577
 20
9.3284386329
 30
0.0
 10
12.5830062577
 20
9.3336407962
 30
0.0
  0
SPLINE
  5
23C
100
AcDbEntity
  8
0
100
AcDbSpline
 62
7
  6
BYLAYER
 70
0
 71
3
 72
16
 73
12
 74
0
 42
0.0000001
 43
0.0000001
 44
0.0000000001
 40
0.0
 40
0.0
 40
0.0
 40
0.0
 40
0.0546073594
 40
0.1112376791
 40
0.2297627014
 40
0.3541155233
 40
0.4826924076
 40
0.6135791568
 40
0.744763653
 40
0.874225574
 40
1.0
 40
1.0
 40
1.0
 40
1.0
 10
11.2218200368
 20
7.8332974806
 30
0.0
 10
11.2218200368
 20
7.8438634806
 30
0.0
 10
11.2210920441
 20
7.8653923842
 30
0.0
 10
11.2168811699
 20
7.9096708254
 30
0.0
 10
11.2063857116
 20
7.9667934894
 30
0.0
 10
11.1862366128
 20
8.0358974435
 30
0.0
 10
11.1588144745
 20
8.1050266496
 30
0.0
 10
11.1247470596
 20
8.1726093883
 30
0.0
 10
11.0848089856
 20
8.2371017313
 30
0.0
 10
11.0399183941
 20
8.297013056
 30
0.0
 10
11.0067328721
 20
8.333708981
 30
0.0
 10
10.9895153033
 20
8.3509079124
 30
0.0
  0
SPLINE
  5
23D
100
AcDbEntity
  8
0
100
AcDbSpline
 62
7
  6
BYLAYER
 70
0
 71
3
 72
17
 73
13
 74
0
 42
0.0000001
 43
0.0000001
 44
0.0000000001
 40
0.0
 40
0.0
 40
0.0
 40
0.0
 40
0.0557918996
 40
0.1141899123
 40
0.2373931225
 40
0.3669963053
 40
0.500001012
 40
0.6330055773
 40
0.7626083455
 40
0.8858109284
 40
0.944208547
 40
1.0
 40
1.0
 40
1.0
 40
1.0
 10
12.5830062577
 20
9.9051924881
 30
0.0
 10
12.5830062577
 20
9.9106570785
 30
0.0
 10
12.5825165498
 20
9.921845745
 30
0.0
 10
12.5797214151
 20
9.9449464427
 30
0.0
 10
12.5727957362
 20
9.9747344363
 30
0.0
 10
12.5597163611
 20
10.0102770789
 30
0.0
 10
12.5422190623
 20
10.044943752
 30
0.0
 10
12.520945364
 20
10.0774300616
 30
0.0
 10
12.4967041443
 20
10.1065282411
 30
0.0
 10
12.4743697932
 20
10.1274198151
 30
0.0
 10
12.4557615757
 20
10.1413905911
 30
0.0
 10
12.4463167756
 20
10.1474088955
 30
0.0
 10
12.4415843126
 20
10.1501411225
 30
0.0
  0
SPLINE
  5
23E
100
AcDbEntity
  8
0
100
AcDbSpline
 62
7
  6
BYLAYER
 70
0
 71
3
 72
15
 73
11
 74
0
 42
0.0000001
 43
0.0000001
 44
0.0000000001
 40
0.0
 40
0.0
 40
0.0
 40
0.0
 40
0.1484018859
 40
0.289400985
 40
0.4227519167
 40
0.5486829943
 40
0.6680155254
 40
0.7819287401
 40
0.8919790589
 40
1.0
 40
1.0
 40
1.0
 40
1.0
 10
5.2997760887
 20
14.2733727431
 30
0.0
 10
5.2952709944
 20
14.2759737017
 30
0.0
 10
5.2862678202
 20
14.280682522
 30
0.0
 10
5.2725324692
 20
14.2863058427
 30
0.0
 10
5.2590357655
 20
14.2902472162
 30
0.0
 10
5.2459126018
 20
14.2924450752
 30
0.0
 10
5.2332898152
 20
14.2928855923
 30
0.0
 10
5.2212833525
 20
14.2915428767
 30
0.0
 10
5.2100200977
 20
14.2884267196
 30
0.0
 10
5.2030562555
 20
14.2851699826
 30
0.0
 10
5.1997770353
 20
14.2832767347
 30
0.0
  0
SPLINE
  5
23F
100
AcDbEntity
  8
0
100
AcDbSpline
 62
7
  6
BYLAYER
 70
0
 71
3
 72
11
 73
7
 74
0
 42
0.0000001
 43
0.0000001
 44
0.0000000001
 40
0.0
 40
0.0
 40
0.0
 40
0.0
 40
0.2324407897
 40
0.472645531
 40
0.727207235
 40
1.0
 40
1.0
 40
1.0
 40
1.0
 10
3.5531617487
 20
8.6582865649
 30
0.0
 10
3.5597296025
 20
8.6620763003
 30
0.0
 10
3.5722349113
 20
8.6713594768
 30
0.0
 10
3.587817542
 20
8.6894742036
 30
0.0
 10
3.6000828585
 20
8.7114704817
 30
0.0
 10
3.6057644679
 20
8.7278005064
 30
0.0
 10
3.6080677297
 20
8.7363964562
 30
0.0
  0
SPLINE
  5
240
100
AcDbEntity
  8
0
100
AcDbSpline
 62
7
  6
BYLAYER
 70
0
 71
3
 72
15
 73
11
 74
0
 42
0.0000001
 43
0.0000001
 44
0.0000000001
 40
0.0
 40
0.0
 40
0.0
 40
0.0
 40
0.1080161594
 40
0.2180714549
 40
0.3320108215
 40
0.4513494473
 40
0.5772539642
 40
0.7105221262
 40
0.8515105388
 40
1.0
 40
1.0
 40
1.0
 40
1.0
 10
3.8633517792
 20
7.7344453677
 30
0.0
 10
3.853514072
 20
7.7287665108
 30
0.0
 10
3.8326301629
 20
7.7189798292
 30
0.0
 10
3.7988328273
 20
7.7096400115
 30
0.0
 10
3.7628093052
 20
7.70562178
 30
0.0
 10
3.7249394257
 20
7.7069342901
 30
0.0
 10
3.6855822312
 20
7.7135366789
 30
0.0
 10
3.6450990435
 20
7.7253390298
 30
0.0
 10
3.603894306
 20
7.7422139598
 30
0.0
 10
3.5768793496
 20
7.756347439
 30
0.0
 10
3.5633559723
 20
7.7641549879
 30
0.0
  0
SPLINE
  5
241
100
AcDbEntity
  8
0
100
AcDbSpline
 62
7
  6
BYLAYER
 70
0
 71
3
 72
15
 73
11
 74
0
 42
0.0000001
 43
0.0000001
 44
0.0000000001
 40
0.0
 40
0.0
 40
0.0
 40
0.0
 40
0.1232017168
 40
0.2514835757
 40
0.3824353209
 40
0.5138627364
 40
0.6434304786
 40
0.7688953094
 40
0.888364898
 40
1.0
 40
1.0
 40
1.0
 40
1.0
 10
6.2221462781
 20
8.6392587007
 30
0.0
 10
6.2201003263
 20
8.6492567581
 30
0.0
 10
6.2147357281
 20
8.6694348619
 30
0.0
 10
6.2035165352
 20
8.6991112233
 30
0.0
 10
6.1891890754
 20
8.7281819064
 30
0.0
 10
6.1721423742
 20
8.7558687541
 30
0.0
 10
6.1528323822
 20
8.781462557
 30
0.0
 10
6.1317450024
 20
8.8042917579
 30
0.0
 10
6.1094392957
 20
8.8237404958
 30
0.0
 10
6.0935514744
 20
8.8345364739
 30
0.0
 10
6.085543169
 20
8.8391599666
 30
0.0
  0
SPLINE
  5
242
100
AcDbEntity
  8
0
100
AcDbSpline
 62
7
  6
BYLAYER
 70
0
 71
3
 72
17
 73
13
 74
0
 42
0.0000001
 43
0.0000001
 44
0.0000000001
 40
0.0
 40
0.0
 40
0.0
 40
0.0
 40
0.0547816354
 40
0.1117178963
 40
0.2311333265
 40
0.3565831385
 40
0.486144811
 40
0.6175704533
 40
0.7485064236
 40
0.8767267473
 40
0.9391431438
 40
1.0
 40
1.0
 40
1.0
 40
1.0
 10
7.1069660569
 20
5.7182970351
 30
0.0
 10
7.0951752811
 20
5.7251042887
 30
0.0
 10
7.0716268401
 20
5.7398629854
 30
0.0
 10
7.0250139863
 20
5.7734864945
 30
0.0
 10
6.9683535437
 20
5.8229154427
 30
0.0
 10
6.9051077084
 20
5.8913871601
 30
0.0
 10
6.8471548264
 20
5.968161557
 30
0.0
 10
6.7960305487
 20
6.0512394301
 30
0.0
 10
6.7530549311
 20
6.1384339283
 30
0.0
 10
6.7247250821
 20
6.2133203061
 30
0.0
 10
6.7071984945
 20
6.2733395651
 30
0.0
 10
6.7001889145
 20
6.3031832996
 30
0.0
 10
6.6971567295
 20
6.3180008327
 30
0.0
  0
SPLINE
  5
243
100
AcDbEntity
  8
0
100
AcDbSpline
 62
7
  6
BYLAYER
 70
0
 71
3
 72
15
 73
11
 74
0
 42
0.0000001
 43
0.0000001
 44
0.0000000001
 40
0.0
 40
0.0
 40
0.0
 40
0.0
 40
0.1484022636
 40
0.2894015068
 40
0.4227524787
 40
0.548683408
 40
0.6680163379
 40
0.7819332229
 40
0.8919878623
 40
1.0
 40
1.0
 40
1.0
 40
1.0
 10
4.5847788602
 20
9.7056070426
 30
0.0
 10
4.5802737669
 20
9.7082080006
 30
0.0
 10
4.5712705705
 20
9.7129167644
 30
0.0
 10
4.5575352021
 20
9.7185399753
 30
0.0
 10
4.5440385886
 20
9.7224814783
 30
0.0
 10
4.5309155275
 20
9.7246797497
 30
0.0
 10
4.5182925889
 20
9.7251203099
 30
0.0
 10
4.5062859617
 20
9.7237763088
 30
0.0
 10
4.4950231001
 20
9.7206592031
 30
0.0
 10
4.4880591568
 20
9.717403419
 30
0.0
 10
4.4847797384
 20
9.7155111528
 30
0.0
  0
SPLINE
  5
244
100
AcDbEntity
  8
0
100
AcDbSpline
 62
7
  6
BYLAYER
 70
0
 71
3
 72
21
 73
17
 74
0
 42
0.0000001
 43
0.0000001
 44
0.0000000001
 40
0.0
 40
0.0
 40
0.0
 40
0.0
 40
0.0558030823
 40
0.1141834629
 40
0.1748163604
 40
0.2373882217
 40
0.3015811524
 40
0.3670320957
 40
0.4999989204
 40
0.6329658955
 40
0.6984170238
 40
0.7626102082
 40
0.8251823867
 40
0.8858156581
 40
0.9441964604
 40
1.0
 40
1.0
 40
1.0
 40
1.0
 10
3.337576041
 20
7.894506143
 30
0.0
 10
3.3257393836
 20
7.9013398858
 30
0.0
 10
3.3021217177
 20
7.9163859356
 30
0.0
 10
3.2678501689
 20
7.9421130178
 30
0.0
 10
3.234246535
 20
7.9713026436
 30
0.0
 10
3.2016452138
 20
8.003655723
 30
0.0
 10
3.1703492299
 20
8.0388673177
 30
0.0
 10
3.1305542568
 20
8.0894400032
 30
0.0
 10
3.0859917066
 20
8.1575009794
 30
0.0
 10
3.049330083
 20
8.2301236336
 30
0.0
 10
3.0254299763
 20
8.2898734439
 30
0.0
 10
3.0105835248
 20
8.3345824509
 30
0.0
 10
2.9988652648
 20
8.3789927142
 30
0.0
 10
2.9903877715
 20
8.4226893362
 30
0.0
 10
2.9852428688
 20
8.4652331727
 30
0.0
 10
2.9840211785
 20
8.4932098994
 30
0.0
 10
2.9840211785
 20
8.5068777288
 30
0.0
  0
SPLINE
  5
245
100
AcDbEntity
  8
0
100
AcDbSpline
 62
7
  6
BYLAYER
 70
0
 71
3
 72
15
 73
11
 74
0
 42
0.0000001
 43
0.0000001
 44
0.0000000001
 40
0.0
 40
0.0
 40
0.0
 40
0.0
 40
0.1484803481
 40
0.2894747676
 40
0.4227556535
 40
0.5486625662
 40
0.6679988372
 40
0.7819347831
 40
0.8919889139
 40
1.0
 40
1.0
 40
1.0
 40
1.0
 10
2.9840211785
 20
8.5068777288
 30
0.0
 10
2.9840211785
 20
8.519890076
 30
0.0
 10
2.9850778007
 20
8.5452758045
 30
0.0
 10
2.9900682003
 20
8.582045688
 30
0.0
 10
2.998417092
 20
8.6161828878
 30
0.0
 10
3.0100529904
 20
8.6473388294
 30
0.0
 10
3.0248838925
 20
8.6752172972
 30
0.0
 10
3.0427975232
 20
8.6995379566
 30
0.0
 10
3.0636167048
 20
8.7200405363
 30
0.0
 10
3.0793814065
 20
8.731034663
 30
0.0
 10
3.0875789979
 20
8.7357675167
 30
0.0
  0
SPLINE
  5
246
100
AcDbEntity
  8
0
100
AcDbSpline
 62
7
  6
BYLAYER
 70
0
 71
3
 72
9
 73
5
 74
0
 42
0.0000001
 43
0.0000001
 44
0.0000000001
 40
0.0
 40
0.0
 40
0.0
 40
0.0
 40
0.2366982813
 40
1.0
 40
1.0
 40
1.0
 40
1.0
 10
3.9161227284
 20
9.8860813483
 30
0.0
 10
3.9169363223
 20
9.8891177433
 30
0.0
 10
3.9198791112
 20
9.9020776764
 30
0.0
 10
3.9209415643
 20
9.9154273908
 30
0.0
 10
3.9209415643
 20
9.9255645302
 30
0.0
  0
SPLINE
  5
247
100
AcDbEntity
  8
0
100
AcDbSpline
 62
7
  6
BYLAYER
 70
0
 71
3
 72
17
 73
13
 74
0
 42
0.0000001
 43
0.0000001
 44
0.0000000001
 40
0.0
 40
0.0
 40
0.0
 40
0.0
 40
0.0557918996
 40
0.1141899123
 40
0.2373931225
 40
0.3669963053
 40
0.500001012
 40
0.6330055773
 40
0.7626083455
 40
0.8858109284
 40
0.944208547
 40
1.0
 40
1.0
 40
1.0
 40
1.0
 10
3.9209415643
 20
9.9255645302
 30
0.0
 10
3.9209415643
 20
9.9310291206
 30
0.0
 10
3.9204518564
 20
9.9422177871
 30
0.0
 10
3.9176567217
 20
9.9653184848
 30
0.0
 10
3.9107310428
 20
9.9951064784
 30
0.0
 10
3.8976516677
 20
10.030649121
 30
0.0
 10
3.8801543689
 20
10.065315794
 30
0.0
 10
3.8588806707
 20
10.0978021037
 30
0.0
 10
3.834639451
 20
10.1269002832
 30
0.0
 10
3.8123050998
 20
10.1477918571
 30
0.0
 10
3.7936968824
 20
10.1617626332
 30
0.0
 10
3.7842520822
 20
10.1677809376
 30
0.0
 10
3.7795196193
 20
10.1705131645
 30
0.0
  0
SPLINE
  5
248
100
AcDbEntity
  8
0
100
AcDbSpline
 62
7
  6
BYLAYER
 70
0
 71
3
 72
17
 73
13
 74
0
 42
0.0000001
 43
0.0000001
 44
0.0000000001
 40
0.0
 40
0.0
 40
0.0
 40
0.0
 40
0.0557914424
 40
0.1141890333
 40
0.2373915508
 40
0.3669942942
 40
0.4999988505
 40
0.6330035663
 40
0.7626067737
 40
0.8858100495
 40
0.9442080897
 40
1.0
 40
1.0
 40
1.0
 40
1.0
 10
1.7642569026
 20
11.3339993149
 30
0.0
 10
1.7595244405
 20
11.3367315414
 30
0.0
 10
1.750079643
 20
11.3427498428
 30
0.0
 10
1.7314714325
 20
11.3567206113
 30
0.0
 10
1.7091370899
 20
11.3776121774
 30
0.0
 10
1.6848958732
 20
11.4067103465
 30
0.0
 10
1.6636221724
 20
11.4391966517
 30
0.0
 10
1.6461248685
 20
11.4738633247
 30
0.0
 10
1.6330454859
 20
11.5094059751
 30
0.0
 10
1.6261198045
 20
11.53919398
 30
0.0
 10
1.6233246667
 20
11.5622946876
 30
0.0
 10
1.6228349576
 20
11.5734833578
 30
0.0
 10
1.6228349576
 20
11.5789479492
 30
0.0
  0
SPLINE
  5
249
100
AcDbEntity
  8
0
100
AcDbSpline
 62
7
  6
BYLAYER
 70
0
 71
3
 72
15
 73
11
 74
0
 42
0.0000001
 43
0.0000001
 44
0.0000000001
 40
0.0
 40
0.0
 40
0.0
 40
0.0
 40
0.1484024344
 40
0.2894019685
 40
0.4227531666
 40
0.5486843259
 40
0.668016748
 40
0.7819296758
 40
0.8919795676
 40
1.0
 40
1.0
 40
1.0
 40
1.0
 10
1.6228349576
 20
12.1504996412
 30
0.0
 10
1.6228349576
 20
12.1557018052
 30
0.0
 10
1.6232585019
 20
12.1658535037
 30
0.0
 10
1.6252561638
 20
12.180560783
 30
0.0
 10
1.6285911682
 20
12.194220379
 30
0.0
 10
1.6332493854
 20
12.2066846781
 30
0.0
 10
1.6391793704
 20
12.2178369144
 30
0.0
 10
1.6463455713
 20
12.2275637205
 30
0.0
 10
1.65467606
 20
12.2357601015
 30
0.0
 10
1.6609785558
 20
12.2401626771
 30
0.0
 10
1.6642578493
 20
12.2420559653
 30
0.0
  0
SPLINE
  5
24A
100
AcDbEntity
  8
0
100
AcDbSpline
 62
7
  6
BYLAYER
 70
0
 71
3
 72
15
 73
11
 74
0
 42
0.0000001
 43
0.0000001
 44
0.0000000001
 40
0.0
 40
0.0
 40
0.0
 40
0.0
 40
0.1484018859
 40
0.289400985
 40
0.4227519167
 40
0.5486829943
 40
0.6680155254
 40
0.7819287401
 40
0.8919790589
 40
1.0
 40
1.0
 40
1.0
 40
1.0
 10
6.8908024099
 20
8.3742538446
 30
0.0
 10
6.8862973156
 20
8.3768548032
 30
0.0
 10
6.8772941414
 20
8.3815636235
 30
0.0
 10
6.8635587904
 20
8.3871869442
 30
0.0
 10
6.8500620867
 20
8.3911283177
 30
0.0
 10
6.836938923
 20
8.3933261768
 30
0.0
 10
6.8243161364
 20
8.3937666938
 30
0.0
 10
6.8123096738
 20
8.3924239783
 30
0.0
 10
6.8010464189
 20
8.3893078211
 30
0.0
 10
6.7940825768
 20
8.3860510841
 30
0.0
 10
6.7908033566
 20
8.3841578362
 30
0.0
  0
SPLINE
  5
24B
100
AcDbEntity
  8
0
100
AcDbSpline
 62
7
  6
BYLAYER
 70
0
 71
3
 72
15
 73
11
 74
0
 42
0.0000001
 43
0.0000001
 44
0.0000000001
 40
0.0
 40
0.0
 40
0.0
 40
0.0
 40
0.1080209189
 40
0.2180712128
 40
0.3319844074
 40
0.4513169317
 40
0.5772480288
 40
0.7105990134
 40
0.8515981333
 40
1.0
 40
1.0
 40
1.0
 40
1.0
 10
1.6642578493
 20
12.2420559653
 30
0.0
 10
1.6675370696
 20
12.2439492113
 30
0.0
 10
1.67450091
 20
12.2472059473
 30
0.0
 10
1.6857641616
 20
12.2503221077
 30
0.0
 10
1.6977706226
 20
12.2516648215
 30
0.0
 10
1.7103934088
 20
12.2512243066
 30
0.0
 10
1.723516575
 20
12.2490264482
 30
0.0
 10
1.737013281
 20
12.2450850713
 30
0.0
 10
1.7507486343
 20
12.2394617516
 30
0.0
 10
1.7597518089
 20
12.234752932
 30
0.0
 10
1.7642569026
 20
12.2321519738
 30
0.0
  0
SPLINE
  5
24C
100
AcDbEntity
  8
0
100
AcDbSpline
 62
7
  6
BYLAYER
 70
0
 71
3
 72
14
 73
10
 74
0
 42
0.0000001
 43
0.0000001
 44
0.0000000001
 40
0.0
 40
0.0
 40
0.0
 40
0.0
 40
0.2726646666
 40
0.4020275893
 40
0.5271567389
 40
0.6486803637
 40
0.767393729
 40
0.8841815184
 40
1.0
 40
1.0
 40
1.0
 40
1.0
 10
3.9731652996
 20
7.8906624397
 30
0.0
 10
3.9685563829
 20
7.8734616088
 30
0.0
 10
3.9598811892
 20
7.8485146296
 30
0.0
 10
3.9443466501
 20
7.8177483976
 30
0.0
 10
3.9312431486
 20
7.7969308892
 30
0.0
 10
3.9165467028
 20
7.7780791856
 30
0.0
 10
3.9003236858
 20
7.7612671683
 30
0.0
 10
3.8826401781
 20
7.7465759209
 30
0.0
 10
3.8699027122
 20
7.7382269208
 30
0.0
 10
3.8633517792
 20
7.7344453677
 30
0.0
  0
SPLINE
  5
24D
100
AcDbEntity
  8
0
100
AcDbSpline
 62
7
  6
BYLAYER
 70
0
 71
3
 72
11
 73
7
 74
0
 42
0.0000001
 43
0.0000001
 44
0.0000000001
 40
0.0
 40
0.0
 40
0.0
 40
0.0
 40
0.2324407897
 40
0.472645531
 40
0.727207235
 40
1.0
 40
1.0
 40
1.0
 40
1.0
 10
4.4847797384
 20
9.7155111528
 30
0.0
 10
4.4804011692
 20
9.7129846626
 30
0.0
 10
4.4720642966
 20
9.7067958782
 30
0.0
 10
4.4616758762
 20
9.6947193937
 30
0.0
 10
4.4534989985
 20
9.6800552083
 30
0.0
 10
4.4497112589
 20
9.6691685251
 30
0.0
 10
4.4481757511
 20
9.663437892
 30
0.0
  0
SPLINE
  5
24E
100
AcDbEntity
  8
0
100
AcDbSpline
 62
7
  6
BYLAYER
 70
0
 71
3
 72
15
 73
11
 74
0
 42
0.0000001
 43
0.0000001
 44
0.0000000001
 40
0.0
 40
0.0
 40
0.0
 40
0.0
 40
0.1484022636
 40
0.2894015068
 40
0.4227524787
 40
0.548683408
 40
0.6680163379
 40
0.7819332229
 40
0.8919878623
 40
1.0
 40
1.0
 40
1.0
 40
1.0
 10
3.403163066
 20
8.6731427303
 30
0.0
 10
3.4099207059
 20
8.6692412933
 30
0.0
 10
3.4234255005
 20
8.6621781476
 30
0.0
 10
3.4440285531
 20
8.6537433312
 30
0.0
 10
3.4642734734
 20
8.6478310767
 30
0.0
 10
3.4839580651
 20
8.6445336696
 30
0.0
 10
3.502892473
 20
8.6438728293
 30
0.0
 10
3.5209024137
 20
8.645888831
 30
0.0
 10
3.5377967061
 20
8.6505644896
 30
0.0
 10
3.548242621
 20
8.6554481656
 30
0.0
 10
3.5531617487
 20
8.6582865649
 30
0.0
  0
SPLINE
  5
24F
100
AcDbEntity
  8
0
100
AcDbSpline
 62
7
  6
BYLAYER
 70
0
 71
3
 72
15
 73
11
 74
0
 42
0.0000001
 43
0.0000001
 44
0.0000000001
 40
0.0
 40
0.0
 40
0.0
 40
0.0
 40
0.1080115942
 40
0.2180661562
 40
0.332002388
 40
0.4513387659
 40
0.5772455935
 40
0.7105262128
 40
0.8515201999
 40
1.0
 40
1.0
 40
1.0
 40
1.0
 10
3.0875789979
 20
8.7357675167
 30
0.0
 10
3.0957764083
 20
8.7405002658
 30
0.0
 10
3.1131795832
 20
8.7486555925
 30
0.0
 10
3.1413442708
 20
8.7564340702
 30
0.0
 10
3.1713626471
 20
8.7597874213
 30
0.0
 10
3.2029207444
 20
8.758692331
 30
0.0
 10
3.2357196689
 20
8.7531917353
 30
0.0
 10
3.269456908
 20
8.7433540523
 30
0.0
 10
3.3037948673
 20
8.7292916555
 30
0.0
 10
3.3263072977
 20
8.717514425
 30
0.0
 10
3.337576041
 20
8.7110085601
 30
0.0
  0
SPLINE
  5
250
100
AcDbEntity
  8
0
100
AcDbSpline
 62
7
  6
BYLAYER
 70
0
 71
3
 72
17
 73
13
 74
0
 42
0.0000001
 43
0.0000001
 44
0.0000000001
 40
0.0
 40
0.0
 40
0.0
 40
0.0
 40
0.0557914424
 40
0.1141890333
 40
0.2373915508
 40
0.3669942942
 40
0.4999988505
 40
0.6330035663
 40
0.7626067737
 40
0.8858100495
 40
0.9442080897
 40
1.0
 40
1.0
 40
1.0
 40
1.0
 10
8.9060651266
 20
8.1089203531
 30
0.0
 10
8.9107975886
 20
8.1061881267
 30
0.0
 10
8.9202423862
 20
8.1001698253
 30
0.0
 10
8.9388505966
 20
8.0861990568
 30
0.0
 10
8.9611849392
 20
8.0653074906
 30
0.0
 10
8.985426156
 20
8.0362093215
 30
0.0
 10
9.0066998567
 20
8.0037230164
 30
0.0
 10
9.0241971607
 20
7.9690563433
 30
0.0
 10
9.0372765433
 20
7.9335136929
 30
0.0
 10
9.0442022247
 20
7.903725688
 30
0.0
 10
9.0469973625
 20
7.8806249805
 30
0.0
 10
9.0474870716
 20
7.8694363102
 30
0.0
 10
9.0474870716
 20
7.8639717188
 30
0.0
  0
SPLINE
  5
251
100
AcDbEntity
  8
0
100
AcDbSpline
 62
7
  6
BYLAYER
 70
0
 71
3
 72
15
 73
11
 74
0
 42
0.0000001
 43
0.0000001
 44
0.0000000001
 40
0.0
 40
0.0
 40
0.0
 40
0.0
 40
0.1484024344
 40
0.2894019685
 40
0.4227531666
 40
0.5486843259
 40
0.668016748
 40
0.7819296758
 40
0.8919795676
 40
1.0
 40
1.0
 40
1.0
 40
1.0
 10
9.0474870716
 20
7.2924200268
 30
0.0
 10
9.0474870716
 20
7.2872178628
 30
0.0
 10
9.0470635273
 20
7.2770661644
 30
0.0
 10
9.0450658654
 20
7.262358885
 30
0.0
 10
9.041730861
 20
7.248699289
 30
0.0
 10
9.0370726437
 20
7.2362349899
 30
0.0
 10
9.0311426588
 20
7.2250827536
 30
0.0
 10
9.0239764579
 20
7.2153559475
 30
0.0
 10
9.0156459692
 20
7.2071595665
 30
0.0
 10
9.0093434734
 20
7.202756991
 30
0.0
 10
9.0060641799
 20
7.2008637027
 30
0.0
  0
SPLINE
  5
252
100
AcDbEntity
  8
0
100
AcDbSpline
 62
7
  6
BYLAYER
 70
0
 71
3
 72
15
 73
11
 74
0
 42
0.0000001
 43
0.0000001
 44
0.0000000001
 40
0.0
 40
0.0
 40
0.0
 40
0.0
 40
0.1080204103
 40
0.218070277
 40
0.3319831848
 40
0.4513156001
 40
0.5772467789
 40
0.7105980299
 40
0.8515975849
 40
1.0
 40
1.0
 40
1.0
 40
1.0
 10
6.7908033566
 20
8.3841578362
 30
0.0
 10
6.7875240647
 20
8.3822645468
 30
0.0
 10
6.7812215707
 20
8.3778619723
 30
0.0
 10
6.7728910808
 20
8.3696655957
 30
0.0
 10
6.7657248822
 20
8.3599387902
 30
0.0
 10
6.7597948956
 20
8.3487865554
 30
0.0
 10
6.7551366765
 20
8.3363222544
 30
0.0
 10
6.7518016739
 20
8.3226626547
 30
0.0
 10
6.74980401
 20
8.3079553739
 30
0.0
 10
6.7493804649
 20
8.2978036754
 30
0.0
 10
6.7493804649
 20
8.2926015121
 30
0.0
  0
SPLINE
  5
253
100
AcDbEntity
  8
0
100
AcDbSpline
 62
7
  6
BYLAYER
 70
0
 71
3
 72
9
 73
5
 74
0
 42
0.0000001
 43
0.0000001
 44
0.0000000001
 40
0.0
 40
0.0
 40
0.0
 40
0.0
 40
0.4860215575
 40
1.0
 40
1.0
 40
1.0
 40
1.0
 10
6.7493804649
 20
8.2926015121
 30
0.0
 10
6.7493804649
 20
8.2852526062
 30
0.0
 10
6.7502603905
 20
8.270124596
 30
0.0
 10
6.7526412417
 20
8.2551679908
 30
0.0
 10
6.7541993008
 20
8.2475541436
 30
0.0
  0
SPLINE
  5
254
100
AcDbEntity
  8
0
100
AcDbSpline
 62
7
  6
BYLAYER
 70
0
 71
3
 72
15
 73
11
 74
0
 42
0.0000001
 43
0.0000001
 44
0.0000000001
 40
0.0
 40
0.0
 40
0.0
 40
0.0
 40
0.1232017168
 40
0.2514835757
 40
0.3824353209
 40
0.5138627364
 40
0.6434304786
 40
0.7688953094
 40
0.888364898
 40
1.0
 40
1.0
 40
1.0
 40
1.0
 10
7.0622542995
 20
6.7421660258
 30
0.0
 10
7.0653232272
 20
6.7271689397
 30
0.0
 10
7.0733701244
 20
6.696901784
 30
0.0
 10
7.0901989139
 20
6.6523872419
 30
0.0
 10
7.1116901036
 20
6.6087812172
 30
0.0
 10
7.1372601554
 20
6.5672509457
 30
0.0
 10
7.1662251434
 20
6.5288602413
 30
0.0
 10
7.197856213
 20
6.49461644
 30
0.0
 10
7.2313147731
 20
6.4654433331
 30
0.0
 10
7.255146505
 20
6.4492493661
 30
0.0
 10
7.2671589631
 20
6.442314127
 30
0.0
  0
SPLINE
  5
255
100
AcDbEntity
  8
0
100
AcDbSpline
 62
7
  6
BYLAYER
 70
0
 71
3
 72
21
 73
17
 74
0
 42
0.0000001
 43
0.0000001
 44
0.0000000001
 40
0.0
 40
0.0
 40
0.0
 40
0.0
 40
0.0558030823
 40
0.1141834629
 40
0.1748163604
 40
0.2373882217
 40
0.3015811524
 40
0.3670320957
 40
0.4999989204
 40
0.6329658955
 40
0.6984170238
 40
0.7626102082
 40
0.8251823867
 40
0.8858156581
 40
0.9441964604
 40
1.0
 40
1.0
 40
1.0
 40
1.0
 10
7.3327459881
 20
6.4044482971
 30
0.0
 10
7.3445826455
 20
6.3976145544
 30
0.0
 10
7.3682003114
 20
6.3825685045
 30
0.0
 10
7.4024718602
 20
6.3568414223
 30
0.0
 10
7.4360754942
 20
6.3276517965
 30
0.0
 10
7.4686768153
 20
6.2952987171
 30
0.0
 10
7.4999727992
 20
6.2600871224
 30
0.0
 10
7.5397677724
 20
6.2095144369
 30
0.0
 10
7.5843303225
 20
6.1414534607
 30
0.0
 10
7.6209919462
 20
6.0688308065
 30
0.0
 10
7.6448920529
 20
6.0090809962
 30
0.0
 10
7.6597385044
 20
5.9643719892
 30
0.0
 10
7.6714567643
 20
5.9199617259
 30
0.0
 10
7.6799342577
 20
5.8762651039
 30
0.0
 10
7.6850791604
 20
5.8337212674
 30
0.0
 10
7.6863008507
 20
5.8057445407
 30
0.0
 10
7.6863008507
 20
5.7920767113
 30
0.0
  0
SPLINE
  5
256
100
AcDbEntity
  8
0
100
AcDbSpline
 62
7
  6
BYLAYER
 70
0
 71
3
 72
15
 73
11
 74
0
 42
0.0000001
 43
0.0000001
 44
0.0000000001
 40
0.0
 40
0.0
 40
0.0
 40
0.0
 40
0.1484803481
 40
0.2894747676
 40
0.4227556535
 40
0.5486625662
 40
0.6679988372
 40
0.7819347831
 40
0.8919889139
 40
1.0
 40
1.0
 40
1.0
 40
1.0
 10
7.6863008507
 20
5.7920767113
 30
0.0
 10
7.6863008507
 20
5.7790643641
 30
0.0
 10
7.6852442284
 20
5.7536786356
 30
0.0
 10
7.6802538288
 20
5.7169087522
 30
0.0
 10
7.6719049372
 20
5.6827715523
 30
0.0
 10
7.6602690387
 20
5.6516156107
 30
0.0
 10
7.6454381367
 20
5.6237371429
 30
0.0
 10
7.627524506
 20
5.5994164835
 30
0.0
 10
7.6067053244
 20
5.5789139038
 30
0.0
 10
7.5909406226
 20
5.5679197771
 30
0.0
 10
7.5827430312
 20
5.5631869235
 30
0.0
  0
ENDSEC
  0
SECTION
  2
OBJECTS
  0
DICTIONARY
  5
C
100
AcDbDictionary
280
0
281
1
  3
ACAD_GROUP
350
D
  3
ACAD_MLINESTYLE
350
17
  3
ACAD_LAYOUT
350
1A
  3
ACAD_PLOTSETTINGS
350
19
  3
ACAD_PLOTSTYLENAME
350
E
  0
DICTIONARY
  5
D
102
{ACAD_REACTORS
330
C
102
}
100
AcDbDictionary
280
0
281
1
  0
ACDBDICTIONARYWDFLT
  5
E
102
{ACAD_REACTORS
330
C
102
}
100
AcDbDictionary
281
1
  3
Normal
350
F
100
AcDbDictionaryWithDefault
340
F
  0
DICTIONARY
  5
17
102
{ACAD_REACTORS
330
C
102
}
100
AcDbDictionary
280
0
281
1
  3
Standard
350
18
  0
DICTIONARY
  5
19
102
{ACAD_REACTORS
330
C
102
}
100
AcDbDictionary
281
1
  0
DICTIONARY
  5
1A
102
{ACAD_REACTORS
330
C
102
}
100
AcDbDictionary
281
1
  3
Model
350
257
  3
Layout1
350
258
  0
ACDBPLACEHOLDER
  5
F
102
{ACAD_REACTORS
330
E
102
}
  0
MLINESTYLE
  5
18
102
{ACAD_REACTORS
330
17
102
}
100
AcDbMlineStyle
  2
STANDARD
 70
0
  3

 62
256
 51
90.0
 52
90.0
 71
2
 49
0.5
 62
256
  6
BYLAYER
 49
-0.5
 62
256
  6
BYLAYER
  0
LAYOUT
  5
257
102
{ACAD_REACTORS
330
1A
102
}
100
AcDbPlotSettings
  1

  2
none_device
  4

  6

 40
0.0
 41
0.0
 42
0.0
 43
0.0
 44
210.0
 45
297.0
 46
0.0
 47
0.0
 48
0.0
 49
0.0
140
0.0
141
0.0
142
1.0
143
1.0
 70
1024
 72
1
 73
0
 74
0
  7

 75
0
147
1.0
148
0.0
149
0.0
100
AcDbLayout
  1
Model
 70
0
 71
0
 10
0.0
 20
0.0
 11
210.0
 21
297.0
 12
0.0
 22
0.0
 32
0.0
 14
0.0
 24
0.0
 34
0.0
 15
0.0
 25
0.0
 35
0.0
146
0.0
 13
0.0
 23
0.0
 33
0.0
 16
1.0
 26
0.0
 36
0.0
 17
0.0
 27
1.0
 37
0.0
 76
0
330
210
345
0
346
0
  0
LAYOUT
  5
258
102
{ACAD_REACTORS
330
1A
102
}
100
AcDbPlotSettings
  1

  2
none_device
  4

  6

 40
0.0
 41
0.0
 42
0.0
 43
0.0
 44
210.0
 45
297.0
 46
0.0
 47
0.0
 48
0.0
 49
0.0
140
0.0
141
0.0
142
1.0
143
1.0
 70
0
 72
1
 73
0
 74
0
  7

 75
0
147
1.0
148
0.0
149
0.0
100
AcDbLayout
  1
Layout1
 70
0
 71
1
 10
0.0
 20
0.0
 11
210.0
 21
297.0
 12
0.0
 22
0.0
 32
0.0
 14
0.0
 24
0.0
 34
0.0
 15
0.0
 25
0.0
 35
0.0
146
0.0
 13
0.0
 23
0.0
 33
0.0
 16
1.0
 26
0.0
 36
0.0
 17
0.0
 27
1.0
 37
0.0
 76
0
330
211
345
0
346
0
  0
ENDSEC
  0
EOF
